  0
SECTION
  2
HEADER
  9
$ACADVER
  1
AC1009
  9
$INSBASE
 10
3700.6914604751691513
 20
148.7213588183761885
 30
0.0
  9
$EXTMIN
 10
3691.3746170237041042
 20
145.9673790289450039
 30
0.0
  9
$EXTMAX
 10
3700.6914604751691513
 20
149.863091110176299
 30
0.0
  9
$LIMMIN
 10
0.0
 20
0.0
  9
$LIMMAX
 10
11.6929133858000007
 20
8.2677165353999982
  9
$ORTHOMODE
 70
     0
  9
$REGENMODE
 70
     1
  9
$FILLMODE
 70
     1
  9
$QTEXTMODE
 70
     0
  9
$MIRRTEXT
 70
     0
  9
$DRAGMODE
 70
     2
  9
$LTSCALE
 40
0.6431102362
  9
$OSMODE
 70
  3839
  9
$ATTMODE
 70
     1
  9
$TEXTSIZE
 40
0.2
  9
$TRACEWID
 40
0.05
  9
$TEXTSTYLE
  7
STANDARD
  9
$CLAYER
  8
0
  9
$CELTYPE
  6
BYLAYER
  9
$CECOLOR
 62
   256
  9
$DIMSCALE
 40
1.0
  9
$DIMASZ
 40
0.1875
  9
$DIMEXO
 40
0.0625
  9
$DIMDLI
 40
0.4443307087
  9
$DIMRND
 40
0.0
  9
$DIMDLE
 40
0.0
  9
$DIMEXE
 40
0.125
  9
$DIMTP
 40
0.01
  9
$DIMTM
 40
0.01
  9
$DIMTXT
 40
2.0
  9
$DIMCEN
 40
0.1052362205
  9
$DIMTSZ
 40
0.0
  9
$DIMTOL
 70
     1
  9
$DIMLIM
 70
     0
  9
$DIMTIH
 70
     1
  9
$DIMTOH
 70
     1
  9
$DIMSE1
 70
     0
  9
$DIMSE2
 70
     0
  9
$DIMTAD
 70
     0
  9
$DIMZIN
 70
     0
  9
$DIMBLK
  1

  9
$DIMASO
 70
     1
  9
$DIMSHO
 70
     1
  9
$DIMPOST
  1
\X
  9
$DIMAPOST
  1

  9
$DIMALT
 70
     1
  9
$DIMALTD
 70
     2
  9
$DIMALTF
 40
25.3999999999999986
  9
$DIMLFAC
 40
1.0
  9
$DIMTOFL
 70
     0
  9
$DIMTVP
 40
0.0
  9
$DIMTIX
 70
     0
  9
$DIMSOXD
 70
     0
  9
$DIMSAH
 70
     0
  9
$DIMBLK1
  1

  9
$DIMBLK2
  1

  9
$DIMSTYLE
  2
STANDARD
  9
$DIMCLRD
 70
     0
  9
$DIMCLRE
 70
     0
  9
$DIMCLRT
 70
     0
  9
$DIMTFAC
 40
1.0
  9
$DIMGAP
 40
0.09
  9
$LUNITS
 70
     2
  9
$LUPREC
 70
     4
  9
$SKETCHINC
 40
0.1
  9
$FILLETRAD
 40
0.0
  9
$AUNITS
 70
     0
  9
$AUPREC
 70
     0
  9
$MENU
  1
.
  9
$ELEVATION
 40
0.0
  9
$PELEVATION
 40
0.0
  9
$THICKNESS
 40
0.0
  9
$LIMCHECK
 70
     0
  9
$BLIPMODE
 70
     0
  9
$CHAMFERA
 40
0.0
  9
$CHAMFERB
 40
0.0
  9
$SKPOLY
 70
     0
  9
$TDCREATE
 40
2458060.468368056230247
  9
$TDUPDATE
 40
2459029.6446180557832122
  9
$TDINDWG
 40
0.7209329861
  9
$TDUSRTIMER
 40
0.7209329861
  9
$USRTIMER
 70
     1
  9
$ANGBASE
 50
0.0
  9
$ANGDIR
 70
     0
  9
$PDMODE
 70
     0
  9
$PDSIZE
 40
0.3125
  9
$PLINEWID
 40
0.0
  9
$COORDS
 70
     1
  9
$SPLFRAME
 70
     0
  9
$SPLINETYPE
 70
     6
  9
$SPLINESEGS
 70
     8
  9
$ATTDIA
 70
     1
  9
$ATTREQ
 70
     1
  9
$HANDLING
 70
     1
  9
$HANDSEED
  5
F2DF
  9
$SURFTAB1
 70
     6
  9
$SURFTAB2
 70
     6
  9
$SURFTYPE
 70
     6
  9
$SURFU
 70
     6
  9
$SURFV
 70
     6
  9
$UCSNAME
  2

  9
$UCSORG
 10
0.0
 20
0.0
 30
0.0
  9
$UCSXDIR
 10
1.0
 20
0.0
 30
0.0
  9
$UCSYDIR
 10
0.0
 20
1.0
 30
0.0
  9
$PUCSNAME
  2

  9
$PUCSORG
 10
0.0
 20
0.0
 30
0.0
  9
$PUCSXDIR
 10
1.0
 20
0.0
 30
0.0
  9
$PUCSYDIR
 10
0.0
 20
1.0
 30
0.0
  9
$USERI1
 70
     0
  9
$USERI2
 70
     0
  9
$USERI3
 70
     0
  9
$USERI4
 70
     0
  9
$USERI5
 70
     0
  9
$USERR1
 40
0.0
  9
$USERR2
 40
0.0
  9
$USERR3
 40
0.0
  9
$USERR4
 40
0.0
  9
$USERR5
 40
0.0
  9
$WORLDVIEW
 70
     1
  9
$SHADEDGE
 70
     3
  9
$SHADEDIF
 70
    70
  9
$TILEMODE
 70
     1
  9
$MAXACTVP
 70
    64
  9
$PLIMCHECK
 70
     0
  9
$PEXTMIN
 10
1.0000000000000000E+20
 20
1.0000000000000000E+20
 30
1.0000000000000000E+20
  9
$PEXTMAX
 10
-1.0000000000000000E+20
 20
-1.0000000000000000E+20
 30
-1.0000000000000000E+20
  9
$PLIMMIN
 10
0.0
 20
0.0
  9
$PLIMMAX
 10
12.0
 20
9.0
  9
$UNITMODE
 70
     0
  9
$VISRETAIN
 70
     1
  9
$PLINEGEN
 70
     0
  9
$PSLTSCALE
 70
     1
  0
ENDSEC
  0
SECTION
  2
TABLES
  0
TABLE
  2
VPORT
 70
     1
  0
VPORT
  2
*ACTIVE
 70
     0
 10
0.0
 20
0.0
 11
1.0
 21
1.0
 12
0.0
 22
0.0
 13
0.0
 23
0.0
 14
1.0
 24
1.0
 15
0.0
 25
0.0
 16
0.0
 26
0.0
 36
41.924706179510153
 17
3696.032958984375
 27
147.9152374267578125
 37
0.0
 40
10.0985726322988594
 41
3.314341846758349
 42
50.0
 43
0.0
 44
0.0
 50
0.0
 51
0.0
 71
     0
 72
   100
 73
     1
 74
     1
 75
     0
 76
     0
 77
     0
 78
     0
  0
ENDTAB
  0
TABLE
  2
LTYPE
 70
     2
  0
LTYPE
  2
CONTINUOUS
 70
     0
  3
Solid line
 72
    65
 73
     0
 40
0.0
  0
LTYPE
  2
PHANTOM2
 70
     0
  3
___ _ _ ___ _ _ ___ _ _ ___ _ _
 72
    65
 73
     6
 40
1.25
 49
0.625
 49
-0.125
 49
0.125
 49
-0.125
 49
0.125
 49
-0.125
  0
ENDTAB
  0
TABLE
  2
LAYER
 70
     2
  0
LAYER
  2
0
 70
     0
 62
   255
  6
CONTINUOUS
  0
LAYER
  2
DEFPOINTS
 70
     0
 62
     7
  6
CONTINUOUS
  0
ENDTAB
  0
TABLE
  2
STYLE
 70
     1
  0
STYLE
  2
STANDARD
 70
     0
 40
0.0
 41
0.8
 50
0.0
 71
     0
 42
0.2
  3
txt
  4

  0
ENDTAB
  0
TABLE
  2
VIEW
 70
     0
  0
ENDTAB
  0
TABLE
  2
UCS
 70
     0
  0
ENDTAB
  0
TABLE
  2
APPID
 70
    10
  0
APPID
  2
ACAD
 70
     0
  0
APPID
  2
ACAD_MLEADERVER
 70
     0
  0
APPID
  2
ACAD_EXEMPT_FROM_CAD_STANDARDS
 70
     0
  0
APPID
  2
ACAD_NAV_VCDISPLAY
 70
     0
  0
APPID
  2
ACAECLAYERSTANDARD
 70
     0
  0
APPID
  2
ACCMTRANSPARENCY
 70
     0
  0
APPID
  2
ACAD_DSTYLE_DIMJAG
 70
     0
  0
APPID
  2
ACAD_DSTYLE_DIMTALN
 70
     0
  0
APPID
  2
ACDBATTR
 70
     0
  0
APPID
  2
ACAD_PSEXT
 70
     0
  0
ENDTAB
  0
TABLE
  2
DIMSTYLE
 70
     1
  0
DIMSTYLE
  2
STANDARD
 70
     0
  3

  4

  5

  6

  7

 40
1.0
 41
0.1875
 42
0.0625
 43
0.38
 44
0.125
 45
0.0
 46
0.0
 47
0.01
 48
0.01
140
0.15625
141
0.09
142
0.0
143
25.3999999999999986
144
1.0
145
0.0
146
1.0
147
0.09
 71
     1
 72
     0
 73
     1
 74
     1
 75
     0
 76
     0
 77
     0
 78
     4
170
     0
171
     2
172
     0
173
     0
174
     0
175
     0
176
     0
177
     0
178
     0
  0
ENDTAB
  0
ENDSEC
  0
SECTION
  2
BLOCKS
  0
BLOCK
  8
0
  2
$MODEL_SPACE
 70
     0
 10
0.0
 20
0.0
 30
0.0
  3
$MODEL_SPACE
  1

  0
ENDBLK
  5
21
  8
0
  0
BLOCK
 67
     1
  8
0
  2
$PAPER_SPACE
 70
     0
 10
0.0
 20
0.0
 30
0.0
  3
$PAPER_SPACE
  1

  0
ENDBLK
  5
1D
 67
     1
  8
0
  0
BLOCK
  8
0
  2
_FILLED
 70
     0
 10
0.0
 20
0.0
 30
0.0
  3
_FILLED
  1

  0
SOLID
  5
B630
  8
0
  6
BYBLOCK
 62
     0
 10
0.0
 20
0.0
 30
0.0
 11
-1.0
 21
0.1666666667
 31
0.0
 12
-1.0
 22
-0.1666666667
 32
0.0
 13
-1.0
 23
-0.1666666667
 33
0.0
  0
ENDBLK
  5
B631
  8
0
  6
BYBLOCK
 62
     0
  0
ENDSEC
  0
SECTION
  2
ENTITIES
  0
ATTDEF
  5
AA11
  8
DEFPOINTS
 10
3700.680573449899839
 20
148.7203105805839982
 30
0.0
 40
0.001
  1
K-97358T-4
  3

  2
MODELNUMBER
 70
     0
1001
ACDBATTR
1070
     0
1070
     1
  0
ATTDEF
  5
AA12
  8
DEFPOINTS
 10
3700.680573449899839
 20
148.7186439139173899
 30
0.0
 40
0.001
  1
AVID
  3

  2
TRADENAME
 70
     0
1001
ACDBATTR
1070
     0
1070
     1
  0
ATTDEF
  5
AA13
  8
DEFPOINTS
 10
3700.680573449899839
 20
148.7169772472506963
 30
0.0
 40
0.001
  1
BATHROOM SINK FAUCET
  3

  2
PRODUCT
 70
     0
1001
ACDBATTR
1070
     0
1070
     1
  0
ARC
  5
F168
  8
0
 10
3700.4079959365071772
 20
149.8315950188382999
 30
0.0
 40
0.0314960913379906
 50
90.0000515507527155
 51
179.9999786469792014
  0
ARC
  5
F169
  8
0
 10
3700.6607142805160038
 20
149.832344915319311
 30
0.0
 40
0.0307553377524524
 50
1.3971237703754931
 51
88.6028918792025593
  0
LINE
  5
F16A
  8
0
 10
3700.4079959081691413
 20
149.863091110176299
 30
0.0
 11
3700.6614641485621178
 21
149.863091110176299
 31
0.0
  0
LINE
  5
F16B
  8
0
 10
3700.3764998451679276
 20
149.8315950305762101
 30
0.0
 11
3700.3764998451679276
 21
147.6111225895762118
 31
0.0
  0
LINE
  5
F16C
  8
0
 10
3700.6914604751691513
 20
147.6111225978762036
 30
0.0
 11
3700.6914604751691513
 21
149.8330947917623064
 31
0.0
  0
LINE
  5
F16D
  8
0
 10
3699.5670968700678714
 20
147.8158479359761941
 30
0.0
 11
3699.6629640207838747
 21
147.8158727991381909
 31
0.0
  0
LINE
  5
F16E
  8
0
 10
3699.8680267158570132
 20
147.8159259821831881
 30
0.0
 11
3700.376499845267972
 21
147.8160578547762043
 31
0.0
  0
ARC
  5
F16F
  8
0
 10
3700.4079958798301959
 20
147.6111225778383016
 30
0.0
 40
0.0314960346620503
 50
179.9999786469678043
 51
270.0000515507787782
  0
ARC
  5
F170
  8
0
 10
3700.6574557115532116
 20
147.6135594650783105
 30
0.0
 40
0.0340919678255527
 50
275.5365834504888198
 51
355.9010469675957893
  0
LINE
  5
F171
  8
0
 10
3700.4079959081691413
 20
147.5796265431762038
 30
0.0
 11
3700.6607449487610211
 21
147.5796265431762038
 31
0.0
  0
ARC
  5
F172
  8
0
 10
3699.7657135400240804
 20
146.9746749471322005
 30
0.0
 40
0.8474498745786874
 50
83.0657275589578745
 51
96.9639917808040792
  0
ARC
  5
F173
  8
0
 10
3699.4707910619908944
 20
164.4046883715024876
 30
0.0
 40
16.5891189640520409
 50
268.6437861665961009
 51
270.3326195144740041
  0
ARC
  5
F174
  8
0
 10
3699.0797074318188606
 20
147.8792788630547079
 30
0.0
 40
0.0590826874255677
 50
170.030952067547787
 51
268.4959974568701
  0
LINE
  5
F175
  8
0
 10
3699.0215168092681779
 20
147.8895070300762029
 30
0.0
 11
3699.3153265361002013
 21
149.555785081399307
 31
0.0
  0
ARC
  5
F176
  8
0
 10
3699.3734938900201996
 20
149.5455207330726068
 30
0.0
 40
0.0590660260057711
 50
103.7341816268889971
 51
169.9892523343939956
  0
ARC
  5
F177
  8
0
 10
3699.7021287010170454
 20
147.0944691945335876
 30
0.0
 40
2.5317245664023851
 50
91.1178051821325283
 51
97.778612754451359
  0
LINE
  5
F178
  8
0
 10
3699.6527394555050705
 20
149.6257119688546879
 30
0.0
 11
3700.3764998451679276
 21
149.6257119688546879
 31
0.0
  0
LINE
  5
F179
  8
0
 10
3698.4792742567510686
 20
145.9673790289450039
 30
0.0
 11
3698.3527527566679964
 21
145.988459762376209
 31
0.0
  0
ARC
  5
F17A
  8
0
 10
3698.35777351671004
 20
146.018117244000706
 30
0.0
 40
0.0300794655489858
 50
174.6236426192155022
 51
260.3914122162855733
  0
LINE
  5
F17B
  8
0
 10
3698.3278210875678269
 20
146.0208787935762018
 30
0.0
 11
3698.637747178167956
 21
149.3504514880762031
 31
0.0
  0
ARC
  5
F17C
  8
0
 10
3698.6676197888691604
 20
149.3476708605602994
 30
0.0
 40
0.0300017459404741
 50
129.2369820732018866
 51
174.682069574554788
  0
ARC
  5
F17D
  8
0
 10
3699.3185238480700718
 20
148.5362661723360986
 30
0.0
 40
1.0702187169528541
 50
101.019976056641994
 51
128.750413887546614
  0
ARC
  5
F17E
  8
0
 10
3699.1138074870450509
 20
149.5746182001174134
 30
0.0
 40
0.0121333363451775
 50
351.7839286348656174
 51
89.3259355160055435
  0
LINE
  5
F17F
  8
0
 10
3699.1258162890680978
 20
149.572884266776299
 30
0.0
 11
3698.4914931531689035
 21
145.9768962771761949
 31
0.0
  0
ARC
  5
F180
  8
0
 10
3698.4792659480222028
 20
145.9799920492590957
 30
0.0
 40
0.0126130230507766
 50
270.0377431460638036
 51
345.7920135875996266
  0
LINE
  5
F181
  8
0
 10
3699.0301357989369535
 20
147.938387757967007
 30
0.0
 11
3698.8948117539530358
 21
147.9416672505340102
 31
0.0
  0
ARC
  5
F182
  8
0
 10
3698.8942060749382108
 20
148.2117398015901131
 30
0.0
 40
0.2700732302191355
 50
258.2215782771398835
 51
270.1284943359402746
  0
LINE
  5
F183
  8
0
 10
3699.3078365361598117
 20
149.5133071735452006
 30
0.0
 11
3699.2146083742682094
 21
149.5108911455762097
 31
0.0
  0
ARC
  5
F184
  8
0
 10
3699.2510943702927761
 20
149.1209273586975996
 30
0.0
 40
0.3916669286302232
 50
95.3451768387886176
 51
111.0237135825567947
  0
LINE
  5
F185
  8
0
 10
3698.5260473189309778
 20
148.1504466721642075
 30
0.0
 11
3691.403813482068017
 21
148.6715399672762032
 31
0.0
  0
ARC
  5
F186
  8
0
 10
3691.4061848820979321
 20
148.7030186290247968
 30
0.0
 40
0.0315678583939624
 50
179.0684062189351096
 51
265.6918417851657068
  0
LINE
  5
F187
  8
0
 10
3691.3746211963689348
 20
148.7035318801762003
 30
0.0
 11
3691.378594610995151
 21
148.9240982630716132
 31
0.0
  0
ARC
  5
F188
  8
0
 10
3691.7289614419660211
 20
148.9187797082915097
 30
0.0
 40
0.3504071963725917
 50
110.7136095524031987
 51
179.1303191060962945
  0
ARC
  5
F189
  8
0
 10
3691.831782058366116
 20
148.1709021402010933
 30
0.0
 40
1.0992765581841499
 50
90.0717886329983344
 51
101.9044304046737039
  0
LINE
  5
F18A
  8
0
 10
3691.830404722349158
 20
149.2701778355198883
 30
0.0
 11
3698.6187699919692022
 21
149.1465773296762052
 31
0.0
  0
LINE
  5
F18B
  8
0
 10
3692.8560715837438693
 20
148.5652865112834888
 30
0.0
 11
3692.8395889484449981
 21
148.5146316585922932
 31
0.0
  0
LINE
  5
F18C
  8
0
 10
3692.8395889484449981
 20
148.5146316585922932
 30
0.0
 11
3692.1328257148179546
 21
148.5664876592030907
 31
0.0
  0
ARC
  5
F18D
  8
0
 10
3692.6512538396159471
 20
148.5512295824260036
 30
0.0
 40
0.1606270024632558
 50
312.9080732332557773
 51
347.672693253220416
  0
LINE
  5
F18E
  8
0
 10
3692.7606125708680338
 20
148.4335788203761979
 30
0.0
 11
3692.1991293134678926
 21
148.4747696640762058
 31
0.0
  0
ARC
  5
F18F
  8
0
 10
3692.3214038260789494
 20
148.5739967813937028
 30
0.0
 40
0.1574708774510879
 50
183.5731228518658043
 51
219.059711216380208
  0
LINE
  5
F190
  8
0
 10
3692.1328257148179546
 20
148.5664876592030907
 30
0.0
 11
3692.1238691771259255
 21
148.6188575921399888
 31
0.0
  0
ENDSEC
  0
EOF
