  0
SECTION
  2
HEADER
  9
$ACADVER
  1
AC1009
  9
$INSBASE
 10
3708.2234827093911917
 20
149.4476974084784899
 30
0.0
  9
$EXTMIN
 10
3707.0817504258911868
 20
146.6937176190473053
 30
0.0
  9
$EXTMAX
 10
3713.3652157783899384
 20
150.5894297002784867
 30
0.0
  9
$LIMMIN
 10
0.0
 20
0.0
  9
$LIMMAX
 10
11.6929133858000007
 20
8.2677165353999982
  9
$ORTHOMODE
 70
     0
  9
$REGENMODE
 70
     1
  9
$FILLMODE
 70
     1
  9
$QTEXTMODE
 70
     0
  9
$MIRRTEXT
 70
     0
  9
$DRAGMODE
 70
     2
  9
$LTSCALE
 40
0.6431102362
  9
$OSMODE
 70
  3839
  9
$ATTMODE
 70
     1
  9
$TEXTSIZE
 40
0.2
  9
$TRACEWID
 40
0.05
  9
$TEXTSTYLE
  7
STANDARD
  9
$CLAYER
  8
0
  9
$CELTYPE
  6
BYLAYER
  9
$CECOLOR
 62
   256
  9
$DIMSCALE
 40
1.0
  9
$DIMASZ
 40
0.1875
  9
$DIMEXO
 40
0.0625
  9
$DIMDLI
 40
0.4443307087
  9
$DIMRND
 40
0.0
  9
$DIMDLE
 40
0.0
  9
$DIMEXE
 40
0.125
  9
$DIMTP
 40
0.01
  9
$DIMTM
 40
0.01
  9
$DIMTXT
 40
2.0
  9
$DIMCEN
 40
0.1052362205
  9
$DIMTSZ
 40
0.0
  9
$DIMTOL
 70
     1
  9
$DIMLIM
 70
     0
  9
$DIMTIH
 70
     1
  9
$DIMTOH
 70
     1
  9
$DIMSE1
 70
     0
  9
$DIMSE2
 70
     0
  9
$DIMTAD
 70
     0
  9
$DIMZIN
 70
     0
  9
$DIMBLK
  1

  9
$DIMASO
 70
     1
  9
$DIMSHO
 70
     1
  9
$DIMPOST
  1
\X
  9
$DIMAPOST
  1

  9
$DIMALT
 70
     1
  9
$DIMALTD
 70
     2
  9
$DIMALTF
 40
25.3999999999999986
  9
$DIMLFAC
 40
1.0
  9
$DIMTOFL
 70
     0
  9
$DIMTVP
 40
0.0
  9
$DIMTIX
 70
     0
  9
$DIMSOXD
 70
     0
  9
$DIMSAH
 70
     0
  9
$DIMBLK1
  1

  9
$DIMBLK2
  1

  9
$DIMSTYLE
  2
STANDARD
  9
$DIMCLRD
 70
     0
  9
$DIMCLRE
 70
     0
  9
$DIMCLRT
 70
     0
  9
$DIMTFAC
 40
1.0
  9
$DIMGAP
 40
0.09
  9
$LUNITS
 70
     2
  9
$LUPREC
 70
     4
  9
$SKETCHINC
 40
0.1
  9
$FILLETRAD
 40
0.0
  9
$AUNITS
 70
     0
  9
$AUPREC
 70
     0
  9
$MENU
  1
.
  9
$ELEVATION
 40
0.0
  9
$PELEVATION
 40
0.0
  9
$THICKNESS
 40
0.0
  9
$LIMCHECK
 70
     0
  9
$BLIPMODE
 70
     0
  9
$CHAMFERA
 40
0.0
  9
$CHAMFERB
 40
0.0
  9
$SKPOLY
 70
     0
  9
$TDCREATE
 40
2458060.468368056230247
  9
$TDUPDATE
 40
2459029.6443634261377156
  9
$TDINDWG
 40
0.7243820602
  9
$TDUSRTIMER
 40
0.7243820602
  9
$USRTIMER
 70
     1
  9
$ANGBASE
 50
0.0
  9
$ANGDIR
 70
     0
  9
$PDMODE
 70
     0
  9
$PDSIZE
 40
0.3125
  9
$PLINEWID
 40
0.0
  9
$COORDS
 70
     1
  9
$SPLFRAME
 70
     0
  9
$SPLINETYPE
 70
     6
  9
$SPLINESEGS
 70
     8
  9
$ATTDIA
 70
     1
  9
$ATTREQ
 70
     1
  9
$HANDLING
 70
     1
  9
$HANDSEED
  5
F9DE
  9
$SURFTAB1
 70
     6
  9
$SURFTAB2
 70
     6
  9
$SURFTYPE
 70
     6
  9
$SURFU
 70
     6
  9
$SURFV
 70
     6
  9
$UCSNAME
  2

  9
$UCSORG
 10
0.0
 20
0.0
 30
0.0
  9
$UCSXDIR
 10
1.0
 20
0.0
 30
0.0
  9
$UCSYDIR
 10
0.0
 20
1.0
 30
0.0
  9
$PUCSNAME
  2

  9
$PUCSORG
 10
0.0
 20
0.0
 30
0.0
  9
$PUCSXDIR
 10
1.0
 20
0.0
 30
0.0
  9
$PUCSYDIR
 10
0.0
 20
1.0
 30
0.0
  9
$USERI1
 70
     0
  9
$USERI2
 70
     0
  9
$USERI3
 70
     0
  9
$USERI4
 70
     0
  9
$USERI5
 70
     0
  9
$USERR1
 40
0.0
  9
$USERR2
 40
0.0
  9
$USERR3
 40
0.0
  9
$USERR4
 40
0.0
  9
$USERR5
 40
0.0
  9
$WORLDVIEW
 70
     1
  9
$SHADEDGE
 70
     3
  9
$SHADEDIF
 70
    70
  9
$TILEMODE
 70
     1
  9
$MAXACTVP
 70
    64
  9
$PLIMCHECK
 70
     0
  9
$PEXTMIN
 10
1.0000000000000000E+20
 20
1.0000000000000000E+20
 30
1.0000000000000000E+20
  9
$PEXTMAX
 10
-1.0000000000000000E+20
 20
-1.0000000000000000E+20
 30
-1.0000000000000000E+20
  9
$PLIMMIN
 10
0.0
 20
0.0
  9
$PLIMMAX
 10
12.0
 20
9.0
  9
$UNITMODE
 70
     0
  9
$VISRETAIN
 70
     1
  9
$PLINEGEN
 70
     0
  9
$PSLTSCALE
 70
     1
  0
ENDSEC
  0
SECTION
  2
TABLES
  0
TABLE
  2
VPORT
 70
     1
  0
VPORT
  2
*ACTIVE
 70
     0
 10
0.0
 20
0.0
 11
1.0
 21
1.0
 12
0.0
 22
0.0
 13
0.0
 23
0.0
 14
1.0
 24
1.0
 15
0.0
 25
0.0
 16
0.0
 26
0.0
 36
30.6539152898027609
 17
3710.2235107421879547
 27
148.6409225463866903
 37
0.0
 40
7.383731890521898
 41
3.314341846758349
 42
50.0
 43
0.0
 44
0.0
 50
0.0
 51
0.0
 71
     0
 72
   100
 73
     1
 74
     1
 75
     0
 76
     0
 77
     0
 78
     0
  0
ENDTAB
  0
TABLE
  2
LTYPE
 70
     2
  0
LTYPE
  2
CONTINUOUS
 70
     0
  3
Solid line
 72
    65
 73
     0
 40
0.0
  0
LTYPE
  2
PHANTOM2
 70
     0
  3
___ _ _ ___ _ _ ___ _ _ ___ _ _
 72
    65
 73
     6
 40
1.25
 49
0.625
 49
-0.125
 49
0.125
 49
-0.125
 49
0.125
 49
-0.125
  0
ENDTAB
  0
TABLE
  2
LAYER
 70
     2
  0
LAYER
  2
0
 70
     0
 62
   255
  6
CONTINUOUS
  0
LAYER
  2
DEFPOINTS
 70
     0
 62
     7
  6
CONTINUOUS
  0
ENDTAB
  0
TABLE
  2
STYLE
 70
     1
  0
STYLE
  2
STANDARD
 70
     0
 40
0.0
 41
0.8
 50
0.0
 71
     0
 42
0.2
  3
txt
  4

  0
ENDTAB
  0
TABLE
  2
VIEW
 70
     0
  0
ENDTAB
  0
TABLE
  2
UCS
 70
     0
  0
ENDTAB
  0
TABLE
  2
APPID
 70
    10
  0
APPID
  2
ACAD
 70
     0
  0
APPID
  2
ACAD_MLEADERVER
 70
     0
  0
APPID
  2
ACAD_EXEMPT_FROM_CAD_STANDARDS
 70
     0
  0
APPID
  2
ACAD_NAV_VCDISPLAY
 70
     0
  0
APPID
  2
ACAECLAYERSTANDARD
 70
     0
  0
APPID
  2
ACCMTRANSPARENCY
 70
     0
  0
APPID
  2
ACAD_DSTYLE_DIMJAG
 70
     0
  0
APPID
  2
ACAD_DSTYLE_DIMTALN
 70
     0
  0
APPID
  2
ACDBATTR
 70
     0
  0
APPID
  2
ACAD_PSEXT
 70
     0
  0
ENDTAB
  0
TABLE
  2
DIMSTYLE
 70
     1
  0
DIMSTYLE
  2
STANDARD
 70
     0
  3

  4

  5

  6

  7

 40
1.0
 41
0.1875
 42
0.0625
 43
0.38
 44
0.125
 45
0.0
 46
0.0
 47
0.01
 48
0.01
140
0.15625
141
0.09
142
0.0
143
25.3999999999999986
144
1.0
145
0.0
146
1.0
147
0.09
 71
     1
 72
     0
 73
     1
 74
     1
 75
     0
 76
     0
 77
     0
 78
     4
170
     0
171
     2
172
     0
173
     0
174
     0
175
     0
176
     0
177
     0
178
     0
  0
ENDTAB
  0
ENDSEC
  0
SECTION
  2
BLOCKS
  0
BLOCK
  8
0
  2
$MODEL_SPACE
 70
     0
 10
0.0
 20
0.0
 30
0.0
  3
$MODEL_SPACE
  1

  0
ENDBLK
  5
21
  8
0
  0
BLOCK
 67
     1
  8
0
  2
$PAPER_SPACE
 70
     0
 10
0.0
 20
0.0
 30
0.0
  3
$PAPER_SPACE
  1

  0
ENDBLK
  5
1D
 67
     1
  8
0
  0
BLOCK
  8
0
  2
_FILLED
 70
     0
 10
0.0
 20
0.0
 30
0.0
  3
_FILLED
  1

  0
SOLID
  5
B630
  8
0
  6
BYBLOCK
 62
     0
 10
0.0
 20
0.0
 30
0.0
 11
-1.0
 21
0.1666666667
 31
0.0
 12
-1.0
 22
-0.1666666667
 32
0.0
 13
-1.0
 23
-0.1666666667
 33
0.0
  0
ENDBLK
  5
B631
  8
0
  6
BYBLOCK
 62
     0
  0
ENDSEC
  0
SECTION
  2
ENTITIES
  0
ATTDEF
  5
AA11
  8
DEFPOINTS
 10
3708.2241893408481701
 20
149.4463450019800064
 30
0.0
 40
0.001
  1
K-97358T-4
  3

  2
MODELNUMBER
 70
     0
1001
ACDBATTR
1070
     0
1070
     1
  0
ATTDEF
  5
AA12
  8
DEFPOINTS
 10
3708.2241893408481701
 20
149.4446783353133981
 30
0.0
 40
0.001
  1
AVID
  3

  2
TRADENAME
 70
     0
1001
ACDBATTR
1070
     0
1070
     1
  0
ATTDEF
  5
AA13
  8
DEFPOINTS
 10
3708.2241893408481701
 20
149.4430116686467045
 30
0.0
 40
0.001
  1
BATHROOM SINK FAUCET
  3

  2
PRODUCT
 70
     0
1001
ACDBATTR
1070
     0
1070
     1
  0
ARC
  5
F7A7
  8
0
 10
3708.2062565420810643
 20
148.3012854562497864
 30
0.0
 40
0.4925508026429178
 50
87.9958260285708462
 51
95.331423706580992
  0
ARC
  5
F7A8
  8
0
 10
3708.2023731754288747
 20
148.9225226822022137
 30
0.0
 40
0.1373583782321519
 50
252.2468680332781901
 51
267.2487247442434182
  0
ARC
  5
F7A9
  8
0
 10
3708.2219965533208779
 20
149.1255907395635916
 30
0.0
 40
0.3412765667638348
 50
265.5942374072873804
 51
270.2494172359187132
  0
ARC
  5
F7AA
  8
0
 10
3708.2405921196509553
 20
148.2973604332705122
 30
0.0
 40
0.4964694429703248
 50
84.6973693158926864
 51
91.9749889043368825
  0
ARC
  5
F7AB
  8
0
 10
3708.2414352533619422
 20
148.935880198847002
 30
0.0
 40
0.1510460669011241
 50
273.7055851973551057
 51
287.34825155480479
  0
ARC
  5
F7AC
  8
0
 10
3708.2225484250211593
 20
149.2771493530183875
 30
0.0
 40
0.4928328312138972
 50
270.1085562861853191
 51
273.3325405406528716
  0
LINE
  5
F7AE
  8
0
 10
3707.9656382168900564
 20
149.1802247844784972
 30
0.0
 11
3708.022733377590157
 21
149.1802247844784972
 31
0.0
  0
ARC
  5
F7AF
  8
0
 10
3708.261621135301084
 20
153.6242920426545879
 30
0.0
 40
4.4645375343868023
 50
266.8885346749444238
 51
269.510543387073028
  0
ARC
  5
F7B0
  8
0
 10
3708.0626428534651495
 20
149.740444897595097
 30
0.0
 40
0.5757432646858275
 50
258.5489217388916927
 51
265.6818179828514985
  0
ARC
  5
F7B1
  8
0
 10
3707.953003725589042
 20
149.1801128954905096
 30
0.0
 40
0.0061123397132694
 50
109.6380404485036024
 51
220.2686704657319865
  0
ARC
  5
F7B2
  8
0
 10
3708.0683259807701688
 20
148.5592109438487967
 30
0.0
 40
0.637556619369629
 50
92.5170571580733849
 51
100.6088750830664935
  0
ARC
  5
F7B3
  8
0
 10
3708.2155196341441297
 20
146.1083981384279866
 30
0.0
 40
3.0927203673518191
 50
89.8524757968720138
 51
93.247368128520165
  0
LINE
  5
F7B4
  8
0
 10
3708.2195451694901749
 20
149.165825215878499
 30
0.0
 11
3708.2195451694901749
 21
149.1616478965785006
 31
0.0
  0
LINE
  5
F7B5
  8
0
 10
3708.164376306990107
 20
149.1621479727785129
 30
0.0
 11
3708.1791602640641941
 21
149.1661847670166026
 31
0.0
  0
LINE
  5
F7B6
  8
0
 10
3708.1791602640641941
 20
149.1661847670166026
 30
0.0
 11
3708.2195451694901749
 21
149.165825215878499
 31
0.0
  0
ARC
  5
F7B7
  8
0
 10
3707.9745225492051759
 20
149.187463834354304
 30
0.0
 40
0.0114601572320258
 50
219.1735195489229113
 51
259.6987681724098138
  0
LINE
  5
F7B8
  8
0
 10
3707.9724732052900436
 20
149.1761884011785071
 30
0.0
 11
3708.0276476843901037
 21
149.1772700569785002
 31
0.0
  0
ARC
  5
F7B9
  8
0
 10
3708.0296430604689704
 20
149.1861528738168943
 30
0.0
 40
0.0091041727068166
 50
220.6275943154182073
 51
257.3396183880961985
  0
LINE
  5
F7BA
  8
0
 10
3707.976921235429927
 20
149.1750827653085025
 30
0.0
 11
3708.0317235748898383
 21
149.176157125478511
 31
0.0
  0
LINE
  5
F7BB
  8
0
 10
3708.0317235748898383
 20
149.176157125478511
 30
0.0
 11
3708.0476601130899326
 21
149.173418480878496
 31
0.0
  0
LINE
  5
F7BC
  8
0
 10
3708.0476601130899326
 20
149.173418480878496
 30
0.0
 11
3707.9982142533899605
 21
149.1713298212785048
 31
0.0
  0
LINE
  5
F7BD
  8
0
 10
3707.9982142533899605
 20
149.1713298212785048
 30
0.0
 11
3707.976921235429927
 21
149.1750827653085025
 31
0.0
  0
LINE
  5
F7BE
  8
0
 10
3708.0022649012130387
 20
149.1708170148984038
 30
0.0
 11
3708.0515971209911186
 21
149.1729195673785
 31
0.0
  0
LINE
  5
F7BF
  8
0
 10
3708.0515971209911186
 20
149.1729195673785
 30
0.0
 11
3708.0760454881910846
 21
149.1705404737784875
 31
0.0
  0
LINE
  5
F7C0
  8
0
 10
3708.0760454881910846
 20
149.1705404737784875
 30
0.0
 11
3708.0356290663730761
 21
149.1675873500277021
 31
0.0
  0
LINE
  5
F7C1
  8
0
 10
3708.0356290663730761
 20
149.1675873500277021
 30
0.0
 11
3708.0022649012130387
 21
149.1708170148984038
 31
0.0
  0
LINE
  5
F7C2
  8
0
 10
3708.046936508554154
 20
149.1667607333428123
 30
0.0
 11
3708.0875050524568906
 21
149.1697041877962988
 31
0.0
  0
LINE
  5
F7C3
  8
0
 10
3708.0875050524568906
 20
149.1697041877962988
 30
0.0
 11
3708.1196982286937782
 21
149.1679370073229052
 31
0.0
  0
LINE
  5
F7C4
  8
0
 10
3708.1196982286937782
 20
149.1679370073229052
 30
0.0
 11
3708.0911506484039819
 21
149.1643193426930054
 31
0.0
  0
LINE
  5
F7C5
  8
0
 10
3708.0911506484039819
 20
149.1643193426930054
 30
0.0
 11
3708.046936508554154
 21
149.1667607333428123
 31
0.0
  0
LINE
  5
F7C6
  8
0
 10
3708.098503966627959
 20
149.1640098201881983
 30
0.0
 11
3708.1265173262809185
 21
149.1676489594144925
 31
0.0
  0
LINE
  5
F7C7
  8
0
 10
3708.1265173262809185
 20
149.1676489594144925
 30
0.0
 11
3708.163948833790073
 21
149.1664829760784983
 31
0.0
  0
LINE
  5
F7C8
  8
0
 10
3708.163948833790073
 20
149.1664829760784983
 30
0.0
 11
3708.1491648766568687
 21
149.162446181866386
 31
0.0
  0
LINE
  5
F7C9
  8
0
 10
3708.1491648766568687
 20
149.162446181866386
 30
0.0
 11
3708.098503966627959
 21
149.1640098201881983
 31
0.0
  0
ARC
  5
F7CA
  8
0
 10
3708.0573805249550787
 20
149.2378026629567103
 30
0.0
 40
0.0643331346217749
 50
243.5078767332634015
 51
265.8951599069187068
  0
LINE
  5
F7CB
  8
0
 10
3708.0527754495910813
 20
149.1736345595784883
 30
0.0
 11
3708.102228181972805
 21
149.1757235094777911
 31
0.0
  0
ARC
  5
F7CC
  8
0
 10
3708.1093272747689298
 20
149.232305046591307
 30
0.0
 40
0.0570251476161966
 50
245.9634602128870995
 51
262.8486625370198908
  0
LINE
  5
F7CD
  8
0
 10
3708.0860998392900001
 20
149.1802247844784972
 30
0.0
 11
3708.0286831362200246
 21
149.1802247844784972
 31
0.0
  0
LINE
  5
F7CE
  8
0
 10
3708.1962057866899158
 20
149.1802247844784972
 30
0.0
 11
3708.2064344331902248
 21
149.1789285690784936
 31
0.0
  0
LINE
  5
F7CF
  8
0
 10
3708.2064344331902248
 20
149.1789285690784936
 30
0.0
 11
3708.1886381414910829
 21
149.1766733511784935
 31
0.0
  0
LINE
  5
F7D0
  8
0
 10
3708.1886381414910829
 20
149.1766733511784935
 30
0.0
 11
3708.1606132032898131
 21
149.1802247844784972
 31
0.0
  0
LINE
  5
F7D1
  8
0
 10
3708.1606132032898131
 20
149.1802247844784972
 30
0.0
 11
3708.1962057866899158
 21
149.1802247844784972
 31
0.0
  0
LINE
  5
F7D2
  8
0
 10
3708.0916511879900099
 20
149.1802247844784972
 30
0.0
 11
3708.1546971174898317
 21
149.1802247844784972
 31
0.0
  0
ARC
  5
F7D3
  8
0
 10
3708.1863576478172035
 20
149.3059367787327858
 30
0.0
 40
0.1296375511955091
 50
255.8640531595796119
 51
269.7089283421100845
  0
LINE
  5
F7D4
  8
0
 10
3708.1856990713049527
 20
149.1763009003774982
 30
0.0
 11
3708.1541571338898393
 21
149.1723037787785131
 31
0.0
  0
ARC
  5
F7D5
  8
0
 10
3708.1644378320429496
 20
149.504013243986293
 30
0.0
 40
0.331868742220356
 50
257.3306926839745188
 51
268.22479555183412
  0
LINE
  5
F7D6
  8
0
 10
3708.129969800696017
 20
149.1680031761700889
 30
0.0
 11
3708.1580222155907904
 21
149.1716413860785053
 31
0.0
  0
LINE
  5
F7D7
  8
0
 10
3708.1580222155907904
 20
149.1716413860785053
 30
0.0
 11
3708.2195451694901749
 21
149.1704352730785104
 31
0.0
  0
LINE
  5
F7D8
  8
0
 10
3708.2195451694901749
 20
149.1704352730785104
 30
0.0
 11
3708.2195451694901749
 21
149.166257373278512
 31
0.0
  0
LINE
  5
F7D9
  8
0
 10
3708.129969800696017
 20
149.1680031761700889
 30
0.0
 11
3708.2195451694901749
 21
149.166257373278512
 31
0.0
  0
LINE
  5
F7DA
  8
0
 10
3708.2234821773899967
 20
149.1708632290784919
 30
0.0
 11
3708.1609762314910768
 21
149.1720157309785009
 31
0.0
  0
LINE
  5
F7DB
  8
0
 10
3708.213253530836937
 20
149.178640521327992
 30
0.0
 11
3708.1954572391900911
 21
149.1763853033785097
 31
0.0
  0
LINE
  5
F7DC
  8
0
 10
3708.1924991962901004
 20
149.1760104482785039
 30
0.0
 11
3708.2234827093911917
 21
149.1754719944242993
 31
0.0
  0
LINE
  5
F7DD
  8
0
 10
3708.2234827093911917
 20
149.175904066243703
 30
0.0
 11
3708.1954572391900911
 21
149.1763853033785097
 31
0.0
  0
LINE
  5
F7DE
  8
0
 10
3708.1609762314910768
 20
149.1720157309785009
 30
0.0
 11
3708.1924991962901004
 21
149.1760104482785039
 31
0.0
  0
LINE
  5
F7DF
  8
0
 10
3708.213253530836937
 20
149.178640521327992
 30
0.0
 11
3708.2234827093911917
 21
149.1784983868375036
 31
0.0
  0
ARC
  5
F7E0
  8
0
 10
3708.0428987101131497
 20
149.2837814847009952
 30
0.0
 40
0.1432596123159111
 50
186.864701609435798
 51
228.6961400557638058
  0
ARC
  5
F7E1
  8
0
 10
3708.2042326021478402
 20
146.3063828786611111
 30
0.0
 40
2.9841940030584939
 50
89.630400185636347
 51
94.6733406653291354
  0
ARC
  5
F7E2
  8
0
 10
3708.2042650932489778
 20
145.9201707926798974
 30
0.0
 40
3.3727031346681171
 50
89.6735276686131471
 51
94.4397524252382539
  0
ARC
  5
F7E3
  8
0
 10
3707.9655143959639645
 20
149.124135955857497
 30
0.0
 40
0.1565820363302152
 50
91.6169450535781351
 51
114.4657364313528944
  0
ARC
  5
F7E4
  8
0
 10
3707.9594319845150494
 20
149.0347263031295029
 30
0.0
 40
0.2485588849013459
 50
93.7485972174491451
 51
111.2778093677340934
  0
ARC
  5
F7E5
  8
0
 10
3707.9071111437251602
 20
149.3289170091655933
 30
0.0
 40
0.0731471844515173
 50
238.8123020981176978
 51
266.2866865399727203
  0
ARC
  5
F7E6
  8
0
 10
3708.5048813577600413
 20
149.4498999279954035
 30
0.0
 40
0.6616217835133803
 50
191.5048741670823063
 51
196.1073122753221867
  0
ARC
  5
F7E7
  8
0
 10
3708.2056784740220792
 20
145.7447630773490914
 30
0.0
 40
3.6000675943512719
 50
89.7166409586208147
 51
94.1989761190684902
  0
LINE
  5
F7E8
  8
0
 10
3707.9656382168900564
 20
149.1802247844784972
 30
0.0
 11
3708.022733377590157
 21
149.1802247844784972
 31
0.0
  0
ARC
  5
F7E9
  8
0
 10
3707.9616635760339705
 20
150.5412848692409113
 30
0.0
 40
1.25068091980441
 50
262.2521752561492008
 51
265.4176269148329084
  0
ARC
  5
F7EA
  8
0
 10
3707.8122316064668667
 20
149.4852611338409076
 30
0.0
 40
0.1842404372886752
 50
248.2884438458588079
 51
264.0256101444638261
  0
ARC
  5
F7EB
  8
0
 10
3707.822204166022857
 20
149.0801992815468111
 30
0.0
 40
0.2551664862821765
 50
98.2614611113370131
 51
107.2481628681567969
  0
ARC
  5
F7EC
  8
0
 10
3708.1997045565890403
 20
144.6375842086694092
 30
0.0
 40
4.7157004068429007
 50
89.711094120532934
 51
94.2229768680292636
  0
ARC
  5
F7ED
  8
0
 10
3707.911306009191776
 20
150.1751438701109862
 30
0.0
 40
0.884689668733044
 50
257.6621542087272019
 51
266.8327023831727729
  0
ARC
  5
F7EE
  8
0
 10
3707.7297684577029031
 20
149.3511536066365011
 30
0.0
 40
0.0409595333737987
 50
182.1107597842749897
 51
259.4504011537355836
  0
ARC
  5
F7EF
  8
0
 10
3700.391166448533113
 20
148.4607935883562106
 30
0.0
 40
7.351601742318242
 50
6.9443827800148172
 51
8.9857831702146918
  0
ARC
  5
F7F0
  8
0
 10
3711.172946031138963
 20
150.2805941606677038
 30
0.0
 40
3.5838846013886041
 50
186.8274953474061988
 51
190.8000880847255871
  0
ARC
  5
F7F1
  8
0
 10
3708.2252648012390637
 20
150.0167830514938885
 30
0.0
 40
0.6319694010171498
 50
194.8758618519642027
 51
269.8384312962830904
  0
ARC
  5
F7F2
  8
0
 10
3721.2238214528651952
 20
145.8975057692080952
 30
0.0
 40
14.2044156587093795
 50
163.3445768147180104
 51
164.1070034306304137
  0
ARC
  5
F7F3
  8
0
 10
3707.6478225214850681
 20
149.9636457485308085
 30
0.0
 40
0.0328735407826585
 50
90.7562765559684266
 51
171.1421962492956936
  0
ARC
  5
F7F4
  8
0
 10
3709.4569783142551387
 20
150.0818741437990127
 30
0.0
 40
1.8451109644375681
 50
183.5163366471298048
 51
185.241366259607787
  0
ARC
  5
F7F5
  8
0
 10
3708.2266217903111283
 20
150.0130473956967023
 30
0.0
 40
0.6151767360281414
 50
189.3294574833224999
 51
269.7076338257195971
  0
ARC
  5
F7F6
  8
0
 10
3707.7314800973549609
 20
149.3153436750133949
 30
0.0
 40
0.0102325766258244
 50
118.2442437161231936
 51
205.8231278477165063
  0
ARC
  5
F7F7
  8
0
 10
3707.8140947909428178
 20
149.0426624006886982
 30
0.0
 40
0.2949595185043816
 50
95.7923456505795485
 51
107.2478251897823043
  0
ARC
  5
F7F8
  8
0
 10
3708.200228868036902
 20
144.3291942758681898
 30
0.0
 40
5.0257092418810991
 50
89.7348927968398868
 51
94.0702862088429015
  0
LINE
  5
F7F9
  8
0
 10
3707.6473886192588907
 20
149.9965164256221897
 30
0.0
 11
3708.7995750215832231
 21
149.9965164256221897
 31
0.0
  0
LINE
  5
F7FA
  8
0
 10
3708.1512031179900077
 20
149.1719294339785051
 30
0.0
 11
3708.1226515695911985
 21
149.1683112665785131
 31
0.0
  0
ARC
  5
F7FB
  8
0
 10
3708.158864318572796
 20
150.1162999345309004
 30
0.0
 40
0.9486800713386448
 50
263.8185271045932723
 51
267.8123901385524164
  0
LINE
  5
F7FC
  8
0
 10
3708.0567124573899491
 20
149.1731356460784923
 30
0.0
 11
3708.1061651898908167
 21
149.1752245959785057
 31
0.0
  0
ARC
  5
F7FD
  8
0
 10
3708.1773182005381386
 20
149.838302052887002
 30
0.0
 40
0.6668841464485713
 50
263.8751851438445897
 51
267.755732068534428
  0
LINE
  5
F7FE
  8
0
 10
3707.9656382168900564
 20
149.1808061029475994
 30
0.0
 11
3708.022733377590157
 21
149.1808061029475994
 31
0.0
  0
LINE
  5
F7FF
  8
0
 10
3708.2195451694901749
 20
149.1952056715475976
 30
0.0
 11
3708.2195451694901749
 21
149.1993829908475959
 31
0.0
  0
LINE
  5
F800
  8
0
 10
3708.164376306990107
 20
149.1988829146476121
 30
0.0
 11
3708.1791602640641941
 21
149.194846120409494
 31
0.0
  0
LINE
  5
F801
  8
0
 10
3708.1791602640641941
 20
149.194846120409494
 30
0.0
 11
3708.2195451694901749
 21
149.1952056715475976
 31
0.0
  0
ARC
  5
F802
  8
0
 10
3707.9745225492051759
 20
149.1735670530717925
 30
0.0
 40
0.0114601572320258
 50
100.3012318275901009
 51
140.8264804510770034
  0
LINE
  5
F803
  8
0
 10
3707.9724732052900436
 20
149.1848424862475895
 30
0.0
 11
3708.0276476843901037
 21
149.1837608304475964
 31
0.0
  0
ARC
  5
F804
  8
0
 10
3708.0296430604689704
 20
149.1748780136092023
 30
0.0
 40
0.0091041727068166
 50
102.6603816119038015
 51
139.3724056845817074
  0
LINE
  5
F805
  8
0
 10
3707.976921235429927
 20
149.185948122117594
 30
0.0
 11
3708.0317235748898383
 21
149.184873761947614
 31
0.0
  0
LINE
  5
F806
  8
0
 10
3708.0317235748898383
 20
149.184873761947614
 30
0.0
 11
3708.0476601130899326
 21
149.1876124065476006
 31
0.0
  0
LINE
  5
F807
  8
0
 10
3708.0476601130899326
 20
149.1876124065476006
 30
0.0
 11
3707.9982142533899605
 21
149.1897010661475917
 31
0.0
  0
LINE
  5
F808
  8
0
 10
3707.9982142533899605
 20
149.1897010661475917
 30
0.0
 11
3707.976921235429927
 21
149.185948122117594
 31
0.0
  0
LINE
  5
F809
  8
0
 10
3708.0022649012130387
 20
149.1902138725276927
 30
0.0
 11
3708.0515971209911186
 21
149.1881113200475966
 31
0.0
  0
LINE
  5
F80A
  8
0
 10
3708.0515971209911186
 20
149.1881113200475966
 30
0.0
 11
3708.0760454881910846
 21
149.1904904136476091
 31
0.0
  0
LINE
  5
F80B
  8
0
 10
3708.0760454881910846
 20
149.1904904136476091
 30
0.0
 11
3708.0356290663730761
 21
149.1934435373983945
 31
0.0
  0
LINE
  5
F80C
  8
0
 10
3708.0356290663730761
 20
149.1934435373983945
 30
0.0
 11
3708.0022649012130387
 21
149.1902138725276927
 31
0.0
  0
LINE
  5
F80D
  8
0
 10
3708.046936508554154
 20
149.1942701540833127
 30
0.0
 11
3708.0875050524568906
 21
149.1913266996297978
 31
0.0
  0
LINE
  5
F80E
  8
0
 10
3708.0875050524568906
 20
149.1913266996297978
 30
0.0
 11
3708.1196982286937782
 21
149.1930938801031914
 31
0.0
  0
LINE
  5
F80F
  8
0
 10
3708.1196982286937782
 20
149.1930938801031914
 30
0.0
 11
3708.0911506484039819
 21
149.1967115447330912
 31
0.0
  0
LINE
  5
F810
  8
0
 10
3708.0911506484039819
 20
149.1967115447330912
 30
0.0
 11
3708.046936508554154
 21
149.1942701540833127
 31
0.0
  0
LINE
  5
F811
  8
0
 10
3708.098503966627959
 20
149.1970210672378983
 30
0.0
 11
3708.1265173262809185
 21
149.193381928011604
 31
0.0
  0
LINE
  5
F812
  8
0
 10
3708.1265173262809185
 20
149.193381928011604
 30
0.0
 11
3708.163948833790073
 21
149.1945479113475983
 31
0.0
  0
LINE
  5
F813
  8
0
 10
3708.163948833790073
 20
149.1945479113475983
 30
0.0
 11
3708.1491648766568687
 21
149.1985847055597105
 31
0.0
  0
LINE
  5
F814
  8
0
 10
3708.1491648766568687
 20
149.1985847055597105
 30
0.0
 11
3708.098503966627959
 21
149.1970210672378983
 31
0.0
  0
ARC
  5
F815
  8
0
 10
3708.0573805249550787
 20
149.1232282244693863
 30
0.0
 40
0.0643331346217749
 50
94.1048400930813358
 51
116.4921232667365985
  0
LINE
  5
F816
  8
0
 10
3708.0527754495910813
 20
149.1873963278476083
 30
0.0
 11
3708.102228181972805
 21
149.1853073779483054
 31
0.0
  0
ARC
  5
F817
  8
0
 10
3708.1093272747689298
 20
149.1287258408347896
 30
0.0
 40
0.0570251476161966
 50
97.1513374629800808
 51
114.0365397871129005
  0
LINE
  5
F818
  8
0
 10
3708.0860998392900001
 20
149.1808061029475994
 30
0.0
 11
3708.0286831362200246
 21
149.1808061029475994
 31
0.0
  0
LINE
  5
F819
  8
0
 10
3708.1962057866899158
 20
149.1808061029475994
 30
0.0
 11
3708.2064344331902248
 21
149.1821023183476029
 31
0.0
  0
LINE
  5
F81A
  8
0
 10
3708.2064344331902248
 20
149.1821023183476029
 30
0.0
 11
3708.1886381414910829
 21
149.1843575362476031
 31
0.0
  0
LINE
  5
F81B
  8
0
 10
3708.1886381414910829
 20
149.1843575362476031
 30
0.0
 11
3708.1606132032898131
 21
149.1808061029475994
 31
0.0
  0
LINE
  5
F81C
  8
0
 10
3708.1606132032898131
 20
149.1808061029475994
 30
0.0
 11
3708.1962057866899158
 21
149.1808061029475994
 31
0.0
  0
LINE
  5
F81D
  8
0
 10
3708.0916511879900099
 20
149.1808061029475994
 30
0.0
 11
3708.1546971174898317
 21
149.1808061029475994
 31
0.0
  0
ARC
  5
F81E
  8
0
 10
3708.1863576478172035
 20
149.0550941086933108
 30
0.0
 40
0.1296375511955091
 50
90.2910716578898445
 51
104.1359468404204023
  0
LINE
  5
F81F
  8
0
 10
3708.1856990713049527
 20
149.1847299870485983
 30
0.0
 11
3708.1541571338898393
 21
149.1887271086476119
 31
0.0
  0
ARC
  5
F820
  8
0
 10
3708.1644378320429496
 20
148.8570176434398036
 30
0.0
 40
0.331868742220356
 50
91.7752044481658942
 51
102.6693073160253959
  0
LINE
  5
F821
  8
0
 10
3708.129969800696017
 20
149.1930277112560077
 30
0.0
 11
3708.1580222155907904
 21
149.1893895013475912
 31
0.0
  0
LINE
  5
F822
  8
0
 10
3708.1580222155907904
 20
149.1893895013475912
 30
0.0
 11
3708.2195451694901749
 21
149.1905956143475862
 31
0.0
  0
LINE
  5
F823
  8
0
 10
3708.2195451694901749
 20
149.1905956143475862
 30
0.0
 11
3708.2195451694901749
 21
149.194773514147613
 31
0.0
  0
LINE
  5
F824
  8
0
 10
3708.129969800696017
 20
149.1930277112560077
 30
0.0
 11
3708.2195451694901749
 21
149.194773514147613
 31
0.0
  0
LINE
  5
F825
  8
0
 10
3708.2234821773899967
 20
149.1901676583476046
 30
0.0
 11
3708.1609762314910768
 21
149.1890151564475957
 31
0.0
  0
LINE
  5
F826
  8
0
 10
3708.213253530836937
 20
149.1823903660981046
 30
0.0
 11
3708.1954572391900911
 21
149.1846455840475869
 31
0.0
  0
LINE
  5
F827
  8
0
 10
3708.1924991962901004
 20
149.1850204391475927
 30
0.0
 11
3708.2234827093911917
 21
149.1855588930017973
 31
0.0
  0
LINE
  5
F828
  8
0
 10
3708.2234827093911917
 20
149.1851268211823935
 30
0.0
 11
3708.1954572391900911
 21
149.1846455840475869
 31
0.0
  0
LINE
  5
F829
  8
0
 10
3708.1609762314910768
 20
149.1890151564475957
 30
0.0
 11
3708.1924991962901004
 21
149.1850204391475927
 31
0.0
  0
LINE
  5
F82A
  8
0
 10
3708.213253530836937
 20
149.1823903660981046
 30
0.0
 11
3708.2234827093911917
 21
149.1825325005887066
 31
0.0
  0
LINE
  5
F82B
  8
0
 10
3707.9656382168900564
 20
149.1808061029475994
 30
0.0
 11
3708.022733377590157
 21
149.1808061029475994
 31
0.0
  0
LINE
  5
F82C
  8
0
 10
3708.1512031179900077
 20
149.1891014534475914
 30
0.0
 11
3708.1226515695911985
 21
149.1927196208476118
 31
0.0
  0
ARC
  5
F82D
  8
0
 10
3708.158864318572796
 20
148.2447309528951962
 30
0.0
 40
0.9486800713386448
 50
92.1876098614476263
 51
96.1814728954067562
  0
LINE
  5
F82E
  8
0
 10
3708.0567124573899491
 20
149.1878952413476043
 30
0.0
 11
3708.1061651898908167
 21
149.1858062914475909
 31
0.0
  0
ARC
  5
F82F
  8
0
 10
3708.1773182005381386
 20
148.5227288345390946
 30
0.0
 40
0.6668841464485713
 50
92.2442679314655862
 51
96.1248148561554245
  0
ARC
  5
F830
  8
0
 10
3708.2068600742441049
 20
150.8056062722376964
 30
0.0
 40
1.6440073152335759
 50
268.5192209698311103
 51
270.4420963493134877
  0
ARC
  5
F831
  8
0
 10
3708.2061937336711708
 20
147.6289359150302971
 30
0.0
 40
1.570503829597832
 50
89.5129014502278864
 51
91.5257812306374205
  0
ARC
  5
F832
  8
0
 10
3707.968758890493973
 20
148.9818262196108094
 30
0.0
 40
0.354346845045274
 50
94.3178757621425774
 51
108.4607773873219969
  0
ARC
  5
F833
  8
0
 10
3707.9508106638468234
 20
148.200577462305489
 30
0.0
 40
1.1441400539637661
 50
94.9317947080035367
 51
98.3054559210997922
  0
ARC
  5
F834
  8
0
 10
3707.926682072210042
 20
148.2472445487165089
 30
0.0
 40
1.098137499449203
 50
94.3440512847806048
 51
97.4484240566937245
  0
ARC
  5
F835
  8
0
 10
3707.7505069750118309
 20
149.3176811018917931
 30
0.0
 40
0.0073662328220223
 50
122.5423690092976017
 51
209.167287904929708
  0
ARC
  5
F836
  8
0
 10
4083.4596012267661536
 20
198.360168385426789
 30
0.0
 40
375.2816183896596272
 50
187.4966032891715031
 51
187.7193528031124004
  0
LINE
  5
F837
  8
0
 10
3711.5788273996467979
 20
147.9520027879329973
 30
0.0
 11
3711.7215704080372234
 21
146.8710391040885952
 31
0.0
  0
ARC
  5
F838
  8
0
 10
3993.7438929135109902
 20
169.9871226521129017
 30
0.0
 40
282.9548847922234245
 50
184.1699877825774081
 51
184.6789786536182874
  0
ARC
  5
F839
  8
0
 10
3711.9320700236648918
 20
146.9154181040364904
 30
0.0
 40
0.2003179124871245
 50
182.7842397024762136
 51
267.9920626457404751
  0
ARC
  5
F83A
  8
0
 10
3711.9205612609757736
 20
146.8936157284132094
 30
0.0
 40
0.2002674799345731
 50
186.4728478783376886
 51
266.5195906160752202
  0
LINE
  5
F83B
  8
0
 10
3708.4813272018900534
 20
149.1802247844784972
 30
0.0
 11
3708.4242320411908622
 21
149.1802247844784972
 31
0.0
  0
ARC
  5
F83C
  8
0
 10
3708.1888998499171066
 20
153.5111810702111086
 30
0.0
 40
4.3514010859352679
 50
270.455364309528477
 51
273.1455576284679978
  0
ARC
  5
F83D
  8
0
 10
3708.3843225653149602
 20
149.740444897595097
 30
0.0
 40
0.5757432646858275
 50
274.3181820171483878
 51
281.4510782611081936
  0
ARC
  5
F83E
  8
0
 10
3708.4939616931919772
 20
149.1801128954905096
 30
0.0
 40
0.0061123397132694
 50
319.7313295342680135
 51
70.3619595514964118
  0
ARC
  5
F83F
  8
0
 10
3708.3786394380108504
 20
148.5592109438487967
 30
0.0
 40
0.637556619369629
 50
79.3911249169334354
 51
87.4829428419266293
  0
ARC
  5
F840
  8
0
 10
3708.2314457846359801
 20
146.1083981384279866
 30
0.0
 40
3.0927203673518191
 50
86.7526318714798634
 51
90.1475242031279862
  0
LINE
  5
F841
  8
0
 10
3708.2274202492899349
 20
149.165825215878499
 30
0.0
 11
3708.2274202492899349
 21
149.1616478965785006
 31
0.0
  0
LINE
  5
F842
  8
0
 10
3708.2825891117900028
 20
149.1621479727785129
 30
0.0
 11
3708.2678051547159157
 21
149.1661847670166026
 31
0.0
  0
LINE
  5
F843
  8
0
 10
3708.2678051547159157
 20
149.1661847670166026
 30
0.0
 11
3708.2274202492899349
 21
149.165825215878499
 31
0.0
  0
ARC
  5
F844
  8
0
 10
3708.4724428695758434
 20
149.187463834354304
 30
0.0
 40
0.0114601572320258
 50
280.3012318275901862
 51
320.8264804510770887
  0
LINE
  5
F845
  8
0
 10
3708.4744922134900662
 20
149.1761884011785071
 30
0.0
 11
3708.4193177343900061
 21
149.1772700569785002
 31
0.0
  0
ARC
  5
F846
  8
0
 10
3708.4173223583129584
 20
149.1861528738168943
 30
0.0
 40
0.0091041727068166
 50
282.6603816119038015
 51
319.372405684581679
  0
LINE
  5
F847
  8
0
 10
3708.4700441833510922
 20
149.1750827653085025
 30
0.0
 11
3708.4152418438911809
 21
149.176157125478511
 31
0.0
  0
LINE
  5
F848
  8
0
 10
3708.4152418438911809
 20
149.176157125478511
 30
0.0
 11
3708.3993053056901772
 21
149.173418480878496
 31
0.0
  0
LINE
  5
F849
  8
0
 10
3708.3993053056901772
 20
149.173418480878496
 30
0.0
 11
3708.4487511653901493
 21
149.1713298212785048
 31
0.0
  0
LINE
  5
F84A
  8
0
 10
3708.4487511653901493
 20
149.1713298212785048
 30
0.0
 11
3708.4700441833510922
 21
149.1750827653085025
 31
0.0
  0
LINE
  5
F84B
  8
0
 10
3708.4447005175670711
 20
149.1708170148984038
 30
0.0
 11
3708.3953682977908102
 21
149.1729195673785
 31
0.0
  0
LINE
  5
F84C
  8
0
 10
3708.3953682977908102
 20
149.1729195673785
 30
0.0
 11
3708.3709199305899347
 21
149.1705404737784875
 31
0.0
  0
LINE
  5
F84D
  8
0
 10
3708.3709199305899347
 20
149.1705404737784875
 30
0.0
 11
3708.4113363524079432
 21
149.1675873500277021
 31
0.0
  0
LINE
  5
F84E
  8
0
 10
3708.4113363524079432
 20
149.1675873500277021
 30
0.0
 11
3708.4447005175679806
 21
149.1708170148984038
 31
0.0
  0
LINE
  5
F84F
  8
0
 10
3708.4000289102259558
 20
149.1667607333428123
 30
0.0
 11
3708.3594603663241287
 21
149.1697041877962988
 31
0.0
  0
LINE
  5
F850
  8
0
 10
3708.3594603663241287
 20
149.1697041877962988
 30
0.0
 11
3708.3272671900867863
 21
149.1679370073229052
 31
0.0
  0
LINE
  5
F851
  8
0
 10
3708.3272671900867863
 20
149.1679370073229052
 30
0.0
 11
3708.3558147703770373
 21
149.1643193426930054
 31
0.0
  0
LINE
  5
F852
  8
0
 10
3708.3558147703770373
 20
149.1643193426930054
 30
0.0
 11
3708.4000289102259558
 21
149.1667607333428123
 31
0.0
  0
LINE
  5
F853
  8
0
 10
3708.3484614521530602
 20
149.1640098201881983
 30
0.0
 11
3708.3204480925001008
 21
149.1676489594144925
 31
0.0
  0
LINE
  5
F854
  8
0
 10
3708.3204480925001008
 20
149.1676489594144925
 30
0.0
 11
3708.2830165849900368
 21
149.1664829760784983
 31
0.0
  0
LINE
  5
F855
  8
0
 10
3708.2830165849900368
 20
149.1664829760784983
 30
0.0
 11
3708.2978005421241505
 21
149.162446181866386
 31
0.0
  0
LINE
  5
F856
  8
0
 10
3708.2978005421241505
 20
149.162446181866386
 30
0.0
 11
3708.3484614521530602
 21
149.1640098201881983
 31
0.0
  0
ARC
  5
F857
  8
0
 10
3708.3895848938259405
 20
149.2378026629567103
 30
0.0
 40
0.0643331346217749
 50
274.1048400930812932
 51
296.4921232667365985
  0
LINE
  5
F858
  8
0
 10
3708.394189969189938
 20
149.1736345595784883
 30
0.0
 11
3708.3447372368082142
 21
149.1757235094777911
 31
0.0
  0
ARC
  5
F859
  8
0
 10
3708.3376381440120895
 20
149.232305046591307
 30
0.0
 40
0.0570251476161966
 50
277.1513374629801092
 51
294.0365397871128721
  0
LINE
  5
F85A
  8
0
 10
3708.3608655794910192
 20
149.1802247844784972
 30
0.0
 11
3708.4182822825609946
 21
149.1802247844784972
 31
0.0
  0
LINE
  5
F85B
  8
0
 10
3708.2507596320901939
 20
149.1802247844784972
 30
0.0
 11
3708.2405309855907944
 21
149.1789285690784936
 31
0.0
  0
LINE
  5
F85C
  8
0
 10
3708.2405309855907944
 20
149.1789285690784936
 30
0.0
 11
3708.2583272772899363
 21
149.1766733511784935
 31
0.0
  0
LINE
  5
F85D
  8
0
 10
3708.2583272772899363
 20
149.1766733511784935
 30
0.0
 11
3708.2863522154898419
 21
149.1802247844784972
 31
0.0
  0
LINE
  5
F85E
  8
0
 10
3708.2863522154898419
 20
149.1802247844784972
 30
0.0
 11
3708.2507596320901939
 21
149.1802247844784972
 31
0.0
  0
LINE
  5
F85F
  8
0
 10
3708.3553142307900998
 20
149.1802247844784972
 30
0.0
 11
3708.2922683012911875
 21
149.1802247844784972
 31
0.0
  0
ARC
  5
F860
  8
0
 10
3708.2606077709629062
 20
149.3059367787327858
 30
0.0
 40
0.1296375511955091
 50
270.2910716578899155
 51
284.1359468404203881
  0
LINE
  5
F861
  8
0
 10
3708.2612663474760666
 20
149.1763009003774982
 30
0.0
 11
3708.2928082848898157
 21
149.1723037787785131
 31
0.0
  0
ARC
  5
F862
  8
0
 10
3708.2825275867371602
 20
149.504013243986293
 30
0.0
 40
0.331868742220356
 50
271.77520444816588
 51
282.6693073160254812
  0
LINE
  5
F863
  8
0
 10
3708.3169956180859117
 20
149.1680031761700889
 30
0.0
 11
3708.2889432031911383
 21
149.1716413860785053
 31
0.0
  0
LINE
  5
F864
  8
0
 10
3708.2889432031911383
 20
149.1716413860785053
 30
0.0
 11
3708.2274202492899349
 21
149.1704352730785104
 31
0.0
  0
LINE
  5
F865
  8
0
 10
3708.2274202492899349
 20
149.1704352730785104
 30
0.0
 11
3708.2274202492899349
 21
149.166257373278512
 31
0.0
  0
LINE
  5
F866
  8
0
 10
3708.3169956180859117
 20
149.1680031761700889
 30
0.0
 11
3708.2274202492899349
 21
149.166257373278512
 31
0.0
  0
LINE
  5
F867
  8
0
 10
3708.2234832413901131
 20
149.1708632290784919
 30
0.0
 11
3708.2859891872899425
 21
149.1720157309785009
 31
0.0
  0
LINE
  5
F868
  8
0
 10
3708.2337118879431728
 20
149.178640521327992
 30
0.0
 11
3708.2515081795909282
 21
149.1763853033785097
 31
0.0
  0
LINE
  5
F869
  8
0
 10
3708.2544662224900094
 20
149.1760104482785039
 30
0.0
 11
3708.2234827093911917
 21
149.1754719944242993
 31
0.0
  0
LINE
  5
F86A
  8
0
 10
3708.2234827093911917
 20
149.175904066243703
 30
0.0
 11
3708.2515081795909282
 21
149.1763853033785097
 31
0.0
  0
LINE
  5
F86B
  8
0
 10
3708.2859891872899425
 20
149.1720157309785009
 30
0.0
 11
3708.2544662224900094
 21
149.1760104482785039
 31
0.0
  0
LINE
  5
F86C
  8
0
 10
3708.2337118879431728
 20
149.178640521327992
 30
0.0
 11
3708.2234827093911917
 21
149.1784983868375036
 31
0.0
  0
ARC
  5
F86D
  8
0
 10
3708.40406670866696
 20
149.2837814847009952
 30
0.0
 40
0.1432596123159111
 50
311.3038599442360805
 51
353.1352983905641736
  0
ARC
  5
F86E
  8
0
 10
3708.2427328166318148
 20
146.3063828786611111
 30
0.0
 40
2.9841940030584939
 50
85.326659334670893
 51
90.369599814363653
  0
ARC
  5
F86F
  8
0
 10
3708.2427003255320415
 20
145.9201707926798974
 30
0.0
 40
3.3727031346681171
 50
85.5602475747617603
 51
90.3264723313868672
  0
ARC
  5
F870
  8
0
 10
3708.4814510228161453
 20
149.124135955857497
 30
0.0
 40
0.1565820363302152
 50
65.5342635686471056
 51
88.3830549464218507
  0
ARC
  5
F871
  8
0
 10
3708.4875334342659698
 20
149.0347263031295029
 30
0.0
 40
0.2485588849013459
 50
68.7221906322658924
 51
86.2514027825508549
  0
ARC
  5
F872
  8
0
 10
3708.539854275055859
 20
149.3289170091655933
 30
0.0
 40
0.0731471844515173
 50
273.7133134600273934
 51
301.1876979018823022
  0
ARC
  5
F873
  8
0
 10
3707.9420840610200685
 20
149.4498999279954035
 30
0.0
 40
0.6616217835133803
 50
343.8926877246778986
 51
348.4951258329177222
  0
ARC
  5
F874
  8
0
 10
3708.2412869447589401
 20
145.7447630773490914
 30
0.0
 40
3.6000675943512719
 50
85.8010238809314956
 51
90.2833590413791853
  0
LINE
  5
F875
  8
0
 10
3708.4813272018900534
 20
149.1802247844784972
 30
0.0
 11
3708.4242320411908622
 21
149.1802247844784972
 31
0.0
  0
ARC
  5
F876
  8
0
 10
3708.4853018427470488
 20
150.5412848692409113
 30
0.0
 40
1.25068091980441
 50
274.5823730851669779
 51
277.7478247438507992
  0
ARC
  5
F877
  8
0
 10
3708.6347338123127884
 20
149.4852611338409076
 30
0.0
 40
0.1842404372886752
 50
275.9743898555361739
 51
291.7115561541411921
  0
ARC
  5
F878
  8
0
 10
3708.6247612527581623
 20
149.0801992815468111
 30
0.0
 40
0.2551664862821765
 50
72.7518371318432173
 51
81.7385388886630011
  0
ARC
  5
F879
  8
0
 10
3708.2472608621910695
 20
144.6375842086694092
 30
0.0
 40
4.7157004068429007
 50
85.7770231319707506
 51
90.2889058794670802
  0
ARC
  5
F87A
  8
0
 10
3708.5356594095887885
 20
150.1751438701109862
 30
0.0
 40
0.884689668733044
 50
273.1672976168272271
 51
282.3378457912727981
  0
ARC
  5
F87B
  8
0
 10
3708.7171969610772067
 20
149.3511536066365011
 30
0.0
 40
0.0409595333737987
 50
280.5495988462644164
 51
357.8892402157248966
  0
ARC
  5
F87C
  8
0
 10
3716.0557989702479063
 20
148.4607935883562106
 30
0.0
 40
7.351601742318242
 50
171.0142168297853118
 51
173.0556172199852085
  0
ARC
  5
F87D
  8
0
 10
3705.2740193876420562
 20
150.2805941606677038
 30
0.0
 40
3.5838846013886041
 50
349.1999119152744129
 51
353.1725046525937159
  0
ARC
  5
F87E
  8
0
 10
3708.2194301234030718
 20
150.0197267910517098
 30
0.0
 40
0.6349235614490817
 50
270.3657096127777777
 51
344.9199972389798177
  0
ARC
  5
F87F
  8
0
 10
3695.5643361533689131
 20
145.997054579203791
 30
0.0
 40
13.8490059306611606
 50
15.8834369713775807
 51
16.6654292040384711
  0
ARC
  5
F880
  8
0
 10
3708.7991429434960082
 20
149.9636457740921003
 30
0.0
 40
0.0328734911970669
 50
8.8577721300296002
 51
89.2469019044228133
  0
ARC
  5
F881
  8
0
 10
3706.9899871045258806
 20
150.0818741437990127
 30
0.0
 40
1.8451109644375681
 50
354.758633740392213
 51
356.4836633528702237
  0
ARC
  5
F882
  8
0
 10
3708.2053913857839689
 20
150.0305657014945098
 30
0.0
 40
0.6329456355042584
 50
271.6378937179069908
 51
349.3250149730413909
  0
ARC
  5
F883
  8
0
 10
3708.7154853214260584
 20
149.3153436750133949
 30
0.0
 40
0.0102325766258244
 50
334.1768721522835222
 51
61.7557562838767566
  0
ARC
  5
F884
  8
0
 10
3708.6328706278368372
 20
149.0426624006886982
 30
0.0
 40
0.2949595185043816
 50
72.7521748102177241
 51
84.2076543494204657
  0
ARC
  5
F885
  8
0
 10
3708.2467365507432078
 20
144.3291942758681898
 30
0.0
 40
5.0257092418810991
 50
85.9297137911571127
 51
90.2651072031601274
  0
LINE
  5
F886
  8
0
 10
3708.295762300790102
 20
149.1719294339785051
 30
0.0
 11
3708.3243138491898208
 21
149.1683112665785131
 31
0.0
  0
ARC
  5
F887
  8
0
 10
3708.288101100206859
 20
150.1162999345309004
 30
0.0
 40
0.9486800713386448
 50
272.1876098614475836
 51
276.1814728954067277
  0
LINE
  5
F888
  8
0
 10
3708.3902529613901606
 20
149.1731356460784923
 30
0.0
 11
3708.3408002288911121
 21
149.1752245959785057
 31
0.0
  0
ARC
  5
F889
  8
0
 10
3708.2696472182428806
 20
149.838302052887002
 30
0.0
 40
0.6668841464485713
 50
272.244267931465572
 51
276.1248148561554103
  0
LINE
  5
F88A
  8
0
 10
3708.4813272018900534
 20
149.1808061029475994
 30
0.0
 11
3708.4242320411908622
 21
149.1808061029475994
 31
0.0
  0
LINE
  5
F88B
  8
0
 10
3708.2274202492899349
 20
149.1952056715475976
 30
0.0
 11
3708.2274202492899349
 21
149.1993829908475959
 31
0.0
  0
LINE
  5
F88C
  8
0
 10
3708.2825891117900028
 20
149.1988829146476121
 30
0.0
 11
3708.2678051547159157
 21
149.194846120409494
 31
0.0
  0
LINE
  5
F88D
  8
0
 10
3708.2678051547159157
 20
149.194846120409494
 30
0.0
 11
3708.2274202492899349
 21
149.1952056715475976
 31
0.0
  0
ARC
  5
F88E
  8
0
 10
3708.4724428695758434
 20
149.1735670530717925
 30
0.0
 40
0.0114601572320258
 50
39.1735195489229326
 51
79.6987681724098422
  0
LINE
  5
F88F
  8
0
 10
3708.4744922134900662
 20
149.1848424862475895
 30
0.0
 11
3708.4193177343900061
 21
149.1837608304475964
 31
0.0
  0
ARC
  5
F890
  8
0
 10
3708.4173223583129584
 20
149.1748780136092023
 30
0.0
 40
0.0091041727068166
 50
40.6275943154182571
 51
77.3396183880961843
  0
LINE
  5
F891
  8
0
 10
3708.4700441833510922
 20
149.185948122117594
 30
0.0
 11
3708.4152418438911809
 21
149.184873761947614
 31
0.0
  0
LINE
  5
F892
  8
0
 10
3708.4152418438911809
 20
149.184873761947614
 30
0.0
 11
3708.3993053056901772
 21
149.1876124065476006
 31
0.0
  0
LINE
  5
F893
  8
0
 10
3708.3993053056901772
 20
149.1876124065476006
 30
0.0
 11
3708.4487511653901493
 21
149.1897010661475917
 31
0.0
  0
LINE
  5
F894
  8
0
 10
3708.4487511653901493
 20
149.1897010661475917
 30
0.0
 11
3708.4700441833510922
 21
149.185948122117594
 31
0.0
  0
LINE
  5
F895
  8
0
 10
3708.4447005175670711
 20
149.1902138725276927
 30
0.0
 11
3708.3953682977908102
 21
149.1881113200475966
 31
0.0
  0
LINE
  5
F896
  8
0
 10
3708.3953682977908102
 20
149.1881113200475966
 30
0.0
 11
3708.3709199305899347
 21
149.1904904136476091
 31
0.0
  0
LINE
  5
F897
  8
0
 10
3708.3709199305899347
 20
149.1904904136476091
 30
0.0
 11
3708.4113363524079432
 21
149.1934435373983945
 31
0.0
  0
LINE
  5
F898
  8
0
 10
3708.4113363524079432
 20
149.1934435373983945
 30
0.0
 11
3708.4447005175679806
 21
149.1902138725276927
 31
0.0
  0
LINE
  5
F899
  8
0
 10
3708.4000289102259558
 20
149.1942701540833127
 30
0.0
 11
3708.3594603663241287
 21
149.1913266996297978
 31
0.0
  0
LINE
  5
F89A
  8
0
 10
3708.3594603663241287
 20
149.1913266996297978
 30
0.0
 11
3708.3272671900867863
 21
149.1930938801031914
 31
0.0
  0
LINE
  5
F89B
  8
0
 10
3708.3272671900867863
 20
149.1930938801031914
 30
0.0
 11
3708.3558147703770373
 21
149.1967115447330912
 31
0.0
  0
LINE
  5
F89C
  8
0
 10
3708.3558147703770373
 20
149.1967115447330912
 30
0.0
 11
3708.4000289102259558
 21
149.1942701540833127
 31
0.0
  0
LINE
  5
F89D
  8
0
 10
3708.3484614521530602
 20
149.1970210672378983
 30
0.0
 11
3708.3204480925001008
 21
149.193381928011604
 31
0.0
  0
LINE
  5
F89E
  8
0
 10
3708.3204480925001008
 20
149.193381928011604
 30
0.0
 11
3708.2830165849900368
 21
149.1945479113475983
 31
0.0
  0
LINE
  5
F89F
  8
0
 10
3708.2830165849900368
 20
149.1945479113475983
 30
0.0
 11
3708.2978005421241505
 21
149.1985847055597105
 31
0.0
  0
LINE
  5
F8A0
  8
0
 10
3708.2978005421241505
 20
149.1985847055597105
 30
0.0
 11
3708.3484614521530602
 21
149.1970210672378983
 31
0.0
  0
ARC
  5
F8A1
  8
0
 10
3708.3895848938259405
 20
149.1232282244693863
 30
0.0
 40
0.0643331346217749
 50
63.5078767332633731
 51
85.8951599069186784
  0
LINE
  5
F8A2
  8
0
 10
3708.394189969189938
 20
149.1873963278476083
 30
0.0
 11
3708.3447372368082142
 21
149.1853073779483054
 31
0.0
  0
ARC
  5
F8A3
  8
0
 10
3708.3376381440120895
 20
149.1287258408347896
 30
0.0
 40
0.0570251476161966
 50
65.9634602128870853
 51
82.848662537019905
  0
LINE
  5
F8A4
  8
0
 10
3708.3608655794910192
 20
149.1808061029475994
 30
0.0
 11
3708.4182822825609946
 21
149.1808061029475994
 31
0.0
  0
LINE
  5
F8A5
  8
0
 10
3708.2507596320901939
 20
149.1808061029475994
 30
0.0
 11
3708.2405309855907944
 21
149.1821023183476029
 31
0.0
  0
LINE
  5
F8A6
  8
0
 10
3708.2405309855907944
 20
149.1821023183476029
 30
0.0
 11
3708.2583272772899363
 21
149.1843575362476031
 31
0.0
  0
LINE
  5
F8A7
  8
0
 10
3708.2583272772899363
 20
149.1843575362476031
 30
0.0
 11
3708.2863522154898419
 21
149.1808061029475994
 31
0.0
  0
LINE
  5
F8A8
  8
0
 10
3708.2863522154898419
 20
149.1808061029475994
 30
0.0
 11
3708.2507596320901939
 21
149.1808061029475994
 31
0.0
  0
LINE
  5
F8A9
  8
0
 10
3708.3553142307900998
 20
149.1808061029475994
 30
0.0
 11
3708.2922683012911875
 21
149.1808061029475994
 31
0.0
  0
ARC
  5
F8AA
  8
0
 10
3708.2606077709629062
 20
149.0550941086933108
 30
0.0
 40
0.1296375511955091
 50
75.8640531595796261
 51
89.7089283421101555
  0
LINE
  5
F8AB
  8
0
 10
3708.2612663474760666
 20
149.1847299870485983
 30
0.0
 11
3708.2928082848898157
 21
149.1887271086476119
 31
0.0
  0
ARC
  5
F8AC
  8
0
 10
3708.2825275867371602
 20
148.8570176434398036
 30
0.0
 40
0.331868742220356
 50
77.330692683974533
 51
88.2247955518341058
  0
LINE
  5
F8AD
  8
0
 10
3708.3169956180859117
 20
149.1930277112560077
 30
0.0
 11
3708.2889432031911383
 21
149.1893895013475912
 31
0.0
  0
LINE
  5
F8AE
  8
0
 10
3708.2889432031911383
 20
149.1893895013475912
 30
0.0
 11
3708.2274202492899349
 21
149.1905956143475862
 31
0.0
  0
LINE
  5
F8AF
  8
0
 10
3708.2274202492899349
 20
149.1905956143475862
 30
0.0
 11
3708.2274202492899349
 21
149.194773514147613
 31
0.0
  0
LINE
  5
F8B0
  8
0
 10
3708.3169956180859117
 20
149.1930277112560077
 30
0.0
 11
3708.2274202492899349
 21
149.194773514147613
 31
0.0
  0
LINE
  5
F8B1
  8
0
 10
3708.2234832413901131
 20
149.1901676583476046
 30
0.0
 11
3708.2859891872899425
 21
149.1890151564475957
 31
0.0
  0
LINE
  5
F8B2
  8
0
 10
3708.2337118879431728
 20
149.1823903660981046
 30
0.0
 11
3708.2515081795909282
 21
149.1846455840475869
 31
0.0
  0
LINE
  5
F8B3
  8
0
 10
3708.2544662224900094
 20
149.1850204391475927
 30
0.0
 11
3708.2234827093911917
 21
149.1855588930017973
 31
0.0
  0
LINE
  5
F8B4
  8
0
 10
3708.2234827093911917
 20
149.1851268211823935
 30
0.0
 11
3708.2515081795909282
 21
149.1846455840475869
 31
0.0
  0
LINE
  5
F8B5
  8
0
 10
3708.2859891872899425
 20
149.1890151564475957
 30
0.0
 11
3708.2544662224900094
 21
149.1850204391475927
 31
0.0
  0
LINE
  5
F8B6
  8
0
 10
3708.2337118879431728
 20
149.1823903660981046
 30
0.0
 11
3708.2234827093911917
 21
149.1825325005887066
 31
0.0
  0
LINE
  5
F8B7
  8
0
 10
3708.4813272018900534
 20
149.1808061029475994
 30
0.0
 11
3708.4242320411908622
 21
149.1808061029475994
 31
0.0
  0
LINE
  5
F8B8
  8
0
 10
3708.295762300790102
 20
149.1891014534475914
 30
0.0
 11
3708.3243138491898208
 21
149.1927196208476118
 31
0.0
  0
ARC
  5
F8B9
  8
0
 10
3708.288101100206859
 20
148.2447309528951962
 30
0.0
 40
0.9486800713386448
 50
83.8185271045932438
 51
87.8123901385523737
  0
LINE
  5
F8BA
  8
0
 10
3708.3902529613901606
 20
149.1878952413476043
 30
0.0
 11
3708.3408002288911121
 21
149.1858062914475909
 31
0.0
  0
ARC
  5
F8BB
  8
0
 10
3708.2696472182428806
 20
148.5227288345390946
 30
0.0
 40
0.6668841464485713
 50
83.8751851438445755
 51
87.7557320685344138
  0
ARC
  5
F8BC
  8
0
 10
3708.2401053445360048
 20
150.8056062722376964
 30
0.0
 40
1.6440073152335759
 50
269.5579036506865123
 51
271.4807790301688897
  0
ARC
  5
F8BD
  8
0
 10
3708.2407716851098485
 20
147.6289359150302971
 30
0.0
 40
1.570503829597832
 50
88.4742187693625937
 51
90.4870985497721136
  0
ARC
  5
F8BE
  8
0
 10
3708.4782065282870462
 20
148.9818262196108094
 30
0.0
 40
0.354346845045274
 50
71.5392226126779747
 51
85.6821242378574368
  0
ARC
  5
F8BF
  8
0
 10
3708.4961547549328316
 20
148.200577462305489
 30
0.0
 40
1.1441400539637661
 50
81.694544078900222
 51
85.0682052919964775
  0
ARC
  5
F8C0
  8
0
 10
3708.5202833465709773
 20
148.2472445487165089
 30
0.0
 40
1.098137499449203
 50
82.5515759433063039
 51
85.6559487152193952
  0
ARC
  5
F8C1
  8
0
 10
3708.6964584437700978
 20
149.3176811018917931
 30
0.0
 40
0.0073662328220223
 50
330.832712095070292
 51
57.4576309907023273
  0
ARC
  5
F8C2
  8
0
 10
3708.2234827093911917
 20
149.4518788529665017
 30
0.0
 40
0.710480695805813
 50
180.0
 51
0.0
  0
ARC
  5
F8C3
  8
0
 10
3708.539094411411952
 20
149.4721633709444859
 30
0.0
 40
1.0262928775693989
 50
162.1196120374065117
 51
181.1325158520976117
  0
ARC
  5
F8C4
  8
0
 10
3707.9078710073681577
 20
149.4721633709444859
 30
0.0
 40
1.0262928775693989
 50
358.8674841479024167
 51
17.8803879625934385
  0
CIRCLE
  5
F8C5
  8
0
 10
3708.2234827093911917
 20
149.4476974167785102
 30
0.0
 40
1.141732283499999
  0
LINE
  5
F8C6
  8
0
 10
3711.9250512956768944
 20
146.7152231902134076
 30
0.0
 11
3712.5219156941038818
 21
146.7152231902134076
 31
0.0
  0
ARC
  5
F8C7
  8
0
 10
3340.9873657630150774
 20
198.360168385426789
 30
0.0
 40
375.2816183896596272
 50
352.2806471968876281
 51
352.5033967108284969
  0
LINE
  5
F8C8
  8
0
 10
3712.8681395901339783
 20
147.9520027879329973
 30
0.0
 11
3712.7253965817430981
 21
146.8710391040885952
 31
0.0
  0
ARC
  5
F8C9
  8
0
 10
3430.7030740710260943
 20
169.9871226525172005
 30
0.0
 40
282.9548847974825208
 50
355.3210213463864875
 51
355.8300122174176749
  0
ARC
  5
F8CA
  8
0
 10
3712.5148969661158844
 20
146.9154181040364904
 30
0.0
 40
0.2003179124871245
 50
272.0079373542595249
 51
357.2157602975237864
  0
ARC
  5
F8CB
  8
0
 10
3712.5264059242917938
 20
146.8936155475938108
 30
0.0
 40
0.2002672653087118
 50
273.4802519255671882
 51
353.5271972187742904
  0
ARC
  5
F8CC
  8
0
 10
3712.2234834948899334
 20
149.4118369893961074
 30
0.0
 40
0.6854098829621167
 50
0.0
 51
180.0
  0
ARC
  5
F8CD
  8
0
 10
3712.2234834948899334
 20
149.4720208878293022
 30
0.0
 40
0.841068399076679
 50
354.9609280378924723
 51
185.0390719620978075
  0
ARC
  5
F8CE
  8
0
 10
3712.2234834940691144
 20
149.4476974001784981
 30
0.0
 40
0.9043531587784654
 50
330.2349477231874175
 51
209.7650525498596892
  0
ARC
  5
F8CF
  8
0
 10
3712.2234834948899334
 20
149.4476974001784981
 30
0.0
 40
1.141732283499999
 50
309.5900457372492269
 51
230.4099542627508868
  0
LINE
  5
F8D0
  8
0
 10
3711.9084035724099522
 20
146.6937176190473053
 30
0.0
 11
3712.5385630504761139
 21
146.6937176190473053
 31
0.0
  0
ENDSEC
  0
EOF
