  0
SECTION
  2
HEADER
  9
$ACADVER
  1
AC1009
  9
$INSBASE
 10
3744.5215394955548618
 20
-272.2341796026070142
 30
0.0
  9
$EXTMIN
 10
3737.7347418804611152
 20
-272.242739188052326
 30
-0.0015258207003583
  9
$EXTMAX
 10
3745.7362492274100987
 20
-267.2135993726034258
 30
0.0000000349246037
  9
$LIMMIN
 10
0.0
 20
0.0
  9
$LIMMAX
 10
11.6929133858000007
 20
8.2677165353999982
  9
$ORTHOMODE
 70
     0
  9
$REGENMODE
 70
     1
  9
$FILLMODE
 70
     1
  9
$QTEXTMODE
 70
     0
  9
$MIRRTEXT
 70
     0
  9
$DRAGMODE
 70
     2
  9
$LTSCALE
 40
0.6431102362
  9
$OSMODE
 70
  4095
  9
$ATTMODE
 70
     1
  9
$TEXTSIZE
 40
0.2
  9
$TRACEWID
 40
0.05
  9
$TEXTSTYLE
  7
STANDARD
  9
$CLAYER
  8
0
  9
$CELTYPE
  6
BYLAYER
  9
$CECOLOR
 62
   256
  9
$DIMSCALE
 40
1.0
  9
$DIMASZ
 40
0.1875
  9
$DIMEXO
 40
0.0625
  9
$DIMDLI
 40
0.4443307087
  9
$DIMRND
 40
0.0
  9
$DIMDLE
 40
0.0
  9
$DIMEXE
 40
0.125
  9
$DIMTP
 40
0.01
  9
$DIMTM
 40
0.01
  9
$DIMTXT
 40
2.0
  9
$DIMCEN
 40
0.1052362205
  9
$DIMTSZ
 40
0.0
  9
$DIMTOL
 70
     1
  9
$DIMLIM
 70
     0
  9
$DIMTIH
 70
     1
  9
$DIMTOH
 70
     1
  9
$DIMSE1
 70
     0
  9
$DIMSE2
 70
     0
  9
$DIMTAD
 70
     0
  9
$DIMZIN
 70
     0
  9
$DIMBLK
  1

  9
$DIMASO
 70
     1
  9
$DIMSHO
 70
     1
  9
$DIMPOST
  1
\X
  9
$DIMAPOST
  1

  9
$DIMALT
 70
     1
  9
$DIMALTD
 70
     2
  9
$DIMALTF
 40
25.3999999999999986
  9
$DIMLFAC
 40
1.0
  9
$DIMTOFL
 70
     0
  9
$DIMTVP
 40
0.0
  9
$DIMTIX
 70
     0
  9
$DIMSOXD
 70
     0
  9
$DIMSAH
 70
     0
  9
$DIMBLK1
  1

  9
$DIMBLK2
  1

  9
$DIMSTYLE
  2
STANDARD
  9
$DIMCLRD
 70
     0
  9
$DIMCLRE
 70
     0
  9
$DIMCLRT
 70
     0
  9
$DIMTFAC
 40
1.0
  9
$DIMGAP
 40
0.09
  9
$LUNITS
 70
     2
  9
$LUPREC
 70
     4
  9
$SKETCHINC
 40
0.1
  9
$FILLETRAD
 40
0.0
  9
$AUNITS
 70
     0
  9
$AUPREC
 70
     0
  9
$MENU
  1
.
  9
$ELEVATION
 40
0.0
  9
$PELEVATION
 40
0.0
  9
$THICKNESS
 40
0.0
  9
$LIMCHECK
 70
     0
  9
$BLIPMODE
 70
     0
  9
$CHAMFERA
 40
0.0
  9
$CHAMFERB
 40
0.0
  9
$SKPOLY
 70
     0
  9
$TDCREATE
 40
2458060.468368056230247
  9
$TDUPDATE
 40
2459054.459675925783813
  9
$TDINDWG
 40
0.3584329861
  9
$TDUSRTIMER
 40
0.3584329861
  9
$USRTIMER
 70
     1
  9
$ANGBASE
 50
0.0
  9
$ANGDIR
 70
     0
  9
$PDMODE
 70
     0
  9
$PDSIZE
 40
0.3125
  9
$PLINEWID
 40
0.0
  9
$COORDS
 70
     1
  9
$SPLFRAME
 70
     0
  9
$SPLINETYPE
 70
     6
  9
$SPLINESEGS
 70
     8
  9
$ATTDIA
 70
     1
  9
$ATTREQ
 70
     1
  9
$HANDLING
 70
     1
  9
$HANDSEED
  5
A01C
  9
$SURFTAB1
 70
     6
  9
$SURFTAB2
 70
     6
  9
$SURFTYPE
 70
     6
  9
$SURFU
 70
     6
  9
$SURFV
 70
     6
  9
$UCSNAME
  2

  9
$UCSORG
 10
0.0
 20
0.0
 30
0.0
  9
$UCSXDIR
 10
1.0
 20
0.0
 30
0.0
  9
$UCSYDIR
 10
0.0
 20
1.0
 30
0.0
  9
$PUCSNAME
  2

  9
$PUCSORG
 10
0.0
 20
0.0
 30
0.0
  9
$PUCSXDIR
 10
1.0
 20
0.0
 30
0.0
  9
$PUCSYDIR
 10
0.0
 20
1.0
 30
0.0
  9
$USERI1
 70
     0
  9
$USERI2
 70
     0
  9
$USERI3
 70
     0
  9
$USERI4
 70
     0
  9
$USERI5
 70
     0
  9
$USERR1
 40
0.0
  9
$USERR2
 40
0.0
  9
$USERR3
 40
0.0
  9
$USERR4
 40
0.0
  9
$USERR5
 40
0.0
  9
$WORLDVIEW
 70
     1
  9
$SHADEDGE
 70
     3
  9
$SHADEDIF
 70
    70
  9
$TILEMODE
 70
     1
  9
$MAXACTVP
 70
    64
  9
$PLIMCHECK
 70
     0
  9
$PEXTMIN
 10
1.0000000000000000E+20
 20
1.0000000000000000E+20
 30
1.0000000000000000E+20
  9
$PEXTMAX
 10
-1.0000000000000000E+20
 20
-1.0000000000000000E+20
 30
-1.0000000000000000E+20
  9
$PLIMMIN
 10
0.0
 20
0.0
  9
$PLIMMAX
 10
12.0
 20
9.0
  9
$UNITMODE
 70
     0
  9
$VISRETAIN
 70
     1
  9
$PLINEGEN
 70
     0
  9
$PSLTSCALE
 70
     1
  0
ENDSEC
  0
SECTION
  2
TABLES
  0
TABLE
  2
VPORT
 70
     1
  0
VPORT
  2
*ACTIVE
 70
     0
 10
0.0
 20
0.0
 11
1.0
 21
1.0
 12
-173.0871362820026036
 22
-388.9293907463923006
 13
0.0
 23
0.0
 14
1.0
 24
1.0
 15
0.0
 25
0.0
 16
0.0
 26
0.0
 36
60.2538140246172205
 17
3914.8226318359379547
 27
119.2012214660643963
 37
0.0
 40
5.0709911870060287
 41
2.6486111111111108
 42
50.0
 43
0.0
 44
0.0
 50
0.0
 51
0.0
 71
     0
 72
 10000
 73
     1
 74
     1
 75
     0
 76
     0
 77
     0
 78
     1
  0
ENDTAB
  0
TABLE
  2
LTYPE
 70
     2
  0
LTYPE
  2
CONTINUOUS
 70
     0
  3
Solid line
 72
    65
 73
     0
 40
0.0
  0
LTYPE
  2
PHANTOM2
 70
     0
  3
___ _ _ ___ _ _ ___ _ _ ___ _ _
 72
    65
 73
     6
 40
1.25
 49
0.625
 49
-0.125
 49
0.125
 49
-0.125
 49
0.125
 49
-0.125
  0
ENDTAB
  0
TABLE
  2
LAYER
 70
     2
  0
LAYER
  2
0
 70
     0
 62
   255
  6
CONTINUOUS
  0
LAYER
  2
DEFPOINTS
 70
     0
 62
     7
  6
CONTINUOUS
  0
ENDTAB
  0
TABLE
  2
STYLE
 70
     1
  0
STYLE
  2
STANDARD
 70
     0
 40
0.0
 41
0.8
 50
0.0
 71
     0
 42
0.2
  3
txt
  4

  0
ENDTAB
  0
TABLE
  2
VIEW
 70
     0
  0
ENDTAB
  0
TABLE
  2
UCS
 70
     0
  0
ENDTAB
  0
TABLE
  2
APPID
 70
    11
  0
APPID
  2
ACAD
 70
     0
  0
APPID
  2
ACAD_MLEADERVER
 70
     0
  0
APPID
  2
ACAD_EXEMPT_FROM_CAD_STANDARDS
 70
     0
  0
APPID
  2
ACAD_NAV_VCDISPLAY
 70
     0
  0
APPID
  2
ACAECLAYERSTANDARD
 70
     0
  0
APPID
  2
ACCMTRANSPARENCY
 70
     0
  0
APPID
  2
ACAD_DSTYLE_DIMJAG
 70
     0
  0
APPID
  2
ACAD_DSTYLE_DIMTALN
 70
     0
  0
APPID
  2
ACDBATTR
 70
     0
  0
APPID
  2
ACADANNOTATIVE
 70
     0
  0
APPID
  2
ACAD_PSEXT
 70
     0
  0
ENDTAB
  0
TABLE
  2
DIMSTYLE
 70
     1
  0
DIMSTYLE
  2
STANDARD
 70
     0
  3

  4

  5

  6

  7

 40
1.0
 41
0.1875
 42
0.0625
 43
0.38
 44
0.125
 45
0.0
 46
0.0
 47
0.01
 48
0.01
140
0.15625
141
0.09
142
0.0
143
25.3999999999999986
144
1.0
145
0.0
146
1.0
147
0.09
 71
     1
 72
     0
 73
     1
 74
     1
 75
     0
 76
     0
 77
     0
 78
     4
170
     0
171
     2
172
     0
173
     0
174
     0
175
     0
176
     0
177
     0
178
     0
  0
ENDTAB
  0
ENDSEC
  0
SECTION
  2
BLOCKS
  0
BLOCK
  8
0
  2
$MODEL_SPACE
 70
     0
 10
0.0
 20
0.0
 30
0.0
  3
$MODEL_SPACE
  1

  0
ENDBLK
  5
21
  8
0
  0
BLOCK
 67
     1
  8
0
  2
$PAPER_SPACE
 70
     0
 10
0.0
 20
0.0
 30
0.0
  3
$PAPER_SPACE
  1

  0
ENDBLK
  5
1D
 67
     1
  8
0
  0
BLOCK
  8
0
  2
_FILLED
 70
     0
 10
0.0
 20
0.0
 30
0.0
  3
_FILLED
  1

  0
SOLID
  5
98A4
  8
0
  6
BYBLOCK
 62
     0
 10
0.0
 20
0.0
 30
0.0
 11
-1.0
 21
0.1666666667
 31
0.0
 12
-1.0
 22
-0.1666666667
 32
0.0
 13
-1.0
 23
-0.1666666667
 33
0.0
  0
ENDBLK
  5
98A5
  8
0
  6
BYBLOCK
 62
     0
  0
ENDSEC
  0
SECTION
  2
ENTITIES
  0
ATTDEF
  5
7D89
  8
DEFPOINTS
 10
3744.521768889111172
 20
-272.230562161066814
 30
0.0
 40
0.001
  1
K-97352T-4ND
  3

  2
MODELNUMBER
 70
     0
1001
ACDBATTR
1070
     0
1070
     1
  0
ATTDEF
  5
7D8A
  8
DEFPOINTS
 10
3744.521768889111172
 20
-272.2322288277334792
 30
0.0
 40
0.001
  1
AVID
  3

  2
TRADENAME
 70
     0
1001
ACDBATTR
1070
     0
1070
     1
  0
ATTDEF
  5
7D8B
  8
DEFPOINTS
 10
3744.521768889111172
 20
-272.2338954944000875
 30
0.0
 40
0.001
  1
BATHROOM SINK FAUCET
  3

  2
PRODUCT
 70
     0
1001
ACDBATTR
1070
     0
1070
     1
  0
LINE
  5
9CA1
  8
0
 10
3743.4211457947480994
 20
-271.9783643361714098
 30
0.0
 11
3743.4211711669317992
 21
-271.9783643361714098
 31
0.0
  0
LINE
  5
9CA2
  8
0
 10
3743.4211457947480994
 20
-272.0083643362744965
 30
0.0
 11
3743.4211822741772266
 21
-272.0083643362744965
 31
0.0
  0
LINE
  5
9CA3
  8
0
 10
3745.5904371333608651
 20
-272.2341796026070142
 30
0.0
 11
3743.4526418577488585
 21
-272.2341796026070142
 31
0.0
  0
ARC
  5
9CA4
  8
0
 10
3743.4526344246810368
 20
-272.2027014846411817
 30
0.0
 40
0.0314781188477151
 50
179.967336841647608
 51
270.0135630279741008
  0
ARC
  5
9CA5
  8
0
 10
3520.8172198074830703
 20
-272.0757815500077754
 30
0.0
 40
222.6039726755867889
 50
359.9673368416476933
 51
0.0321907274347506
  0
ARC
  5
9CA6
  8
0
 10
3743.4526357227500739
 20
-271.9506973499791798
 30
0.0
 40
0.0314783779700273
 50
89.9888333031394723
 51
180.0321907274411899
  0
LINE
  5
9CA7
  8
0
 10
3743.4526295877290067
 20
-271.9192189726069842
 30
0.0
 11
3745.5904371333481322
 21
-271.9192189726069842
 31
0.0
  0
ARC
  5
9CA8
  8
0
 10
3745.5904371334190728
 20
-271.9507150354363034
 30
0.0
 40
0.0314960628292909
 50
359.9999996894590026
 51
90.0000001286340421
  0
LINE
  5
9CA9
  8
0
 10
3745.6219331962479373
 20
-271.9507150356070042
 30
0.0
 11
3745.6219331963479817
 21
-272.2026835396069941
 31
0.0
  0
ARC
  5
9CAA
  8
0
 10
3745.5904371333608651
 20
-272.2026835396194997
 30
0.0
 40
0.0314960629875003
 50
269.9999999772538786
 51
0.0000000227363351
  0
LINE
  5
9CAB
  8
0
 10
3745.2262765943478371
 20
-271.9192189726069842
 30
0.0
 11
3745.2262765945361025
 21
-268.6178622292912905
 31
0.0
  0
ARC
  5
9CAC
  8
0
 10
3742.7363251780479914
 20
-268.4065383571859229
 30
0.0
 40
2.498902926365496
 50
355.1488934511140769
 51
24.688445267713039
  0
ARC
  5
9CAD
  8
0
 10
3744.9791432690772126
 20
-267.3778433215803148
 30
0.0
 40
0.0314978076956817
 50
28.5556943072859788
 51
88.9699890756472911
  0
LINE
  5
9CAE
  8
0
 10
3744.9797094772479795
 20
-267.3463506034070178
 30
0.0
 11
3738.1009540363479573
 21
-267.2229018348069758
 31
0.0
  0
LINE
  5
9CAF
  8
0
 10
3738.1009540363479573
 20
-267.2229018348069758
 30
0.0
 11
3738.094598367648814
 21
-267.2228447873069967
 31
0.0
  0
ARC
  5
9CB0
  8
0
 10
3738.094598367648814
 20
-267.5771754960078965
 30
0.0
 40
0.3543307087009051
 50
90.0
 51
91.9145513809533981
  0
ARC
  5
9CB1
  8
0
 10
3738.0979202784660629
 20
-267.5804469232484166
 30
0.0
 40
0.3577257008113106
 50
92.4288156325278152
 51
178.4850348792739112
  0
ARC
  5
9CB2
  8
0
 10
3748.9421163911401891
 20
-267.8672465561820104
 30
0.0
 40
11.2057136875115209
 50
178.4850348792739112
 51
179.5175086400782902
  0
ARC
  5
9CB3
  8
0
 10
3737.7680239461578822
 20
-267.7731465971336888
 30
0.0
 40
0.0312250293534395
 50
179.5175086400749933
 51
268.513332678999177
  0
LINE
  5
9CB4
  8
0
 10
3737.7672138337479737
 20
-267.8043611158070121
 30
0.0
 11
3737.8526375166288744
 21
-267.8065781221393991
 31
0.0
  0
ARC
  5
9CB5
  8
0
 10
3737.5034244069302076
 20
-276.0562041984858865
 30
0.0
 40
8.2570139999591525
 50
86.336616528165905
 51
87.5760720573538833
  0
ARC
  5
9CB6
  8
0
 10
3737.987860647834168
 20
-268.545377452181981
 30
0.0
 40
0.7305902267482332
 50
75.1153910909430351
 51
86.6146689212038723
  0
LINE
  5
9CB7
  8
0
 10
3738.1755296906208059
 20
-267.8393020951555741
 30
0.0
 11
3739.2367468612437733
 21
-267.8757386493786044
 31
0.0
  0
ARC
  5
9CB8
  8
0
 10
3739.4672967236228942
 20
-269.9623097191520174
 30
0.0
 40
2.099269412976462
 50
86.2503187213164466
 51
96.3051617611104405
  0
LINE
  5
9CB9
  8
0
 10
3739.6045838596492104
 20
-267.8675342394070071
 30
0.0
 11
3743.0481568911591239
 21
-267.9859296851075214
 31
0.0
  0
ARC
  5
9CBA
  8
0
 10
3742.9785243283017735
 20
-269.6251879561941109
 30
0.0
 40
1.640736515095633
 50
82.8749511167786608
 51
87.5677274222389883
  0
ARC
  5
9CBB
  8
0
 10
3743.160013623472878
 20
-268.6354789295124874
 30
0.0
 40
0.6387370760446843
 50
9.6885985996652817
 51
88.0243825790942367
  0
ARC
  5
9CBC
  8
0
 10
3741.7353650036511681
 20
-268.8284558326914748
 30
0.0
 40
2.0761336071325198
 50
357.1628288462003979
 51
8.3214550608020215
  0
LINE
  5
9CBD
  8
0
 10
3743.8089537597479648
 20
-268.9312197624070109
 30
0.0
 11
3743.8089537597479648
 21
-271.9192189726069842
 31
0.0
  0
LINE
  5
9CBE
  8
0
 10
3738.9824344506978377
 20
-268.0050710846069819
 30
0.0
 11
3738.4190312516661834
 21
-267.9848728714810022
 31
0.0
  0
LINE
  5
9CBF
  8
0
 10
3738.3499594439022076
 20
-267.8966600894070211
 30
0.0
 11
3739.0582017945489497
 21
-267.9210107537069803
 31
0.0
  0
LINE
  5
9CC0
  8
0
 10
3738.3499598638818497
 20
-267.8966620893372124
 30
0.0
 11
3738.3391271899058665
 21
-267.8450772675147959
 31
0.0
  0
ARC
  5
9CC1
  8
0
 10
3738.8715154069482196
 20
-267.8932810343069946
 30
0.0
 40
0.1574803149999835
 50
314.7759195913704957
 51
350.258021861304087
  0
LINE
  5
9CC2
  8
0
 10
3739.0582017945489497
 20
-267.9210107537069803
 30
0.0
 11
3739.0726057112910894
 21
-267.8701029151707189
 31
0.0
  0
ARC
  5
9CC3
  8
0
 10
3738.5381099253490902
 20
-267.8818179391070089
 30
0.0
 40
0.1574803150000276
 50
185.8036651645113864
 51
220.8740810406634978
  0
LINE
  5
9CC4
  8
0
 10
3744.9554815492028865
 20
-270.7058331459069791
 30
0.0
 11
3744.0955602013691532
 21
-270.7058331459069791
 31
0.0
  0
LINE
  5
9CC5
  8
0
 10
3744.0255197665492233
 20
-271.4404392347070143
 30
0.0
 11
3744.0255197588430747
 21
-271.8562270219338757
 31
0.0
  0
LINE
  5
9CC6
  8
0
 10
3745.0255171951798729
 20
-271.4404392347070143
 30
0.0
 11
3745.0255171951798729
 21
-271.8562268464066278
 31
0.0
  0
ARC
  5
9CC7
  8
0
 10
3751.0254518492938587
 20
-271.3303675127751262
 30
0.0
 40
7.0007974507922048
 50
177.1767446048285137
 51
180.9008837953462034
  0
ARC
  5
9CC8
  8
0
 10
3745.7079194499137884
 20
-271.0805059370575236
 30
0.0
 40
1.6774578708071011
 50
168.2974946603360138
 51
176.7546496186841978
  0
ARC
  5
9CC9
  8
0
 10
3744.0996391169769595
 20
-270.7399015840297238
 30
0.0
 40
0.0343117476770032
 50
96.8273593731307329
 51
180.6101502972267099
  0
ARC
  5
9CCA
  8
0
 10
3738.0255856069229594
 20
-271.3303546109438003
 30
0.0
 40
7.0007975213014451
 50
359.0990011629805849
 51
2.8231403347445259
  0
ARC
  5
9CCB
  8
0
 10
3743.3431185499880485
 20
-271.0805032077578858
 30
0.0
 40
1.6774578708071011
 50
3.2452181271847942
 51
11.7023730855339902
  0
ARC
  5
9CCC
  8
0
 10
3744.9513996691271132
 20
-270.7399025670762853
 30
0.0
 40
0.0343117476770032
 50
359.3897174486388053
 51
83.1725083727531285
  0
ARC
  5
9CCD
  8
0
 10
3744.6651164139570938
 20
-270.6310875212000724
 30
0.0
 40
0.4951573606854414
 50
188.6821742076965904
 51
210.710735534503101
  0
ARC
  5
9CCE
  8
0
 10
3744.5503581125381061
 20
-270.6952929428450147
 30
0.0
 40
0.3637191396494973
 50
211.2473595251410927
 51
241.2823287743088088
  0
ARC
  5
9CCF
  8
0
 10
3744.525513224622955
 20
-270.711042419586704
 30
0.0
 40
0.3382681384890378
 50
243.6918543910499864
 51
296.3081177483082911
  0
ARC
  5
9CD0
  8
0
 10
3744.385921540138952
 20
-270.6310875212000724
 30
0.0
 40
0.4951573606854414
 50
329.289264465496899
 51
351.3178257923033811
  0
ARC
  5
9CD1
  8
0
 10
3744.5009236772420991
 20
-270.6955477890667225
 30
0.0
 40
0.3633784899284833
 50
298.7032610788086799
 51
328.7670506217472166
  0
ARC
  5
9CD2
  8
0
 10
3744.0532277411848554
 20
-271.8560778558813809
 30
0.0
 40
0.0277083838571865
 50
180.308086154940213
 51
269.7170257915781235
  0
LINE
  5
9CD3
  8
0
 10
3744.0530908946980162
 20
-271.8837859018070162
 30
0.0
 11
3744.9976638515599916
 21
-271.8838033303990755
 31
0.0
  0
ARC
  5
9CD4
  8
0
 10
3744.9979046180878868
 20
-271.8561907540383231
 30
0.0
 40
0.0276126006796953
 50
270.0676979128834887
 51
359.9251087932091195
  0
LINE
  5
9CD5
  8
0
 10
3744.919220545297776
 20
-271.8838018830186911
 30
0.0
 11
3744.919220545297776
 21
-271.9113449569069871
 31
0.0
  0
ARC
  5
9CD6
  8
0
 10
3744.9270945609978298
 20
-271.9113449569069871
 30
0.0
 40
0.0078740157000006
 50
179.9999999999967031
 51
269.9999999999739089
  0
LINE
  5
9CD7
  8
0
 10
3744.1318189704979886
 20
-271.8837859018070162
 30
0.0
 11
3744.1318189704979886
 21
-271.9113449569069871
 31
0.0
  0
ARC
  5
9CD8
  8
0
 10
3744.1239449547988443
 20
-271.9113449569069871
 30
0.0
 40
0.0078740157000041
 50
269.9999992723331275
 51
0.0000000000097707
  0
ENDSEC
  0
EOF
