  0
SECTION
  2
HEADER
  9
$ACADVER
  1
AC1009
  9
$INSBASE
 10
3349.3373796721448343
 20
-277.0371961949367119
 30
0.0
  9
$EXTMIN
 10
3342.3300035694860526
 20
-283.8170000261160908
 30
0.0
  9
$EXTMAX
 10
3356.3447557748017971
 20
-275.1492522775467933
 30
0.0
  9
$LIMMIN
 10
0.0
 20
0.0
  9
$LIMMAX
 10
11.6929133858000007
 20
8.2677165353999982
  9
$ORTHOMODE
 70
     1
  9
$REGENMODE
 70
     1
  9
$FILLMODE
 70
     1
  9
$QTEXTMODE
 70
     0
  9
$MIRRTEXT
 70
     0
  9
$DRAGMODE
 70
     2
  9
$LTSCALE
 40
0.6431102362
  9
$OSMODE
 70
  2039
  9
$ATTMODE
 70
     1
  9
$TEXTSIZE
 40
0.2
  9
$TRACEWID
 40
0.05
  9
$TEXTSTYLE
  7
STANDARD
  9
$CLAYER
  8
0
  9
$CELTYPE
  6
BYLAYER
  9
$CECOLOR
 62
     1
  9
$DIMSCALE
 40
1.0
  9
$DIMASZ
 40
0.1875
  9
$DIMEXO
 40
0.0625
  9
$DIMDLI
 40
0.4443307087
  9
$DIMRND
 40
0.0
  9
$DIMDLE
 40
0.0
  9
$DIMEXE
 40
0.125
  9
$DIMTP
 40
0.01
  9
$DIMTM
 40
0.01
  9
$DIMTXT
 40
2.0
  9
$DIMCEN
 40
0.1052362205
  9
$DIMTSZ
 40
0.0
  9
$DIMTOL
 70
     1
  9
$DIMLIM
 70
     0
  9
$DIMTIH
 70
     1
  9
$DIMTOH
 70
     1
  9
$DIMSE1
 70
     0
  9
$DIMSE2
 70
     0
  9
$DIMTAD
 70
     0
  9
$DIMZIN
 70
     0
  9
$DIMBLK
  1

  9
$DIMASO
 70
     1
  9
$DIMSHO
 70
     1
  9
$DIMPOST
  1
\X
  9
$DIMAPOST
  1

  9
$DIMALT
 70
     1
  9
$DIMALTD
 70
     2
  9
$DIMALTF
 40
25.3999999999999986
  9
$DIMLFAC
 40
1.0
  9
$DIMTOFL
 70
     0
  9
$DIMTVP
 40
0.0
  9
$DIMTIX
 70
     0
  9
$DIMSOXD
 70
     0
  9
$DIMSAH
 70
     0
  9
$DIMBLK1
  1

  9
$DIMBLK2
  1

  9
$DIMSTYLE
  2
STANDARD
  9
$DIMCLRD
 70
     0
  9
$DIMCLRE
 70
     0
  9
$DIMCLRT
 70
     0
  9
$DIMTFAC
 40
1.0
  9
$DIMGAP
 40
0.09
  9
$LUNITS
 70
     2
  9
$LUPREC
 70
     4
  9
$SKETCHINC
 40
0.1
  9
$FILLETRAD
 40
0.0
  9
$AUNITS
 70
     0
  9
$AUPREC
 70
     0
  9
$MENU
  1
.
  9
$ELEVATION
 40
0.0
  9
$PELEVATION
 40
0.0
  9
$THICKNESS
 40
0.0
  9
$LIMCHECK
 70
     0
  9
$BLIPMODE
 70
     0
  9
$CHAMFERA
 40
0.0
  9
$CHAMFERB
 40
0.0
  9
$SKPOLY
 70
     0
  9
$TDCREATE
 40
2458060.468368056230247
  9
$TDUPDATE
 40
2459689.5009259260259569
  9
$TDINDWG
 40
0.4483288194
  9
$TDUSRTIMER
 40
0.4483288194
  9
$USRTIMER
 70
     1
  9
$ANGBASE
 50
0.0
  9
$ANGDIR
 70
     0
  9
$PDMODE
 70
     0
  9
$PDSIZE
 40
0.3125
  9
$PLINEWID
 40
0.0
  9
$COORDS
 70
     1
  9
$SPLFRAME
 70
     0
  9
$SPLINETYPE
 70
     6
  9
$SPLINESEGS
 70
     8
  9
$ATTDIA
 70
     1
  9
$ATTREQ
 70
     1
  9
$HANDLING
 70
     1
  9
$HANDSEED
  5
B283
  9
$SURFTAB1
 70
     6
  9
$SURFTAB2
 70
     6
  9
$SURFTYPE
 70
     6
  9
$SURFU
 70
     6
  9
$SURFV
 70
     6
  9
$UCSNAME
  2

  9
$UCSORG
 10
0.0
 20
0.0
 30
0.0
  9
$UCSXDIR
 10
1.0
 20
0.0
 30
0.0
  9
$UCSYDIR
 10
0.0
 20
1.0
 30
0.0
  9
$PUCSNAME
  2

  9
$PUCSORG
 10
0.0
 20
0.0
 30
0.0
  9
$PUCSXDIR
 10
1.0
 20
0.0
 30
0.0
  9
$PUCSYDIR
 10
0.0
 20
1.0
 30
0.0
  9
$USERI1
 70
     0
  9
$USERI2
 70
     0
  9
$USERI3
 70
     0
  9
$USERI4
 70
     0
  9
$USERI5
 70
     0
  9
$USERR1
 40
0.0
  9
$USERR2
 40
0.0
  9
$USERR3
 40
0.0
  9
$USERR4
 40
0.0
  9
$USERR5
 40
0.0
  9
$WORLDVIEW
 70
     1
  9
$SHADEDGE
 70
     3
  9
$SHADEDIF
 70
    70
  9
$TILEMODE
 70
     1
  9
$MAXACTVP
 70
    64
  9
$PLIMCHECK
 70
     0
  9
$PEXTMIN
 10
1.0000000000000000E+20
 20
1.0000000000000000E+20
 30
1.0000000000000000E+20
  9
$PEXTMAX
 10
-1.0000000000000000E+20
 20
-1.0000000000000000E+20
 30
-1.0000000000000000E+20
  9
$PLIMMIN
 10
0.0
 20
0.0
  9
$PLIMMAX
 10
12.0
 20
9.0
  9
$UNITMODE
 70
     0
  9
$VISRETAIN
 70
     1
  9
$PLINEGEN
 70
     0
  9
$PSLTSCALE
 70
     1
  0
ENDSEC
  0
SECTION
  2
TABLES
  0
TABLE
  2
VPORT
 70
     1
  0
VPORT
  2
*ACTIVE
 70
     0
 10
0.0
 20
0.0
 11
1.0
 21
1.0
 12
5.9355305323483298
 22
4.074660578482205
 13
0.0
 23
0.0
 14
1.0
 24
1.0
 15
0.0
 25
0.0
 16
0.0
 26
0.0
 36
59.6343493097833033
 17
3349.33740234375
 27
-279.483123779296875
 37
0.0
 40
24.2248670577215215
 41
2.000833333333333
 42
50.0
 43
0.0
 44
0.0
 50
0.0
 51
0.0
 71
     0
 72
 10000
 73
     1
 74
     1
 75
     0
 76
     0
 77
     0
 78
     0
  0
ENDTAB
  0
TABLE
  2
LTYPE
 70
     2
  0
LTYPE
  2
CONTINUOUS
 70
     0
  3
Solid line
 72
    65
 73
     0
 40
0.0
  0
LTYPE
  2
PHANTOM2
 70
     0
  3
___ _ _ ___ _ _ ___ _ _ ___ _ _
 72
    65
 73
     6
 40
1.25
 49
0.625
 49
-0.125
 49
0.125
 49
-0.125
 49
0.125
 49
-0.125
  0
ENDTAB
  0
TABLE
  2
LAYER
 70
     2
  0
LAYER
  2
0
 70
     0
 62
   255
  6
CONTINUOUS
  0
LAYER
  2
DEFPOINTS
 70
     0
 62
     7
  6
CONTINUOUS
  0
ENDTAB
  0
TABLE
  2
STYLE
 70
     1
  0
STYLE
  2
STANDARD
 70
     0
 40
0.0
 41
0.8
 50
0.0
 71
     0
 42
0.2
  3
txt
  4

  0
ENDTAB
  0
TABLE
  2
VIEW
 70
     0
  0
ENDTAB
  0
TABLE
  2
UCS
 70
     0
  0
ENDTAB
  0
TABLE
  2
APPID
 70
    11
  0
APPID
  2
ACAD
 70
     0
  0
APPID
  2
ACAD_MLEADERVER
 70
     0
  0
APPID
  2
ACAD_EXEMPT_FROM_CAD_STANDARDS
 70
     0
  0
APPID
  2
ACAD_NAV_VCDISPLAY
 70
     0
  0
APPID
  2
ACAECLAYERSTANDARD
 70
     0
  0
APPID
  2
ACCMTRANSPARENCY
 70
     0
  0
APPID
  2
ACAD_DSTYLE_DIMJAG
 70
     0
  0
APPID
  2
ACAD_DSTYLE_DIMTALN
 70
     0
  0
APPID
  2
ACDBATTR
 70
     0
  0
APPID
  2
ACADANNOTATIVE
 70
     0
  0
APPID
  2
ACAD_PSEXT
 70
     0
  0
ENDTAB
  0
TABLE
  2
DIMSTYLE
 70
     1
  0
DIMSTYLE
  2
STANDARD
 70
     0
  3

  4

  5

  6

  7

 40
1.0
 41
0.1875
 42
0.0625
 43
0.38
 44
0.125
 45
0.0
 46
0.0
 47
0.01
 48
0.01
140
0.15625
141
0.09
142
0.0
143
25.3999999999999986
144
1.0
145
0.0
146
1.0
147
0.09
 71
     1
 72
     0
 73
     1
 74
     1
 75
     0
 76
     0
 77
     0
 78
     4
170
     0
171
     2
172
     0
173
     0
174
     0
175
     0
176
     0
177
     0
178
     0
  0
ENDTAB
  0
ENDSEC
  0
SECTION
  2
BLOCKS
  0
BLOCK
  8
0
  2
$MODEL_SPACE
 70
     0
 10
0.0
 20
0.0
 30
0.0
  3
$MODEL_SPACE
  1

  0
ENDBLK
  5
21
  8
0
  0
BLOCK
 67
     1
  8
0
  2
$PAPER_SPACE
 70
     0
 10
0.0
 20
0.0
 30
0.0
  3
$PAPER_SPACE
  1

  0
ENDBLK
  5
1D
 67
     1
  8
0
  0
BLOCK
  8
0
  2
A$C6BE22065
 70
     2
 10
0.0
 20
0.0
 30
0.0
  3
A$C6BE22065
  1

  0
ARC
  5
A6A6
  8
0
 10
0.0
 20
0.0
 30
0.0
 40
0.7087185558673639
 50
332.8034074360318186
 51
207.3029992967462078
  0
ARC
  5
A6A7
  8
0
 10
-0.4224502075826422
 20
-6.6529791579193889
 30
0.0
 40
0.1278783203279444
 50
213.8551819333150945
 51
267.5579146844088996
  0
ARC
  5
A6A8
  8
0
 10
-0.4317957936141284
 20
-6.6626634744132502
 30
0.0
 40
0.1147572501826616
 50
273.238340285759989
 51
273.3054095112315167
  0
ARC
  5
A6A9
  8
0
 10
-0.3866605006851387
 20
-6.6426606045295102
 30
0.0
 40
0.1637434239468035
 50
192.061436865860486
 51
209.8737365150151106
  0
LINE
  5
A6AA
  8
0
 10
-0.620111339900177
 20
-1.330451596332636
 30
0.0
 11
-0.555881244279135
 21
-6.5552772099331369
 31
0.0
  0
ARC
  5
A6AB
  8
0
 10
-0.2913138034800795
 20
-6.6175728248815062
 30
0.0
 40
0.262268133486269
 50
184.1268269688119972
 51
193.0686579139700996
  0
ARC
  5
A6AC
  8
0
 10
0.5935935936968236
 20
-6.5537254006415528
 30
0.0
 40
1.14947588545891
 50
180.077350165542299
 51
184.1268269688119972
  0
LINE
  5
A6AD
  8
0
 10
-0.6201084671001809
 20
-1.330554517132611
 30
0.0
 11
-0.6297625052143303
 21
-0.3250864169066858
 31
0.0
  0
ARC
  5
A6AE
  8
0
 10
0.292584368009102
 20
-0.2222955062542269
 30
0.0
 40
0.9280569626146451
 50
159.4841232885171962
 51
186.3590859312793953
  0
ARC
  5
A6AF
  8
0
 10
0.0010028298402176
 20
-0.1357383939788974
 30
0.0
 40
0.6249905802592569
 50
90.0897523165194656
 51
157.5473620062626878
  0
ARC
  5
A6B0
  8
0
 10
0.4228028784818889
 20
-6.6534349786899147
 30
0.0
 40
0.1273115414152375
 50
270.5168927083075232
 51
326.1945818094707761
  0
ARC
  5
A6B1
  8
0
 10
0.3866114919705978
 20
-6.6426958707580752
 30
0.0
 40
0.1637434239468035
 50
330.1210373651368855
 51
347.9333370143011734
  0
LINE
  5
A6B2
  8
0
 10
0.6205468727252992
 20
-1.3305081784104109
 30
0.0
 11
0.5558402053620739
 21
-6.5553279116566037
 31
0.0
  0
ARC
  5
A6B3
  8
0
 10
0.291267083493949
 20
-6.6175993943562608
 30
0.0
 40
0.2622681334862691
 50
346.9261159662028149
 51
355.8679469113428127
  0
ARC
  5
A6B4
  8
0
 10
-0.5936344862871011
 20
-6.553671255325014
 30
0.0
 40
1.14947588545891
 50
355.8679469113428127
 51
359.9174237146133919
  0
LINE
  5
A6B5
  8
0
 10
0.6205439905374988
 20
-1.3306110989479401
 30
0.0
 11
0.6302897403716088
 21
-0.3251438834784608
 31
0.0
  0
ARC
  5
A6B6
  8
0
 10
-0.5378474259514406
 20
-0.2527679277604307
 30
0.0
 40
1.1703771692541569
 50
356.454575070427893
 51
17.6917634700693007
  0
ARC
  5
A6B7
  8
0
 10
-0.0004583210579767
 20
-0.1357383273409027
 30
0.0
 40
0.624990580259257
 50
22.4474118738643611
 51
89.9050215636351737
  0
LINE
  5
A6B8
  8
0
 10
0.4239514013811459
 20
-6.7807413393820184
 30
0.0
 11
-0.4278990421184972
 21
-6.7807413393820184
 31
0.0
  0
LINE
  5
A6B9
  8
0
 10
-7.0060084102847213
 20
0.1818803295658426
 30
0.0
 11
-7.0060084102847213
 21
-0.1818803295657858
 31
0.0
  0
ARC
  5
A6BA
  8
0
 10
-3.997616037809621
 20
0.00000119246738
 30
0.0
 40
0.5000070856580638
 50
246.2556736355354872
 51
113.7446586701982056
  0
LINE
  5
A6BB
  8
0
 10
-6.6910221962093601
 20
0.3815969424673824
 30
0.0
 11
-4.9188780179042624
 21
0.4279147129577155
 31
0.0
  0
LINE
  5
A6BC
  8
0
 10
-6.6910239217095286
 20
-0.3815830957325943
 30
0.0
 11
-4.6168812924051963
 21
-0.4358050907246139
 31
0.0
  0
ARC
  5
A6BD
  8
0
 10
-6.6941574226093499
 20
-0.5686447996729385
 30
0.0
 40
0.9502469143072662
 50
89.8109590636341579
 51
101.0818990850880965
  0
ARC
  5
A6BE
  8
0
 10
-6.8347313744120584
 20
0.1885694855150461
 30
0.0
 40
0.1802920367531905
 50
103.4955934761474055
 51
131.1959678607410922
  0
ARC
  5
A6BF
  8
0
 10
-6.8408961492641529
 20
0.212579607528113
 30
0.0
 40
0.1585593056765469
 50
135.2374993521802082
 51
172.4096977408341047
  0
ARC
  5
A6C0
  8
0
 10
-7.8684610198260989
 20
0.3409503034058332
 30
0.0
 40
0.8769992932049649
 50
349.5498592707227203
 51
352.9639616953746781
  0
ARC
  5
A6C1
  8
0
 10
-6.6941546156995173
 20
0.5686781670318056
 30
0.0
 40
0.9502664198820514
 50
258.9181588095506754
 51
270.1887637754107914
  0
ARC
  5
A6C2
  8
0
 10
-6.8347313744120584
 20
-0.1885554445802882
 30
0.0
 40
0.1802920367531905
 50
228.8040321392599878
 51
256.5044065238525945
  0
ARC
  5
A6C3
  8
0
 10
-6.8408961492641529
 20
-0.2125655665932982
 30
0.0
 40
0.1585593056765469
 50
187.5903022591643037
 51
224.7625006478197918
  0
ARC
  5
A6C4
  8
0
 10
-7.8656343453903901
 20
-0.3405446848278188
 30
0.0
 40
0.8741459408686137
 50
7.0332605648414077
 51
10.4576004607279796
  0
LINE
  5
A6C5
  8
0
 10
-4.9188780179042624
 20
0.4279147129577155
 30
0.0
 11
-4.1989495705815889
 21
0.4576821886759888
 31
0.0
  0
LINE
  5
A6C6
  8
0
 10
-4.6168812924051963
 20
-0.4358050907246139
 30
0.0
 11
-4.1989469161062507
 21
-0.4576809714329216
 31
0.0
  0
ARC
  5
A6C7
  8
0
 10
-4.0644641555022636
 20
-0.0141683810219888
 30
0.0
 40
0.4707508141240757
 50
1.724715116889721
 51
81.964079030959482
  0
ARC
  5
A6C8
  8
0
 10
-4.1243117874155351
 20
-0.438060953690524
 30
0.0
 40
0.8988473595507507
 50
81.9639283039416568
 51
94.7631666181914767
  0
ARC
  5
A6C9
  8
0
 10
-4.061871975775829
 20
0.0285081037628743
 30
0.0
 40
0.468812949435314
 50
277.7495134843995856
 51
356.5137431566629971
  0
ARC
  5
A6CA
  8
0
 10
-4.429091895462534
 20
2.6076699413387132
 30
0.0
 40
3.0739783554788942
 50
274.2936821965491276
 51
278.0493308858021919
  0
ARC
  5
A6CB
  8
0
 10
-3.9986560578922759
 20
0.0079617192673709
 30
0.0
 40
1.043307086599998
 50
204.650209582098995
 51
156.3193673850842913
  0
ARC
  5
A6CC
  8
0
 10
0.0
 20
0.0
 30
0.0
 40
1.0472102923879749
 50
95.9342726894350903
 51
233.3698733897639954
  0
ARC
  5
A6CD
  8
0
 10
0.0
 20
0.0
 30
0.0
 40
1.0472102923879749
 50
306.6631505483011892
 51
84.0658108752187587
  0
LINE
  5
A6CE
  8
0
 10
-0.1082684419998259
 20
0.6999897870000212
 30
0.0
 11
-0.1082685558999401
 21
1.8397056675327399
 31
0.0
  0
ARC
  5
A6CF
  8
0
 10
-0.0885835164999662
 20
1.839705669500006
 30
0.0
 40
0.0196850394000007
 50
90.000002715697434
 51
180.0000057259804009
  0
LINE
  5
A6D0
  8
0
 10
-0.0885835174331078
 20
1.8593907089000079
 30
0.0
 11
0.088575159300035
 21
1.859390717296975
 31
0.0
  0
ARC
  5
A6D1
  8
0
 10
0.0885751602336313
 20
1.8396989990976911
 30
0.0
 40
0.0196917181992724
 50
0.0194329001115918
 51
90.000002715697434
  0
LINE
  5
A6D2
  8
0
 10
0.1082668773001387
 20
1.8397056779000129
 30
0.0
 11
0.1082669910592813
 21
0.7004000643045174
 31
0.0
  0
LINE
  5
A6D3
  8
0
 10
7.00206076954737
 20
0.1818803295658426
 30
0.0
 11
7.00206076954737
 21
-0.1818803295657858
 31
0.0
  0
ARC
  5
A6D4
  8
0
 10
3.9936683970722688
 20
0.00000119246738
 30
0.0
 40
0.5000070856580638
 50
66.2553413298018228
 51
293.7443263644644276
  0
LINE
  5
A6D5
  8
0
 10
6.6870745554720079
 20
0.3815969424673824
 30
0.0
 11
4.9149303771669111
 21
0.4279147129577155
 31
0.0
  0
LINE
  5
A6D6
  8
0
 10
6.6870762809721782
 20
-0.3815830957325943
 30
0.0
 11
4.6129336516678441
 21
-0.4358050907246139
 31
0.0
  0
ARC
  5
A6D7
  8
0
 10
6.6902097818719994
 20
-0.5686447996729385
 30
0.0
 40
0.9502469143072662
 50
78.9181009149118751
 51
90.1890409363658563
  0
ARC
  5
A6D8
  8
0
 10
6.830783733674707
 20
0.1885694855150461
 30
0.0
 40
0.1802920367531905
 50
48.8040321392589078
 51
76.5044065238525945
  0
ARC
  5
A6D9
  8
0
 10
6.8369485085268016
 20
0.212579607528113
 30
0.0
 40
0.1585593056765469
 50
7.5903022591659273
 51
44.7625006478197989
  0
ARC
  5
A6DA
  8
0
 10
7.8645133790887476
 20
0.3409503034058332
 30
0.0
 40
0.8769992932049649
 50
187.0360383046252934
 51
190.4501407292773081
  0
ARC
  5
A6DB
  8
0
 10
6.6902069749621651
 20
0.5686781670318056
 30
0.0
 40
0.9502664198820514
 50
269.8112362245892086
 51
281.0818411904493246
  0
ARC
  5
A6DC
  8
0
 10
6.830783733674707
 20
-0.1885554445802882
 30
0.0
 40
0.1802920367531905
 50
283.4955934761474055
 51
311.1959678607400974
  0
ARC
  5
A6DD
  8
0
 10
6.8369485085268016
 20
-0.2125655665932982
 30
0.0
 40
0.1585593056765469
 50
315.2374993521802935
 51
352.4096977408357247
  0
ARC
  5
A6DE
  8
0
 10
7.8616867046530379
 20
-0.3405446848278188
 30
0.0
 40
0.8741459408686137
 50
169.5423995392719974
 51
172.966739435158587
  0
LINE
  5
A6DF
  8
0
 10
4.9149303771669111
 20
0.4279147129577155
 30
0.0
 11
4.1950019298442376
 21
0.4576821886759888
 31
0.0
  0
LINE
  5
A6E0
  8
0
 10
4.6129336516678441
 20
-0.4358050907246139
 30
0.0
 11
4.1949992753689003
 21
-0.4576809714329216
 31
0.0
  0
ARC
  5
A6E1
  8
0
 10
4.0605165147649132
 20
-0.0141683810219888
 30
0.0
 40
0.4707508141240757
 50
98.0359209690405464
 51
178.2752848831102881
  0
ARC
  5
A6E2
  8
0
 10
4.1203641466781837
 20
-0.438060953690524
 30
0.0
 40
0.8988473595507507
 50
85.2368333818085375
 51
98.0360716960583858
  0
ARC
  5
A6E3
  8
0
 10
4.0579243350384777
 20
0.0285081037628743
 30
0.0
 40
0.468812949435314
 50
183.4862568433370029
 51
262.2504865156003007
  0
ARC
  5
A6E4
  8
0
 10
4.4251442547251818
 20
2.6076699413387132
 30
0.0
 40
3.0739783554788942
 50
261.9506691141978081
 51
265.7063178034508724
  0
ARC
  5
A6E5
  8
0
 10
3.9947084171549241
 20
0.0079617192673709
 30
0.0
 40
1.043307086599998
 50
23.680632614915659
 51
335.3497904179009765
  0
LINE
  5
A6E6
  8
0
 10
-0.0000001489733503
 20
-275.1456092196822283
 30
0.0
 11
-0.0000001489733503
 21
-275.1456092196822283
 31
0.0
  0
LINE
  5
A6E7
  8
0
 10
-0.0
 20
0.0
 30
0.0
 11
3356.3441585613481948
 21
0.0
 31
0.0
  0
ATTDEF
  5
A6E8
  8
DEFPOINTS
 10
0.0002057245883407
 20
0.001033169832624
 30
0.0
 40
0.001
  1
BATHROOM SINK FAUCET
  3

  2
PRODUCT
 70
     0
1001
ACDBATTR
1070
     0
1070
     1
  0
ATTDEF
  5
A6E9
  8
DEFPOINTS
 10
0.0002057245883407
 20
0.0026998364992892
 30
0.0
 40
0.001
  1
AVID
  3

  2
TRADENAME
 70
     0
1001
ACDBATTR
1070
     0
1070
     1
  0
ATTDEF
  5
A6EA
  8
DEFPOINTS
 10
0.0002057245883407
 20
0.0043665031659543
 30
0.0
 40
0.001
  1
K-97352T-4
  3

  2
MODELNUMBER
 70
     0
1001
ACDBATTR
1070
     0
1070
     1
  0
ENDBLK
  5
A6EE
  8
0
  0
BLOCK
  8
0
  2
_FILLED
 70
     0
 10
0.0
 20
0.0
 30
0.0
  3
_FILLED
  1

  0
SOLID
  5
A893
  8
0
  6
BYBLOCK
 62
     0
 10
0.0
 20
0.0
 30
0.0
 11
-1.0
 21
0.1666666667
 31
0.0
 12
-1.0
 22
-0.1666666667
 32
0.0
 13
-1.0
 23
-0.1666666667
 33
0.0
  0
ENDBLK
  5
A894
  8
0
  6
BYBLOCK
 62
     0
  0
ENDSEC
  0
SECTION
  2
ENTITIES
  0
ATTDEF
  5
A0EF
  8
DEFPOINTS
 10
3349.341078195559021
 20
-277.0351666370352746
 30
0.0
 40
0.001
  1
K-97352T-4E2
  3

  2
MODELNUMBER
 70
     0
1001
ACDBATTR
1070
     0
1070
     1
  0
ATTDEF
  5
A0F0
  8
DEFPOINTS
 10
3349.341078195559021
 20
-277.0368333037018829
 30
0.0
 40
0.001
  1
AVID
  3

  2
TRADENAME
 70
     0
1001
ACDBATTR
1070
     0
1070
     1
  0
ATTDEF
  5
A0F1
  8
DEFPOINTS
 10
3349.341078195559021
 20
-277.0384999703686049
 30
0.0
 40
0.001
  1
BATHROOM SINK FAUCET
  3

  2
PRODUCT
 70
     0
1001
ACDBATTR
1070
     0
1070
     1
  0
ARC
  5
A8DC
  8
0
 10
3349.3374430303651934
 20
-277.0341000261161071
 30
0.0
 40
0.7087185558673639
 50
332.8034074360303975
 51
207.3029992967462931
  0
ARC
  5
A8DD
  8
0
 10
3348.922469549762809
 20
-283.6789821600323762
 30
0.0
 40
0.1386217930153325
 50
214.9129011387692003
 51
264.649777154689275
  0
ARC
  5
A8DF
  8
0
 10
3348.9507825296791452
 20
-283.6767606306456742
 30
0.0
 40
0.1637434239468035
 50
192.0614368658621913
 51
209.8737365150136895
  0
LINE
  5
A8E0
  8
0
 10
3348.7173316904650164
 20
-278.3645516224488006
 30
0.0
 11
3348.7815617860851489
 21
-283.5893772360493017
 31
0.0
  0
ARC
  5
A8E1
  8
0
 10
3349.0461292268842044
 20
-283.651672850997727
 30
0.0
 40
0.262268133486269
 50
184.1268269688121109
 51
193.0686579139718049
  0
ARC
  5
A8E2
  8
0
 10
3349.9310366240620169
 20
-283.5878254267577177
 30
0.0
 40
1.14947588545891
 50
180.077350165542299
 51
184.1268269688121109
  0
LINE
  5
A8E3
  8
0
 10
3348.7173345632641031
 20
-278.3646545432487756
 30
0.0
 11
3348.7076805251499536
 21
-277.3591864430227929
 31
0.0
  0
ARC
  5
A8E4
  8
0
 10
3349.6300273983738407
 20
-277.2563955323703908
 30
0.0
 40
0.9280569626146451
 50
159.4841232885140982
 51
186.3590859312795089
  0
ARC
  5
A8E5
  8
0
 10
3349.3384458602049563
 20
-277.1698384200951182
 30
0.0
 40
0.6249905802592569
 50
90.0897523165194656
 51
157.5473620062535929
  0
ARC
  5
A8E6
  8
0
 10
3349.7533426871791562
 20
-283.6799418525174019
 30
0.0
 40
0.1372944774591056
 50
273.362085969793327
 51
325.1643218656087129
  0
ARC
  5
A8E7
  8
0
 10
3349.7240545223348818
 20
-283.6767958968741823
 30
0.0
 40
0.1637434239468035
 50
330.1210373651383065
 51
347.9333370143011734
  0
LINE
  5
A8E8
  8
0
 10
3349.9579899030900378
 20
-278.3646082045265757
 30
0.0
 11
3349.8932832357259031
 21
-283.5894279377728253
 31
0.0
  0
ARC
  5
A8E9
  8
0
 10
3349.6287101138577782
 20
-283.6516994204724256
 30
0.0
 40
0.2622681334862691
 50
346.926115966210773
 51
355.8679469113428127
  0
ARC
  5
A8EA
  8
0
 10
3348.7438085440771829
 20
-283.587771281441178
 30
0.0
 40
1.14947588545891
 50
355.8679469113428127
 51
359.9174237146133919
  0
LINE
  5
A8EB
  8
0
 10
3349.9579870209017827
 20
-278.3647111250641046
 30
0.0
 11
3349.9677327707358927
 21
-277.3592439095946247
 31
0.0
  0
ARC
  5
A8EC
  8
0
 10
3348.7995956044128434
 20
-277.2868679538765946
 30
0.0
 40
1.1703771692541569
 50
356.454575070427893
 51
17.6917634700662099
  0
ARC
  5
A8ED
  8
0
 10
3349.3369847093072167
 20
-277.1698383534570098
 30
0.0
 40
0.624990580259257
 50
22.4474118738582895
 51
89.9050215636351737
  0
LINE
  5
A8EF
  8
0
 10
3349.2291745883649128
 20
-276.3341102391162281
 30
0.0
 11
3349.2291744719209419
 21
-275.1689373273176216
 31
0.0
  0
ARC
  5
A8F0
  8
0
 10
3349.2489723404710276
 20
-275.1690504220907201
 30
0.0
 40
0.01979819157274
 50
90.135575329216465
 51
179.6727030140964132
  0
LINE
  5
A8F1
  8
0
 10
3349.2489254933229859
 20
-275.1492522859437031
 30
0.0
 11
3349.4260841700561286
 21
-275.1492522775467933
 31
0.0
  0
ARC
  5
A8F2
  8
0
 10
3349.4260841709888155
 20
-275.1689439957460195
 30
0.0
 40
0.0196917181992724
 50
4.6917756243956088
 51
90.000002715697434
  0
LINE
  5
A8F3
  8
0
 10
3349.4457099049632234
 20
-275.1673333028334127
 30
0.0
 11
3349.4457100214240199
 21
-276.3336999618115897
 31
0.0
  0
LINE
  5
A8F4
  8
0
 10
3356.3447557748017971
 20
-276.8553170578381923
 30
0.0
 11
3356.3447557748017971
 21
-277.2190777169698777
 31
0.0
  0
ARC
  5
A8F5
  8
0
 10
3353.3363634023271516
 20
-277.0371961949367119
 30
0.0
 40
0.5000070856580638
 50
66.2553413298018086
 51
293.7443263644638023
  0
LINE
  5
A8F6
  8
0
 10
3356.0297695607268906
 20
-276.655600444936681
 30
0.0
 11
3354.2576253824217929
 21
-276.6092826744463764
 31
0.0
  0
LINE
  5
A8F7
  8
0
 10
3356.02977128622706
 20
-277.4187804831366861
 30
0.0
 11
3353.9556286569218173
 21
-277.4730024781287057
 31
0.0
  0
ARC
  5
A8F8
  8
0
 10
3356.0329047871259718
 20
-277.6058421870769735
 30
0.0
 40
0.9502469143072662
 50
78.9181009149118751
 51
90.1890409363658279
  0
ARC
  5
A8F9
  8
0
 10
3356.1734787389291341
 20
-276.8486279018890173
 30
0.0
 40
0.1802920367531905
 50
48.8040321392611034
 51
76.5044065238525945
  0
ARC
  5
A8FA
  8
0
 10
3356.1796435137821391
 20
-276.8246177798760073
 30
0.0
 40
0.1585593056765469
 50
7.5903022591659131
 51
44.7625006478198131
  0
ARC
  5
A8FB
  8
0
 10
3357.2072083843431756
 20
-276.6962470839981734
 30
0.0
 40
0.8769992932049649
 50
187.0360383046235881
 51
190.450140729275688
  0
ARC
  5
A8FC
  8
0
 10
3356.0329019802170478
 20
-276.4685192203722863
 30
0.0
 40
0.9502664198820514
 50
269.8112362245892086
 51
281.0818411904496088
  0
ARC
  5
A8FD
  8
0
 10
3356.1734787389291341
 20
-277.22575283198438
 30
0.0
 40
0.1802920367531905
 50
283.4955934761474055
 51
311.1959678607389037
  0
ARC
  5
A8FE
  8
0
 10
3356.1796435137821391
 20
-277.24976295399739
 30
0.0
 40
0.1585593056765469
 50
315.2374993521801798
 51
352.4096977408373164
  0
ARC
  5
A8FF
  8
0
 10
3357.2043817099070111
 20
-277.3777420722319107
 30
0.0
 40
0.8741459408686137
 50
169.5423995392688141
 51
172.9667394351617986
  0
LINE
  5
A900
  8
0
 10
3354.2576253824217929
 20
-276.6092826744463764
 30
0.0
 11
3353.5376969350991203
 21
-276.5795151987280747
 31
0.0
  0
LINE
  5
A901
  8
0
 10
3353.9556286569218173
 20
-277.4730024781287057
 30
0.0
 11
3353.5376942806228726
 21
-277.4948783588370134
 31
0.0
  0
ARC
  5
A902
  8
0
 10
3353.4032115200188855
 20
-277.0513657684260806
 30
0.0
 40
0.4707508141240757
 50
98.0359209690405464
 51
178.2752848831102028
  0
ARC
  5
A903
  8
0
 10
3353.4630591519330665
 20
-277.4752583410946158
 30
0.0
 40
0.8988473595507507
 50
85.2368333818085233
 51
98.0360716960583858
  0
ARC
  5
A904
  8
0
 10
3353.4006193402929057
 20
-277.0086892836412176
 30
0.0
 40
0.468812949435314
 50
183.4862568433368892
 51
262.2504865156003007
  0
ARC
  5
A905
  8
0
 10
3353.7678392599800645
 20
-274.4295274460653786
 30
0.0
 40
3.0739783554788942
 50
261.9506691141979786
 51
265.7063178034508155
  0
LINE
  5
A906
  8
0
 10
3342.3300035694860526
 20
-276.8553170578381923
 30
0.0
 11
3342.3300035694860526
 21
-277.2190777169698777
 31
0.0
  0
ARC
  5
A907
  8
0
 10
3345.3383959419611529
 20
-277.0371961949367119
 30
0.0
 40
0.5000070856580638
 50
246.2556736355361977
 51
113.7446586701982056
  0
LINE
  5
A908
  8
0
 10
3342.6449897835618685
 20
-276.655600444936681
 30
0.0
 11
3344.4171339618660568
 21
-276.6092826744463764
 31
0.0
  0
LINE
  5
A909
  8
0
 10
3342.6449880580607896
 20
-277.4187804831366861
 30
0.0
 11
3344.7191306873660324
 21
-277.4730024781287057
 31
0.0
  0
ARC
  5
A90A
  8
0
 10
3342.6418545571609684
 20
-277.6058421870769735
 30
0.0
 40
0.9502469143072662
 50
89.8109590636341579
 51
101.0818990850880965
  0
ARC
  5
A90B
  8
0
 10
3342.5012806053591703
 20
-276.8486279018890173
 30
0.0
 40
0.1802920367531905
 50
103.4955934761474055
 51
131.1959678607389037
  0
ARC
  5
A90C
  8
0
 10
3342.4951158305061654
 20
-276.8246177798760073
 30
0.0
 40
0.1585593056765469
 50
135.2374993521802082
 51
172.4096977408341047
  0
ARC
  5
A90D
  8
0
 10
3341.4675509599451289
 20
-276.6962470839981734
 30
0.0
 40
0.8769992932049649
 50
349.549859270724312
 51
352.9639616953763834
  0
ARC
  5
A90E
  8
0
 10
3342.6418573640708019
 20
-276.4685192203722863
 30
0.0
 40
0.9502664198820514
 50
258.9181588095502775
 51
270.1887637754107914
  0
ARC
  5
A90F
  8
0
 10
3342.5012806053591703
 20
-277.22575283198438
 30
0.0
 40
0.1802920367531905
 50
228.8040321392610963
 51
256.5044065238525945
  0
ARC
  5
A910
  8
0
 10
3342.4951158305061654
 20
-277.24976295399739
 30
0.0
 40
0.1585593056765469
 50
187.5903022591627121
 51
224.7625006478197918
  0
ARC
  5
A911
  8
0
 10
3341.4703776343808386
 20
-277.3777420722319107
 30
0.0
 40
0.8741459408686137
 50
7.0332605648381668
 51
10.4576004607311503
  0
LINE
  5
A912
  8
0
 10
3344.4171339618660568
 20
-276.6092826744463764
 30
0.0
 11
3345.1370624091900936
 21
-276.5795151987280747
 31
0.0
  0
LINE
  5
A913
  8
0
 10
3344.7191306873660324
 20
-277.4730024781287057
 30
0.0
 11
3345.1370650636649771
 21
-277.4948783588370134
 31
0.0
  0
ARC
  5
A914
  8
0
 10
3345.2715478242689642
 20
-277.0513657684260806
 30
0.0
 40
0.4707508141240757
 50
1.724715116889763
 51
81.964079030959482
  0
ARC
  5
A915
  8
0
 10
3345.2117001923561475
 20
-277.4752583410946158
 30
0.0
 40
0.8988473595507507
 50
81.9639283039416284
 51
94.7631666181914767
  0
ARC
  5
A916
  8
0
 10
3345.274140003994944
 20
-277.0086892836412176
 30
0.0
 40
0.468812949435314
 50
277.7495134843995856
 51
356.5137431566629971
  0
ARC
  5
A917
  8
0
 10
3344.9069200843091494
 20
-274.4295274460653786
 30
0.0
 40
3.0739783554788942
 50
274.2936821965491845
 51
278.0493308858019077
  0
ARC
  5
A918
  8
0
 10
3349.3373796721448343
 20
-277.029235668136721
 30
0.0
 40
1.0434000000000001
 50
306.8298777859175175
 51
84.0405640766813917
  0
ARC
  5
A919
  8
0
 10
3349.3373796721448343
 20
-277.029235668136721
 30
0.0
 40
1.0434000000000001
 50
95.9525237163997531
 51
233.2121534882143976
  0
ARC
  5
A91A
  8
0
 10
3353.3374034224098068
 20
-277.0341000261161071
 30
0.0
 40
1.043299999999999
 50
23.9762596096914713
 51
335.6467169682881035
  0
ARC
  5
A91B
  8
0
 10
3345.3373559571527949
 20
-277.0335687989625058
 30
0.0
 40
1.0432999999999999
 50
204.3856942644071921
 51
156.0560403603311954
  0
LINE
  5
AE21
  8
0
 10
3349.7613944317458845
 20
-283.8170000261160908
 30
0.0
 11
3348.90954398824897
 21
-283.8170000261160908
 31
0.0
  0
ENDSEC
  0
EOF
