  0
SECTION
  2
HEADER
  9
$ACADVER
  1
AC1009
  9
$INSBASE
 10
387.9710583249305955
 20
67.5277877324439828
 30
0.0
  9
$EXTMIN
 10
386.9649959917296087
 20
67.5277877324439828
 30
0.0
  9
$EXTMAX
 10
388.977120658131696
 20
77.4760047244939756
 30
0.0
  9
$LIMMIN
 10
0.0
 20
0.0
  9
$LIMMAX
 10
11.6929133858000007
 20
8.2677165353999982
  9
$ORTHOMODE
 70
     0
  9
$REGENMODE
 70
     1
  9
$FILLMODE
 70
     1
  9
$QTEXTMODE
 70
     0
  9
$MIRRTEXT
 70
     0
  9
$DRAGMODE
 70
     2
  9
$LTSCALE
 40
0.6431102362
  9
$OSMODE
 70
  2039
  9
$ATTMODE
 70
     1
  9
$TEXTSIZE
 40
0.2
  9
$TRACEWID
 40
0.05
  9
$TEXTSTYLE
  7
STANDARD
  9
$CLAYER
  8
0
  9
$CELTYPE
  6
BYLAYER
  9
$CECOLOR
 62
     1
  9
$DIMSCALE
 40
1.0
  9
$DIMASZ
 40
0.1875
  9
$DIMEXO
 40
0.0625
  9
$DIMDLI
 40
0.4443307087
  9
$DIMRND
 40
0.0
  9
$DIMDLE
 40
0.0
  9
$DIMEXE
 40
0.125
  9
$DIMTP
 40
0.01
  9
$DIMTM
 40
0.01
  9
$DIMTXT
 40
1.0
  9
$DIMCEN
 40
0.1052362205
  9
$DIMTSZ
 40
0.0
  9
$DIMTOL
 70
     1
  9
$DIMLIM
 70
     0
  9
$DIMTIH
 70
     0
  9
$DIMTOH
 70
     1
  9
$DIMSE1
 70
     0
  9
$DIMSE2
 70
     0
  9
$DIMTAD
 70
     0
  9
$DIMZIN
 70
     0
  9
$DIMBLK
  1

  9
$DIMASO
 70
     1
  9
$DIMSHO
 70
     1
  9
$DIMPOST
  1
\X
  9
$DIMAPOST
  1

  9
$DIMALT
 70
     1
  9
$DIMALTD
 70
     2
  9
$DIMALTF
 40
25.3999999999999986
  9
$DIMLFAC
 40
1.0
  9
$DIMTOFL
 70
     0
  9
$DIMTVP
 40
0.0
  9
$DIMTIX
 70
     0
  9
$DIMSOXD
 70
     0
  9
$DIMSAH
 70
     0
  9
$DIMBLK1
  1

  9
$DIMBLK2
  1

  9
$DIMSTYLE
  2
STANDARD
  9
$DIMCLRD
 70
     0
  9
$DIMCLRE
 70
     0
  9
$DIMCLRT
 70
     0
  9
$DIMTFAC
 40
1.0
  9
$DIMGAP
 40
0.09
  9
$LUNITS
 70
     2
  9
$LUPREC
 70
     4
  9
$SKETCHINC
 40
0.1
  9
$FILLETRAD
 40
0.0
  9
$AUNITS
 70
     0
  9
$AUPREC
 70
     0
  9
$MENU
  1
.
  9
$ELEVATION
 40
0.0
  9
$PELEVATION
 40
0.0
  9
$THICKNESS
 40
0.0
  9
$LIMCHECK
 70
     0
  9
$BLIPMODE
 70
     0
  9
$CHAMFERA
 40
0.0
  9
$CHAMFERB
 40
0.0
  9
$SKPOLY
 70
     0
  9
$TDCREATE
 40
2458172.5207638889551163
  9
$TDUPDATE
 40
2459689.4856018521822989
  9
$TDINDWG
 40
0.3672194213
  9
$TDUSRTIMER
 40
0.3672194213
  9
$USRTIMER
 70
     1
  9
$ANGBASE
 50
0.0
  9
$ANGDIR
 70
     0
  9
$PDMODE
 70
     0
  9
$PDSIZE
 40
0.3125
  9
$PLINEWID
 40
0.0
  9
$COORDS
 70
     1
  9
$SPLFRAME
 70
     0
  9
$SPLINETYPE
 70
     6
  9
$SPLINESEGS
 70
     8
  9
$ATTDIA
 70
     1
  9
$ATTREQ
 70
     1
  9
$HANDLING
 70
     1
  9
$HANDSEED
  5
113D1
  9
$SURFTAB1
 70
     6
  9
$SURFTAB2
 70
     6
  9
$SURFTYPE
 70
     6
  9
$SURFU
 70
     6
  9
$SURFV
 70
     6
  9
$UCSNAME
  2

  9
$UCSORG
 10
0.0
 20
0.0
 30
0.0
  9
$UCSXDIR
 10
1.0
 20
0.0
 30
0.0
  9
$UCSYDIR
 10
0.0
 20
1.0
 30
0.0
  9
$PUCSNAME
  2

  9
$PUCSORG
 10
0.0
 20
0.0
 30
0.0
  9
$PUCSXDIR
 10
1.0
 20
0.0
 30
0.0
  9
$PUCSYDIR
 10
0.0
 20
1.0
 30
0.0
  9
$USERI1
 70
     0
  9
$USERI2
 70
     0
  9
$USERI3
 70
     0
  9
$USERI4
 70
     0
  9
$USERI5
 70
     0
  9
$USERR1
 40
0.0
  9
$USERR2
 40
0.0
  9
$USERR3
 40
0.0
  9
$USERR4
 40
0.0
  9
$USERR5
 40
0.0
  9
$WORLDVIEW
 70
     1
  9
$SHADEDGE
 70
     3
  9
$SHADEDIF
 70
    70
  9
$TILEMODE
 70
     1
  9
$MAXACTVP
 70
    64
  9
$PLIMCHECK
 70
     0
  9
$PEXTMIN
 10
1.0000000000000000E+20
 20
1.0000000000000000E+20
 30
1.0000000000000000E+20
  9
$PEXTMAX
 10
-1.0000000000000000E+20
 20
-1.0000000000000000E+20
 30
-1.0000000000000000E+20
  9
$PLIMMIN
 10
0.0
 20
0.0
  9
$PLIMMAX
 10
12.0
 20
9.0
  9
$UNITMODE
 70
     0
  9
$VISRETAIN
 70
     1
  9
$PLINEGEN
 70
     0
  9
$PSLTSCALE
 70
     1
  0
ENDSEC
  0
SECTION
  2
TABLES
  0
TABLE
  2
VPORT
 70
     1
  0
VPORT
  2
*ACTIVE
 70
     0
 10
0.0
 20
0.0
 11
1.0
 21
1.0
 12
14.0953994377375906
 22
-6.2398582723072522
 13
0.0
 23
0.0
 14
1.0
 24
1.0
 15
0.0
 25
0.0
 16
0.0
 26
0.0
 36
37.3179269596674814
 17
387.9710540771483807
 27
72.5018959045410156
 37
0.0
 40
38.9820543086476903
 41
2.000833333333333
 42
50.0
 43
0.0
 44
0.0
 50
0.0
 51
0.0
 71
     0
 72
   100
 73
     1
 74
     1
 75
     0
 76
     0
 77
     0
 78
     0
  0
ENDTAB
  0
TABLE
  2
LTYPE
 70
     2
  0
LTYPE
  2
CONTINUOUS
 70
     0
  3
Solid line
 72
    65
 73
     0
 40
0.0
  0
LTYPE
  2
PHANTOM2
 70
     0
  3
___ _ _ ___ _ _ ___ _ _ ___ _ _
 72
    65
 73
     6
 40
1.25
 49
0.625
 49
-0.125
 49
0.125
 49
-0.125
 49
0.125
 49
-0.125
  0
ENDTAB
  0
TABLE
  2
LAYER
 70
     2
  0
LAYER
  2
0
 70
     0
 62
   255
  6
CONTINUOUS
  0
LAYER
  2
DEFPOINTS
 70
     0
 62
     7
  6
CONTINUOUS
  0
ENDTAB
  0
TABLE
  2
STYLE
 70
     1
  0
STYLE
  2
STANDARD
 70
     0
 40
0.0
 41
0.8
 50
0.0
 71
     0
 42
0.2
  3
txt
  4

  0
ENDTAB
  0
TABLE
  2
VIEW
 70
     0
  0
ENDTAB
  0
TABLE
  2
UCS
 70
     0
  0
ENDTAB
  0
TABLE
  2
APPID
 70
    10
  0
APPID
  2
ACAD
 70
     0
  0
APPID
  2
ACAD_MLEADERVER
 70
     0
  0
APPID
  2
ACAD_EXEMPT_FROM_CAD_STANDARDS
 70
     0
  0
APPID
  2
ACAD_DSTYLE_DIMJAG
 70
     0
  0
APPID
  2
ACAD_DSTYLE_DIMTALN
 70
     0
  0
APPID
  2
ACAD_NAV_VCDISPLAY
 70
     0
  0
APPID
  2
ACAECLAYERSTANDARD
 70
     0
  0
APPID
  2
ACCMTRANSPARENCY
 70
     0
  0
APPID
  2
DCO15
 70
     0
  0
APPID
  2
ACDBATTR
 70
     0
  0
ENDTAB
  0
TABLE
  2
DIMSTYLE
 70
     1
  0
DIMSTYLE
  2
STANDARD
 70
     0
  3

  4

  5

  6

  7

 40
1.0
 41
0.1875
 42
0.0625
 43
0.38
 44
0.125
 45
0.0
 46
0.0
 47
0.01
 48
0.01
140
0.15625
141
0.09
142
0.0
143
25.3999999999999986
144
1.0
145
0.0
146
1.0
147
0.09
 71
     1
 72
     0
 73
     1
 74
     1
 75
     0
 76
     0
 77
     0
 78
     4
170
     0
171
     2
172
     0
173
     0
174
     0
175
     0
176
     0
177
     0
178
     0
  0
ENDTAB
  0
ENDSEC
  0
SECTION
  2
BLOCKS
  0
BLOCK
  8
0
  2
$MODEL_SPACE
 70
     0
 10
0.0
 20
0.0
 30
0.0
  3
$MODEL_SPACE
  1

  0
ENDBLK
  5
21
  8
0
  0
BLOCK
 67
     1
  8
0
  2
$PAPER_SPACE
 70
     0
 10
0.0
 20
0.0
 30
0.0
  3
$PAPER_SPACE
  1

  0
ENDBLK
  5
1D
 67
     1
  8
0
  0
BLOCK
  8
0
  2
_FILLED
 70
     0
 10
0.0
 20
0.0
 30
0.0
  3
_FILLED
  1

  0
SOLID
  5
87E2
  8
0
  6
BYBLOCK
 62
     0
 10
0.0
 20
0.0
 30
0.0
 11
-1.0
 21
0.1666666667
 31
0.0
 12
-1.0
 22
-0.1666666667
 32
0.0
 13
-1.0
 23
-0.1666666667
 33
0.0
  0
ENDBLK
  5
87E3
  8
0
  6
BYBLOCK
 62
     0
  0
ENDSEC
  0
SECTION
  2
ENTITIES
  0
ATTDEF
  5
EC69
  8
DEFPOINTS
 10
387.9717770995246156
 20
67.5314801348180822
 30
0.0
 40
0.001
  1
K-97347T-4E2
  3

  2
MODELNUMBER
 70
     0
1001
ACDBATTR
1070
     0
1070
     1
  0
ATTDEF
  5
EC6A
  8
DEFPOINTS
 10
387.9717770995246156
 20
67.5298134681514171
 30
0.0
 40
0.001
  1
AVID
  3

  2
TRADENAME
 70
     0
1001
ACDBATTR
1070
     0
1070
     1
  0
ATTDEF
  5
EC6B
  8
DEFPOINTS
 10
387.9717770995246156
 20
67.5281468014847519
 30
0.0
 40
0.001
  1
BATHROOM SINK FAUCET
  3

  2
PRODUCT
 70
     0
1001
ACDBATTR
1070
     0
1070
     1
  0
ARC
  5
10308
  8
0
 10
418.1809411394776816
 20
73.8922453629225231
 30
0.0
 40
31.2181000709261802
 50
177.8499746615219124
 51
179.3267865401068946
  0
ARC
  5
10309
  8
0
 10
391.8444637236655126
 20
74.8625117018096091
 30
0.0
 40
4.863797351815716
 50
164.6417863317005015
 51
177.632494822628189
  0
ARC
  5
1030A
  8
0
 10
387.3122267384428028
 20
76.1096808205308832
 30
0.0
 40
0.1631110975987712
 50
139.0424681786500969
 51
165.4339300041353056
  0
LINE
  5
1030B
  8
0
 10
388.5512453135734177
 20
76.3268228201914667
 30
0.0
 11
387.3911248240368081
 21
76.3268228201914667
 31
0.0
  0
ARC
  5
1030C
  8
0
 10
387.3910960351745985
 20
76.2913902741078971
 30
0.0
 40
0.035432557779008
 50
89.9534473213036563
 51
122.4490037716172992
  0
LINE
  5
1030D
  8
0
 10
387.3720847411805721
 20
76.3212907231252018
 30
0.0
 11
387.2404123329305889
 21
76.2495738084751906
 31
0.0
  0
ARC
  5
1030E
  8
0
 10
387.3270894083256053
 20
76.0942346644001759
 30
0.0
 40
0.177885258189055
 50
119.1609077107523973
 51
124.6921006567605019
  0
ARC
  5
1030F
  8
0
 10
387.1357796183469873
 20
76.3999059627475532
 30
0.0
 40
0.1830928620337631
 50
292.9917757425679952
 51
299.4655901135026852
  0
ARC
  5
10310
  8
0
 10
387.2380793114788275
 20
76.1746277196493651
 30
0.0
 40
0.0645441538653055
 50
118.4858562384013965
 51
139.4366256489375928
  0
ARC
  5
10311
  8
0
 10
387.9717106605461936
 20
64.3861897181899394
 30
0.0
 40
11.3332955824050607
 50
90.002657143254865
 51
91.0976880582305739
  0
ARC
  5
10312
  8
0
 10
387.9063017648687719
 20
67.7999055853673269
 30
0.0
 40
7.9189531353953351
 50
91.0976880582305739
 51
92.7364702903537363
  0
ARC
  5
10313
  8
0
 10
387.5566794679161831
 20
75.1146747250498379
 30
0.0
 40
0.5958333550436447
 50
92.7364702903537363
 51
99.8752791709899697
  0
ARC
  5
10314
  8
0
 10
387.4624815854526787
 20
75.655782599666594
 30
0.0
 40
0.0465875329995855
 50
99.8752791709866727
 51
114.8850804602891031
  0
ARC
  5
10315
  8
0
 10
387.4470408133618093
 20
75.6890695894272483
 30
0.0
 40
0.009893648902999
 50
114.8850804602891031
 51
136.396550119734087
  0
ARC
  5
10316
  8
0
 10
387.441601772045999
 20
75.6942393690139852
 30
0.0
 40
0.0023896794353093
 50
136.2164368329245008
 51
179.1776145956987136
  0
ARC
  5
10317
  8
0
 10
388.268424069886521
 20
75.7474604485877023
 30
0.0
 40
0.8309157169595554
 50
183.6700026702744992
 51
183.6840805788949922
  0
ARC
  5
10318
  8
0
 10
387.4484105599947839
 20
75.6946519809031315
 30
0.0
 40
0.0092035515458894
 50
183.6259367003783893
 51
199.5057906229405944
  0
ARC
  5
10319
  8
0
 10
387.4481216780977775
 20
75.6942102579529035
 30
0.0
 40
0.0087895808471719
 50
197.4199431067563069
 51
225.8055718640206067
  0
ARC
  5
1031A
  8
0
 10
387.4563795845676282
 20
75.7012758446993814
 30
0.0
 40
0.0196372443402238
 50
222.9001766177509865
 51
251.4435616418342079
  0
ARC
  5
1031B
  8
0
 10
387.5198660109364255
 20
75.9065115254299769
 30
0.0
 40
0.2344627739747923
 50
252.6968215143702139
 51
264.101217430060899
  0
ARC
  5
1031C
  8
0
 10
387.6622368192844874
 20
77.0227499726669294
 30
0.0
 40
1.359688498745049
 50
262.9676253250460718
 51
265.9998996918653802
  0
ARC
  5
1031D
  8
0
 10
387.7619624249729782
 20
78.3174638273281545
 30
0.0
 40
2.6582208202651771
 50
265.8023394132479211
 51
266.7087640856665871
  0
ARC
  5
1031E
  8
0
 10
387.9665646281321187
 20
70.4343266112580011
 30
0.0
 40
5.2749024656568224
 50
89.9498129521395242
 51
92.2017042151397845
  0
ARC
  5
1031F
  8
0
 10
387.8397932552122143
 20
73.7317219068422531
 30
0.0
 40
1.975071149311513
 50
92.2017042151397845
 51
95.6548920690975137
  0
ARC
  5
10320
  8
0
 10
387.6678284899591063
 20
75.4684203531099911
 30
0.0
 40
0.2298796487141276
 50
95.6548920690975137
 51
104.5049546607102968
  0
ARC
  5
10321
  8
0
 10
387.6139606401820856
 20
75.6766375924571832
 30
0.0
 40
0.0148071865044103
 50
104.5049546607069004
 51
125.4587917163180038
  0
ARC
  5
10322
  8
0
 10
387.6072132756655151
 20
75.6861114540621998
 30
0.0
 40
0.0031761512267553
 50
125.4587917163220965
 51
152.6656785116421986
  0
ARC
  5
10323
  8
0
 10
387.6055236117617255
 20
75.686984836813167
 30
0.0
 40
0.0012741098134895
 50
152.6656785116344111
 51
193.3327946476225918
  0
ARC
  5
10324
  8
0
 10
388.1628320094104083
 20
75.7973049869116267
 30
0.0
 40
0.5693957360432654
 50
191.2018215053097094
 51
196.5065778360018101
  0
ARC
  5
10325
  8
0
 10
387.9676797288194052
 20
70.5711967873717754
 30
0.0
 40
5.0861799563487224
 50
89.9605123681903933
 51
92.3542336058603155
  0
ARC
  5
10326
  8
0
 10
387.8329310694169862
 20
73.8487066522508542
 30
0.0
 40
1.8059012920324671
 50
92.3541449087254733
 51
94.9279630041814499
  0
ARC
  5
10327
  8
0
 10
387.7283750655885228
 20
75.0613453072218988
 30
0.0
 40
0.5887634750755928
 50
94.9279630041814499
 51
99.1779913009916925
  0
ARC
  5
10328
  8
0
 10
387.6463723615091226
 20
75.5688804904029041
 30
0.0
 40
0.0746463623056485
 50
99.1779913009949894
 51
110.9209622238832935
  0
ARC
  5
10329
  8
0
 10
387.6218860108870103
 20
75.6329335767617152
 30
0.0
 40
0.006072466114135
 50
110.9209622238868036
 51
142.2857797586327138
  0
ARC
  5
1032A
  8
0
 10
387.6182743182342278
 20
75.6358817877503213
 30
0.0
 40
0.001417206589
 50
147.260285678410014
 51
194.5736205347344026
  0
ARC
  5
1032B
  8
0
 10
387.6192902046385029
 20
75.6363728985802055
 30
0.0
 40
0.0025335249673184
 50
199.5481264545433078
 51
223.6154507131327875
  0
ARC
  5
1032C
  8
0
 10
387.6268648016182965
 20
75.6467309339248857
 30
0.0
 40
0.0153321256268104
 50
232.1448092167800894
 51
255.2663673168572132
  0
ARC
  5
1032D
  8
0
 10
387.6600727565946727
 20
75.7621382414138509
 30
0.0
 40
0.1354185495793275
 50
254.0964152488863022
 51
262.0878188771432065
  0
ARC
  5
1032E
  8
0
 10
387.6964542304290262
 20
75.9868954396245613
 30
0.0
 40
0.3630799713377701
 50
261.2835953298481968
 51
262.6233257133915231
  0
ARC
  5
1032F
  8
0
 10
387.9704319175596083
 20
70.5911422625879652
 30
0.0
 40
5.0643227205404528
 50
89.9914791396900142
 51
91.3585675914263078
  0
ARC
  5
10330
  8
0
 10
387.9221227536849028
 20
72.6281350936868932
 30
0.0
 40
3.0267571217773859
 50
91.3585675914263078
 51
93.9232889398604556
  0
ARC
  5
10331
  8
0
 10
387.7537653634377079
 20
75.0829854114428343
 30
0.0
 40
0.5661404727567803
 50
93.9232889398604556
 51
98.8224167548583239
  0
ARC
  5
10332
  8
0
 10
387.6803686838081262
 20
75.5558752690003814
 30
0.0
 40
0.0875886051797822
 50
98.8224167548583239
 51
109.527634134936406
  0
ARC
  5
10333
  8
0
 10
387.6529865289247141
 20
75.6330817278322343
 30
0.0
 40
0.0056702330559816
 50
109.5276341349294995
 51
138.5649144752065069
  0
ARC
  5
10334
  8
0
 10
387.6499376346116037
 20
75.6357730096918033
 30
0.0
 40
0.0016034462924397
 50
138.5649144752113955
 51
199.7496938576184107
  0
ARC
  5
10335
  8
0
 10
387.8051022025588281
 20
75.657158413158129
 30
0.0
 40
0.1582006646646773
 50
187.9670671354197111
 51
201.5927644935497085
  0
ARC
  5
10336
  8
0
 10
387.8053941645223972
 20
75.6572956693157153
 30
0.0
 40
0.1585226501334899
 50
201.6000582132872125
 51
223.3492492012549917
  0
ARC
  5
10337
  8
0
 10
387.971125743986704
 20
70.9664175392003074
 30
0.0
 40
4.6000846755926101
 50
89.999261087449284
 51
90.5702862169461156
  0
ARC
  5
10338
  8
0
 10
387.9670665770752862
 20
71.3742258700276579
 30
0.0
 40
4.1922561435743102
 50
90.5702866983542805
 51
91.4326447479276965
  0
ARC
  5
10339
  8
0
 10
387.9374186330474004
 20
72.5596893506356651
 30
0.0
 40
3.0064219796035281
 50
91.4326447479276965
 51
92.8027350473634129
  0
ARC
  5
1033A
  8
0
 10
387.8556354545279987
 20
74.2302335737401791
 30
0.0
 40
1.33387706551702
 50
92.8027350473634129
 51
95.6464303089711336
  0
ARC
  5
1033B
  8
0
 10
387.7486188308691908
 20
75.3126410264569586
 30
0.0
 40
0.2461921610358885
 50
95.6464303089711336
 51
101.6097454283751063
  0
ARC
  5
1033C
  8
0
 10
387.706309517635475
 20
75.5185780902516797
 30
0.0
 40
0.0359538385760982
 50
101.6097454283751063
 51
114.6697774095172946
  0
ARC
  5
1033D
  8
0
 10
387.692729903130612
 20
75.5481433591104548
 30
0.0
 40
0.0034190717443749
 50
114.6697774095279954
 51
148.7636842373929937
  0
ARC
  5
1033E
  8
0
 10
387.6908356333217966
 20
75.5494122434362225
 30
0.0
 40
0.0011460040947253
 50
153.9017589065607012
 51
180.3701505605305897
  0
ARC
  5
1033F
  8
0
 10
387.6907933743772219
 20
75.5494307239833063
 30
0.0
 40
0.00110402470572
 50
181.3434340279054027
 51
204.5821914307244924
  0
ARC
  5
10340
  8
0
 10
387.6915282894162829
 20
75.5497787446861082
 30
0.0
 40
0.0019171371927271
 50
204.9036091872200984
 51
224.0219307914161107
  0
ARC
  5
10341
  8
0
 10
387.6951762602071199
 20
75.5541295513814077
 30
0.0
 40
0.007587064955138
 50
228.508139749708306
 51
244.6860005922528956
  0
ARC
  5
10342
  8
0
 10
387.7118141609304871
 20
75.597968188377493
 30
0.0
 40
0.0544563723164477
 50
248.5863229601278874
 51
260.8283054609880764
  0
ARC
  5
10343
  8
0
 10
387.7945307549127847
 20
76.1287509959224167
 30
0.0
 40
0.5916450038215318
 50
261.1134327761635063
 51
266.7972573489524279
  0
ARC
  5
10344
  8
0
 10
387.9265530441173269
 20
78.1727847967498519
 30
0.0
 40
2.6399209872570562
 50
266.414894708267127
 51
268.9221126261134032
  0
ARC
  5
10345
  8
0
 10
387.9689567760835871
 20
79.8577477087861496
 30
0.0
 40
4.3253966536827058
 50
268.7803840138695932
 51
269.7399895544231185
  0
ARC
  5
10346
  8
0
 10
387.9711432153436022
 20
80.1627220676225249
 30
0.0
 40
4.630377863876741
 50
269.7300602988339051
 51
270.0005178897648079
  0
ARC
  5
10347
  8
0
 10
387.9519751186804797
 20
76.3043772415698527
 30
0.0
 40
0.7641114074048142
 50
236.1365271739119009
 51
247.3681053517549913
  0
ARC
  5
10348
  8
0
 10
385.7409978048837047
 20
75.5699690612242705
 30
0.0
 40
1.702757666104352
 50
4.1858018267322183
 51
5.808880061677395
  0
ARC
  5
10349
  8
0
 10
385.3345252420654106
 20
75.528617435261026
 30
0.0
 40
2.111328224629943
 50
5.808880061677395
 51
12.8851558479944899
  0
ARC
  5
1034A
  8
0
 10
381.8483695475724744
 20
74.0333596984975486
 30
0.0
 40
5.8825958712653668
 50
19.52508877568145
 51
20.3013974305410088
  0
ARC
  5
1034B
  8
0
 10
387.7538827554790828
 20
76.204766237623744
 30
0.0
 40
0.4096468448862917
 50
183.7452008552116069
 51
198.5600223447283099
  0
ARC
  5
1034C
  8
0
 10
387.4311015125981044
 20
76.1824133670626225
 30
0.0
 40
0.0861035155555152
 50
172.2587666204306913
 51
182.9325456709266859
  0
ARC
  5
1034D
  8
0
 10
387.357523844128707
 20
76.1925415672523627
 30
0.0
 40
0.0118327947350108
 50
148.9262147244604932
 51
172.8642126327403048
  0
ARC
  5
1034E
  8
0
 10
387.348904210662397
 20
76.1974635877834601
 30
0.0
 40
0.001923780326276
 50
69.8108562278347762
 51
141.9630079075699882
  0
ARC
  5
1034F
  8
0
 10
387.3388353000805751
 20
76.1857364047420162
 30
0.0
 40
0.0172722225898126
 50
24.7511212882875391
 51
51.5820352794476875
  0
ARC
  5
10350
  8
0
 10
384.5802425864280281
 20
74.9279018012555014
 30
0.0
 40
3.0491001760150049
 50
23.2985217250789489
 51
24.5129041644665016
  0
ARC
  5
10351
  8
0
 10
387.9641318842037094
 20
76.3918631513396917
 30
0.0
 40
0.6379138386161494
 50
203.8538660479705982
 51
223.4734766206348979
  0
ARC
  5
10352
  8
0
 10
387.9615346309623192
 20
76.3919891425230162
 30
0.0
 40
0.6361184878978026
 50
223.642665164790003
 51
248.2377313537749899
  0
ARC
  5
10353
  8
0
 10
387.9708959931093091
 20
76.4133285705551941
 30
0.0
 40
0.6594083071824937
 50
248.1697443368545066
 51
270.0251155223235742
  0
ARC
  5
10354
  8
0
 10
387.3907710476681245
 20
76.324353805662696
 30
0.0
 40
0.002494231437201
 50
37.5812876546955223
 51
81.8457926073255351
  0
ARC
  5
10355
  8
0
 10
387.3655764090131015
 20
76.3115071226953319
 30
0.0
 40
0.0307362157650125
 50
9.0603067386014615
 51
27.8693965119099296
  0
ARC
  5
10356
  8
0
 10
384.9356850717165912
 20
75.8951935220125335
 30
0.0
 40
2.4960311150719918
 50
8.7336285243119018
 51
9.7139500962040142
  0
ARC
  5
10357
  8
0
 10
388.0300408927689091
 20
76.3799747607953066
 30
0.0
 40
0.6361232440627822
 50
189.5722289266059022
 51
218.1914492684250888
  0
ARC
  5
10358
  8
0
 10
387.9671012998431934
 20
76.375602065533343
 30
0.0
 40
0.5850290805301734
 50
221.6682053540054085
 51
270.3999538358871746
  0
ARC
  5
10359
  8
0
 10
387.6713513797495807
 20
76.1385019706625883
 30
0.0
 40
1.337502753846862
 50
90.0002756644588828
 51
95.8169011721041954
  0
ARC
  5
1035A
  8
0
 10
387.5730266983229058
 20
77.1036585710507438
 30
0.0
 40
0.367350700686908
 50
95.8169011721041954
 51
105.7331858168787022
  0
ARC
  5
1035B
  8
0
 10
387.4922677211046107
 20
77.390330298074872
 30
0.0
 40
0.0695207299379357
 50
105.7331858168787022
 51
129.2046948317058934
  0
ARC
  5
1035C
  8
0
 10
387.4705707708261002
 20
77.4169289372867411
 30
0.0
 40
0.0351951526039388
 50
129.2046948317058934
 51
164.5979830600479943
  0
ARC
  5
1035D
  8
0
 10
343.8965352980267198
 20
87.1043843299174938
 30
0.0
 40
44.6027628813577266
 50
347.1580576358941812
 51
347.4680207343445204
  0
ARC
  5
1035E
  8
0
 10
342.4550105887017821
 20
89.0866400420544551
 30
0.0
 40
46.4767845891872327
 50
344.0507368606071168
 51
345.1700716988883073
  0
ARC
  5
1035F
  8
0
 10
387.2952409495892994
 20
76.2712620123650424
 30
0.0
 40
0.1588270559664298
 50
163.8391624936425899
 51
172.3315356261277032
  0
ARC
  5
10360
  8
0
 10
387.1943195676103073
 20
76.2933301759933897
 30
0.0
 40
0.0564920150623599
 50
180.8866386900076861
 51
196.2072601053538108
  0
ARC
  5
10361
  8
0
 10
387.2249360376076766
 20
76.2970102328998507
 30
0.0
 40
0.0870632491261816
 50
192.9073051212031089
 51
212.6089196784253943
  0
ARC
  5
10362
  8
0
 10
387.2423584439060846
 20
76.3138954421395113
 30
0.0
 40
0.1109441958538142
 50
215.1064809908139921
 51
241.2796930430440909
  0
LINE
  5
10363
  8
0
 10
388.2752584249806205
 20
77.3809080393251918
 30
0.0
 11
387.6671117125806063
 21
77.3809080393251918
 31
0.0
  0
ARC
  5
10364
  8
0
 10
387.6671107981857176
 20
76.231579457262626
 30
0.0
 40
1.1493285820629331
 50
89.999954416022419
 51
97.5144971931549946
  0
ARC
  5
10365
  8
0
 10
387.5524044406719781
 20
77.1011604674890236
 30
0.0
 40
0.2722147457791623
 50
97.5144971931549946
 51
110.5801227744660054
  0
ARC
  5
10366
  8
0
 10
387.5133874089846131
 20
77.2050730425454219
 30
0.0
 40
0.1612185655901501
 50
110.5801227744660054
 51
127.2021159323284962
  0
ARC
  5
10367
  8
0
 10
387.9947701093362866
 20
70.0105433424737669
 30
0.0
 40
6.3940320291155119
 50
90.2113418171269643
 51
91.5273851145377222
  0
ARC
  5
10368
  8
0
 10
387.9138954001501247
 20
73.0436236965201999
 30
0.0
 40
3.3598736363007449
 50
91.5273851102208056
 51
96.5183645454663832
  0
ARC
  5
10369
  8
0
 10
387.7322014972941133
 20
74.6337989234479267
 30
0.0
 40
1.759351869291701
 50
96.5183645454663832
 51
103.3697856885599009
  0
LINE
  5
1036E
  8
0
 10
387.9672480608807064
 20
75.5650671873251838
 30
0.0
 11
387.9672736349147044
 21
75.5616032831384956
 31
0.0
  0
LINE
  5
1036F
  8
0
 10
387.9672736349147044
 20
75.5616032831384956
 30
0.0
 11
387.9268631554805893
 21
75.5613049322251982
 31
0.0
  0
LINE
  5
10370
  8
0
 10
387.9268631554805893
 20
75.5613049322251982
 30
0.0
 11
387.9120791983805816
 21
75.5646524930251928
 31
0.0
  0
LINE
  5
10371
  8
0
 10
387.9120791983805816
 20
75.5646524930251928
 30
0.0
 11
387.9672480608807064
 21
75.5650671873251838
 31
0.0
  0
LINE
  5
10372
  8
0
 10
387.9672480608807064
 20
75.5612447225251742
 30
0.0
 11
387.9672480608807064
 21
75.5580142476720766
 31
0.0
  0
LINE
  5
10373
  8
0
 10
387.9672480608807064
 20
75.5580142476720766
 30
0.0
 11
387.9057212441446723
 21
75.5570140009720035
 31
0.0
  0
LINE
  5
10374
  8
0
 10
387.9057251070806274
 20
75.5567799641251838
 30
0.0
 11
387.8771735586806244
 21
75.5597803736251734
 31
0.0
  0
ARC
  5
10375
  8
0
 10
387.968526146904594
 20
72.7115802098420829
 30
0.0
 40
2.8496647992964701
 50
90.0256973864082966
 51
91.8370633138711412
  0
LINE
  5
10376
  8
0
 10
387.9116517251807181
 20
75.5610576386251864
 30
0.0
 11
387.8968677680805968
 21
75.5644051995251971
 31
0.0
  0
LINE
  5
10377
  8
0
 10
387.8456726373805736
 20
75.5630907252251802
 30
0.0
 11
387.8742202177805893
 21
75.5600907327252003
 31
0.0
  0
LINE
  5
10378
  8
0
 10
387.8742202177805893
 20
75.5600907327252003
 30
0.0
 11
387.9116517251807181
 21
75.5610576386251864
 31
0.0
  0
LINE
  5
10379
  8
0
 10
387.8968677680805968
 20
75.5644051995251971
 30
0.0
 11
387.8456726373805736
 21
75.5630907252251802
 31
0.0
  0
ARC
  5
1037A
  8
0
 10
387.9701720847456841
 20
73.5792061728144802
 30
0.0
 40
1.9782193468693829
 50
89.9706606284349704
 51
91.7813266479336392
  0
LINE
  5
1037B
  8
0
 10
387.9086791229805726
 20
75.5564695341251849
 30
0.0
 11
387.940202087680575
 21
75.5531568660251764
 31
0.0
  0
LINE
  5
1037C
  8
0
 10
387.940202087680575
 20
75.5531568660251764
 30
0.0
 11
387.971185068780585
 21
75.5536033851252
 31
0.0
  0
LINE
  5
1037D
  8
0
 10
387.7133411082807015
 20
75.5496620762251894
 30
0.0
 11
387.7704362690806192
 21
75.5496620762251894
 31
0.0
  0
ARC
  5
1037E
  8
0
 10
387.7768681143998037
 20
75.5429153976838847
 30
0.0
 40
0.0093212823982749
 50
99.3696659939058549
 51
133.6314715860357012
  0
LINE
  5
1037F
  8
0
 10
387.7753505758806227
 20
75.5521123201251896
 30
0.0
 11
387.720176096680575
 21
75.5530092963252002
 31
0.0
  0
ARC
  5
10380
  8
0
 10
387.7241719079635232
 20
75.5337260238352997
 30
0.0
 40
0.0196929201930083
 50
101.706944537593003
 51
120.7265619868803981
  0
ARC
  5
10381
  8
0
 10
387.7149848666986145
 20
75.5491824376208569
 30
0.0
 40
0.0017123069021664
 50
120.7265619868842066
 51
163.733079530705993
  0
ARC
  5
10382
  8
0
 10
387.7714523823303807
 20
75.3018204870885768
 30
0.0
 40
0.2564920998533635
 50
95.7135833505243454
 51
100.6041650198878017
  0
LINE
  5
10383
  8
0
 10
387.7953630043169824
 20
75.5553062866309233
 30
0.0
 11
387.7794264662805972
 21
75.5530352321251826
 31
0.0
  0
LINE
  5
10384
  8
0
 10
387.7794264662805972
 20
75.5530352321251826
 30
0.0
 11
387.7242519871805939
 21
75.5539322083251932
 31
0.0
  0
LINE
  5
10385
  8
0
 10
387.7953630035868855
 20
75.5553062865268714
 30
0.0
 11
387.7459171448805932
 21
75.5570383331251634
 31
0.0
  0
LINE
  5
10386
  8
0
 10
387.7498541527806992
 20
75.5574520632251847
 30
0.0
 11
387.7833578575805973
 21
75.5601434937251639
 31
0.0
  0
LINE
  5
10387
  8
0
 10
387.7833578575805973
 20
75.5601434937251639
 30
0.0
 11
387.8237483795725211
 21
75.5576929091256773
 31
0.0
  0
LINE
  5
10388
  8
0
 10
387.8237483795725211
 20
75.5576929091256773
 30
0.0
 11
387.7993000123806269
 21
75.5557200167251892
 31
0.0
  0
LINE
  5
10389
  8
0
 10
387.7993000123806269
 20
75.5557200167251892
 30
0.0
 11
387.7498541527806992
 21
75.5574520632251847
 31
0.0
  0
LINE
  5
1038A
  8
0
 10
387.7944933974806077
 20
75.5608191122251753
 30
0.0
 11
387.8388535396807129
 21
75.5628518580251836
 31
0.0
  0
LINE
  5
1038B
  8
0
 10
387.8388535396807129
 20
75.5628518580251836
 30
0.0
 11
387.8674011200806149
 21
75.5598518655251752
 31
0.0
  0
LINE
  5
1038C
  8
0
 10
387.8674011200806149
 20
75.5598518655251752
 30
0.0
 11
387.8348839194807169
 21
75.5583685276251913
 31
0.0
  0
LINE
  5
1038D
  8
0
 10
387.8348839194807169
 20
75.5583685276251913
 30
0.0
 11
387.7944933974806077
 21
75.5608191122251753
 31
0.0
  0
LINE
  5
1038E
  8
0
 10
387.8044153488805819
 20
75.5555408308251799
 30
0.0
 11
387.8538680813805968
 21
75.5588626223251936
 31
0.0
  0
LINE
  5
1038F
  8
0
 10
387.8538680813805968
 20
75.5588626223251936
 30
0.0
 11
387.8703544609805931
 21
75.5595415064251767
 31
0.0
  0
LINE
  5
10390
  8
0
 10
387.8703544609805931
 20
75.5595415064251767
 30
0.0
 11
387.8989060093088028
 21
75.5565410969327331
 31
0.0
  0
LINE
  5
10391
  8
0
 10
387.8989060093088028
 20
75.5565410969327331
 30
0.0
 11
387.8538680813805968
 21
75.5538085436251947
 31
0.0
  0
LINE
  5
10392
  8
0
 10
387.8538680813805968
 20
75.5538085436251947
 30
0.0
 11
387.8044153488805819
 21
75.5555408308251799
 31
0.0
  0
ARC
  5
10393
  8
0
 10
387.8286247124137276
 20
75.2951531945813315
 30
0.0
 40
0.2614931167364627
 50
96.1791249276989362
 51
98.4902172699010237
  0
ARC
  5
10394
  8
0
 10
387.8036950804802245
 20
75.4621563066447152
 30
0.0
 40
0.0926395529979352
 50
98.4902172699010237
 51
104.8318754243351947
  0
ARC
  5
10395
  8
0
 10
387.7827401585051916
 20
75.5412892205937965
 30
0.0
 40
0.0107791423890896
 50
104.8318754243317983
 51
122.7122295291215011
  0
ARC
  5
10396
  8
0
 10
387.7777072103884279
 20
75.5491251634502134
 30
0.0
 40
0.001466110273024
 50
122.7122295291060965
 51
158.5175745251054877
  0
LINE
  5
10397
  8
0
 10
387.7763429508806894
 20
75.5496620762251894
 30
0.0
 11
387.8334460476806953
 21
75.5496620762297653
 31
0.0
  0
ARC
  5
10398
  8
0
 10
387.8357390896192101
 20
75.5478648550199239
 30
0.0
 40
0.0029134250305996
 50
107.2285919468238973
 51
141.9116586105421902
  0
ARC
  5
10399
  8
0
 10
387.8509672173512968
 20
75.4987574872251059
 30
0.0
 40
0.0543277172649784
 50
100.5628998995034067
 51
107.2285919468238973
  0
ARC
  5
1039A
  8
0
 10
387.8584512777184727
 20
75.4586230536249047
 30
0.0
 40
0.0951539823401795
 50
95.1372147255111571
 51
100.5628998995034067
  0
LINE
  5
1039B
  8
0
 10
387.8499310734806045
 20
75.5533948135251734
 30
0.0
 11
387.8004783409807033
 21
75.5551271007252012
 31
0.0
  0
ARC
  5
1039C
  8
0
 10
387.8408156916360099
 20
75.5488141479571027
 30
0.0
 40
0.0016897610602344
 50
105.3138126652447966
 51
149.8805995444473069
  0
ARC
  5
1039D
  8
0
 10
387.8481504841711853
 20
75.5313623284648656
 30
0.0
 40
0.0206070824352748
 50
100.7879356309788932
 51
112.1846002688587021
  0
ARC
  5
1039E
  8
0
 10
387.8724377362825066
 20
75.4020400722457254
 30
0.0
 40
0.1521901367724951
 50
94.880636374258188
 51
100.6569938105778022
  0
ARC
  5
1039F
  8
0
 10
387.9275915847787246
 20
74.7760835376142268
 30
0.0
 40
0.7805713654281444
 50
91.8890994160434502
 51
95.0052269122040087
  0
LINE
  5
103A0
  8
0
 10
387.9018600252805982
 20
75.556230666925174
 30
0.0
 11
387.9333829899784973
 21
75.5529179988254214
 31
0.0
  0
ARC
  5
103A1
  8
0
 10
387.9546944925763228
 20
75.0107382513802463
 30
0.0
 40
0.5425984322520212
 50
92.2509709694876676
 51
93.4287306996826032
  0
ARC
  5
103A2
  8
0
 10
387.9387152930764842
 20
75.2774397268870246
 30
0.0
 40
0.2754186952693167
 50
93.4287306996793347
 51
95.6998063880920284
  0
ARC
  5
103A3
  8
0
 10
387.9189639034116226
 20
75.4753298985543637
 30
0.0
 40
0.0765452746313953
 50
95.6998063880920284
 51
100.2883011421472048
  0
ARC
  5
103A4
  8
0
 10
387.9077956881096156
 20
75.5368560258607715
 30
0.0
 40
0.0140137355942572
 50
100.2883011421472048
 51
109.9387470871532031
  0
ARC
  5
103A5
  8
0
 10
387.9036665593761768
 20
75.5482385612862686
 30
0.0
 40
0.0019053989285387
 50
109.9387470871775037
 51
131.6605953666644098
  0
LINE
  5
103A6
  8
0
 10
387.9024000088805906
 20
75.5496620762735915
 30
0.0
 11
387.8393540794806995
 21
75.5496620762251894
 31
0.0
  0
LINE
  5
103A7
  8
0
 10
387.9609564222806171
 20
75.5509758459251941
 30
0.0
 11
387.9431601305806225
 21
75.5528460128251993
 31
0.0
  0
LINE
  5
103A8
  8
0
 10
387.9431601305806225
 20
75.5528460128251993
 30
0.0
 11
387.9609564222806171
 21
75.5531935887251791
 31
0.0
  0
LINE
  5
103A9
  8
0
 10
387.9609564222806171
 20
75.5531935887251791
 30
0.0
 11
387.971185068780585
 21
75.5532450843251837
 31
0.0
  0
LINE
  5
103AA
  8
0
 10
387.9541373246801754
 20
75.5507369787252401
 30
0.0
 11
387.9439086781807191
 21
75.5518118811251895
 31
0.0
  0
LINE
  5
103AB
  8
0
 10
387.9439086781807191
 20
75.5518118811251895
 30
0.0
 11
387.9363410328807049
 21
75.5526071456251884
 31
0.0
  0
ARC
  5
103AC
  8
0
 10
387.951657483307315
 20
75.148670637486731
 30
0.0
 40
0.4042267881533398
 50
92.1714990609700209
 51
94.3453594516753924
  0
ARC
  5
103AD
  8
0
 10
387.9287964211920894
 20
75.4416774883407584
 30
0.0
 40
0.1103316592656987
 50
94.0364955517903098
 51
99.0408919815463946
  0
ARC
  5
103AE
  8
0
 10
387.9141735904378834
 20
75.5342477659732339
 30
0.0
 40
0.0166139454230578
 50
99.4039308996724884
 51
107.8959279792601933
  0
ARC
  5
103AF
  8
0
 10
387.9097679004822226
 20
75.5478155664773396
 30
0.0
 40
0.0023489015165665
 50
107.3278041361417934
 51
128.1759602912673017
  0
LINE
  5
103B0
  8
0
 10
387.908316094680572
 20
75.5496620762251894
 30
0.0
 11
387.9439086781807191
 21
75.5496620762251894
 31
0.0
  0
ARC
  5
103B1
  8
0
 10
387.9464312514152766
 20
75.542367945172515
 30
0.0
 40
0.007718012926795
 50
97.0244790214481583
 51
109.0772286846924004
  0
ARC
  5
103B2
  8
0
 10
387.9584908438505977
 20
75.4444961523410598
 30
0.0
 40
0.1063299878676972
 50
92.346544223576899
 51
97.0244790214481583
  0
LINE
  5
103B3
  8
0
 10
387.9439086781807191
 20
75.5496620762251894
 30
0.0
 11
387.9439086781807191
 21
75.5518118811251895
 31
0.0
  0
LINE
  5
103B4
  8
0
 10
387.940202087680575
 20
75.5571984841251947
 30
0.0
 11
387.940202087680575
 21
75.5531568660251764
 31
0.0
  0
LINE
  5
103B5
  8
0
 10
387.9268631554805893
 20
75.5647636213403757
 30
0.0
 11
387.9268631554805893
 21
75.5613049322251982
 31
0.0
  0
LINE
  5
103B6
  8
0
 10
387.8742202177805893
 20
75.563823706277276
 30
0.0
 11
387.8742202177805893
 21
75.5600907327252003
 31
0.0
  0
LINE
  5
103B7
  8
0
 10
387.8348839194807169
 20
75.5626699553443473
 30
0.0
 11
387.8348839194807169
 21
75.5583685276251913
 31
0.0
  0
LINE
  5
103B8
  8
0
 10
387.7993000123806269
 20
75.5591762470269828
 30
0.0
 11
387.7993000123806269
 21
75.5557200167251892
 31
0.0
  0
LINE
  5
103B9
  8
0
 10
387.7794264662805972
 20
75.5530352321251826
 30
0.0
 11
387.7794264662805972
 21
75.555864529946092
 31
0.0
  0
LINE
  5
103BA
  8
0
 10
387.7704362690806192
 20
75.5496620762251894
 30
0.0
 11
387.7704362690806192
 21
75.5521922124287073
 31
0.0
  0
LINE
  5
103BB
  8
0
 10
387.8334460476806953
 20
75.5496620762297653
 30
0.0
 11
387.8334460476806953
 21
75.5539722699718084
 31
0.0
  0
LINE
  5
103BC
  8
0
 10
387.8538680813805968
 20
75.5588626223251936
 30
0.0
 11
387.8538680813805968
 21
75.5538085436251947
 31
0.0
  0
LINE
  5
103BD
  8
0
 10
387.9057251070806274
 20
75.560552919038571
 30
0.0
 11
387.9057251070806274
 21
75.5567799641251838
 31
0.0
  0
LINE
  5
103BE
  8
0
 10
387.9024000088805906
 20
75.5631525232040815
 30
0.0
 11
387.9024000088805906
 21
75.5608186544191938
 31
0.0
  0
LINE
  5
103BF
  8
0
 10
387.9609564222806171
 20
75.5531935887251791
 30
0.0
 11
387.9609564222806171
 21
75.5509758459251941
 31
0.0
  0
LINE
  5
103C0
  8
0
 10
387.9672480608807064
 20
75.5337792307252016
 30
0.0
 11
387.9672736349147044
 21
75.5372431349118756
 31
0.0
  0
LINE
  5
103C1
  8
0
 10
387.9672736349147044
 20
75.5372431349118756
 30
0.0
 11
387.9268631554805893
 21
75.5375414858251872
 31
0.0
  0
LINE
  5
103C2
  8
0
 10
387.9268631554805893
 20
75.5375414858251872
 30
0.0
 11
387.9120791983805816
 21
75.5341939250251926
 31
0.0
  0
LINE
  5
103C3
  8
0
 10
387.9120791983805816
 20
75.5341939250251926
 30
0.0
 11
387.9672480608807064
 21
75.5337792307252016
 31
0.0
  0
LINE
  5
103C4
  8
0
 10
387.9672480608807064
 20
75.5376016955251828
 30
0.0
 11
387.9672480608807064
 21
75.5408321703783088
 31
0.0
  0
LINE
  5
103C5
  8
0
 10
387.9672480608807064
 20
75.5408321703783088
 30
0.0
 11
387.9057212441446723
 21
75.5418324170783819
 31
0.0
  0
LINE
  5
103C6
  8
0
 10
387.9057251070806274
 20
75.5420664539252016
 30
0.0
 11
387.8771735586806244
 21
75.5390660444251978
 31
0.0
  0
ARC
  5
103C7
  8
0
 10
387.968526146904594
 20
78.3872662082083025
 30
0.0
 40
2.8496647992964701
 50
268.1629366861288872
 51
269.9743026135917034
  0
LINE
  5
103C8
  8
0
 10
387.9116517251807181
 20
75.5377887794251848
 30
0.0
 11
387.8968677680805968
 21
75.5344412185251883
 31
0.0
  0
LINE
  5
103C9
  8
0
 10
387.8456726373805736
 20
75.5357556928251768
 30
0.0
 11
387.8742202177805893
 21
75.5387556853251851
 31
0.0
  0
LINE
  5
103CA
  8
0
 10
387.8742202177805893
 20
75.5387556853251851
 30
0.0
 11
387.9116517251807181
 21
75.5377887794251848
 31
0.0
  0
LINE
  5
103CB
  8
0
 10
387.8968677680805968
 20
75.5344412185251883
 30
0.0
 11
387.8456726373805736
 21
75.5357556928251768
 31
0.0
  0
ARC
  5
103CC
  8
0
 10
387.9701720847456841
 20
77.5196402452358768
 30
0.0
 40
1.9782193468693829
 50
268.2186733520663893
 51
270.0293393715650154
  0
LINE
  5
103CD
  8
0
 10
387.9086791229805726
 20
75.5423768839251863
 30
0.0
 11
387.940202087680575
 21
75.5456895520251805
 31
0.0
  0
LINE
  5
103CE
  8
0
 10
387.940202087680575
 20
75.5456895520251805
 30
0.0
 11
387.971185068780585
 21
75.5452430329251854
 31
0.0
  0
LINE
  5
103CF
  8
0
 10
387.7133411082807015
 20
75.549184341825196
 30
0.0
 11
387.7704362690806192
 21
75.549184341825196
 31
0.0
  0
ARC
  5
103D0
  8
0
 10
387.7768681143998037
 20
75.5559310203665007
 30
0.0
 40
0.0093212823982749
 50
226.3685284139642988
 51
260.6303340060941878
  0
LINE
  5
103D1
  8
0
 10
387.7753505758806227
 20
75.5467340979251958
 30
0.0
 11
387.720176096680575
 21
75.5458371217251852
 31
0.0
  0
ARC
  5
103D2
  8
0
 10
387.7241719079635232
 20
75.5651203942150858
 30
0.0
 40
0.0196929201930083
 50
239.2734380131157934
 51
258.2930554624069828
  0
ARC
  5
103D3
  8
0
 10
387.7149848666986145
 20
75.5496639804295285
 30
0.0
 40
0.0017123069021664
 50
196.266920469294007
 51
239.2734380131157934
  0
ARC
  5
103D4
  8
0
 10
387.7714523823303807
 20
75.7970259309618086
 30
0.0
 40
0.2564920998533635
 50
259.3958349801122267
 51
264.2864166494755978
  0
LINE
  5
103D5
  8
0
 10
387.7953630043169824
 20
75.5435401314194621
 30
0.0
 11
387.7794264662805972
 21
75.5458111859251744
 31
0.0
  0
LINE
  5
103D6
  8
0
 10
387.7794264662805972
 20
75.5458111859251744
 30
0.0
 11
387.7242519871805939
 21
75.5449142097251922
 31
0.0
  0
LINE
  5
103D7
  8
0
 10
387.7953630035868855
 20
75.543540131523514
 30
0.0
 11
387.7459171448805932
 21
75.5418080849251652
 31
0.0
  0
LINE
  5
103D8
  8
0
 10
387.7498541527806992
 20
75.5413943548252007
 30
0.0
 11
387.7833578575805973
 21
75.5387029243251789
 31
0.0
  0
LINE
  5
103D9
  8
0
 10
387.7833578575805973
 20
75.5387029243251789
 30
0.0
 11
387.8237483795725211
 21
75.5411535089246797
 31
0.0
  0
LINE
  5
103DA
  8
0
 10
387.8237483795725211
 20
75.5411535089246797
 30
0.0
 11
387.7993000123806269
 21
75.5431264013251962
 31
0.0
  0
LINE
  5
103DB
  8
0
 10
387.7993000123806269
 20
75.5431264013251962
 30
0.0
 11
387.7498541527806992
 21
75.5413943548252007
 31
0.0
  0
LINE
  5
103DC
  8
0
 10
387.7944933974806077
 20
75.5380273058251817
 30
0.0
 11
387.8388535396807129
 21
75.5359945600251876
 31
0.0
  0
LINE
  5
103DD
  8
0
 10
387.8388535396807129
 20
75.5359945600251876
 30
0.0
 11
387.8674011200806149
 21
75.538994552525196
 31
0.0
  0
LINE
  5
103DE
  8
0
 10
387.8674011200806149
 20
75.538994552525196
 30
0.0
 11
387.8348839194807169
 21
75.5404778904251941
 31
0.0
  0
LINE
  5
103DF
  8
0
 10
387.8348839194807169
 20
75.5404778904251941
 30
0.0
 11
387.7944933974806077
 21
75.5380273058251817
 31
0.0
  0
LINE
  5
103E0
  8
0
 10
387.8044153488805819
 20
75.5433055872251771
 30
0.0
 11
387.8538680813805968
 21
75.5399837957251918
 31
0.0
  0
LINE
  5
103E1
  8
0
 10
387.8538680813805968
 20
75.5399837957251918
 30
0.0
 11
387.8703544609805931
 21
75.5393049116251802
 31
0.0
  0
LINE
  5
103E2
  8
0
 10
387.8703544609805931
 20
75.5393049116251802
 30
0.0
 11
387.8989060093088028
 21
75.5423053211176239
 31
0.0
  0
LINE
  5
103E3
  8
0
 10
387.8989060093088028
 20
75.5423053211176239
 30
0.0
 11
387.8538680813805968
 21
75.5450378744251907
 31
0.0
  0
LINE
  5
103E4
  8
0
 10
387.8538680813805968
 20
75.5450378744251907
 30
0.0
 11
387.8044153488805819
 21
75.5433055872251771
 31
0.0
  0
ARC
  5
103E5
  8
0
 10
387.8286247124137276
 20
75.8036932234690539
 30
0.0
 40
0.2614931167364627
 50
261.5097827300990048
 51
263.820875072301078
  0
ARC
  5
103E6
  8
0
 10
387.8036950804802245
 20
75.6366901114056702
 30
0.0
 40
0.0926395529979352
 50
255.1681245756647058
 51
261.5097827300990048
  0
ARC
  5
103E7
  8
0
 10
387.7827401585051916
 20
75.5575571974565605
 30
0.0
 40
0.0107791423890896
 50
237.2877704708785132
 51
255.168124575668088
  0
ARC
  5
103E8
  8
0
 10
387.7777072103884279
 20
75.549721254600172
 30
0.0
 40
0.001466110273024
 50
201.4824254748945123
 51
237.2877704708938893
  0
LINE
  5
103E9
  8
0
 10
387.7763429508806894
 20
75.549184341825196
 30
0.0
 11
387.8334460476806953
 21
75.5491843418206201
 31
0.0
  0
ARC
  5
103EA
  8
0
 10
387.8357390896192101
 20
75.5509815630304615
 30
0.0
 40
0.0029134250305996
 50
218.0883413894576961
 51
252.7714080531760885
  0
ARC
  5
103EB
  8
0
 10
387.8509672173512968
 20
75.6000889308252795
 30
0.0
 40
0.0543277172649784
 50
252.7714080531760885
 51
259.4371001004965933
  0
ARC
  5
103EC
  8
0
 10
387.8584512777184727
 20
75.6402233644254807
 30
0.0
 40
0.0951539823401795
 50
259.4371001004965933
 51
264.8627852744887718
  0
LINE
  5
103ED
  8
0
 10
387.8499310734806045
 20
75.5454516045251836
 30
0.0
 11
387.8004783409807033
 21
75.5437193173251842
 31
0.0
  0
ARC
  5
103EE
  8
0
 10
387.8408156916360099
 20
75.5500322700932827
 30
0.0
 40
0.0016897610602344
 50
210.1194004555522952
 51
254.6861873347550898
  0
ARC
  5
103EF
  8
0
 10
387.8481504841711853
 20
75.5674840895854913
 30
0.0
 40
0.0206070824352748
 50
247.8153997311412127
 51
259.2120643690211068
  0
ARC
  5
103F0
  8
0
 10
387.8724377362825066
 20
75.6968063458046032
 30
0.0
 40
0.1521901367724951
 50
259.3430061894188725
 51
265.119363625741812
  0
ARC
  5
103F1
  8
0
 10
387.9275915847787246
 20
76.3227628804361586
 30
0.0
 40
0.7805713654281444
 50
264.9947730877959771
 51
268.1109005839564929
  0
LINE
  5
103F2
  8
0
 10
387.9018600252805982
 20
75.542615751125183
 30
0.0
 11
387.9333829899784973
 21
75.545928419224964
 31
0.0
  0
ARC
  5
103F3
  8
0
 10
387.9546944925763228
 20
76.0881081666701391
 30
0.0
 40
0.5425984322520212
 50
266.5712693003173968
 51
267.7490290305124176
  0
ARC
  5
103F4
  8
0
 10
387.9387152930764842
 20
75.8214066911633608
 30
0.0
 40
0.2754186952693167
 50
264.3001936119079005
 51
266.57126930032058
  0
ARC
  5
103F5
  8
0
 10
387.9189639034116226
 20
75.6235165194960075
 30
0.0
 40
0.0765452746313953
 50
259.7116988578528094
 51
264.3001936119079005
  0
ARC
  5
103F6
  8
0
 10
387.9077956881096156
 20
75.5619903921896139
 30
0.0
 40
0.0140137355942572
 50
250.0612529128466974
 51
259.7116988578528094
  0
ARC
  5
103F7
  8
0
 10
387.9036665593761768
 20
75.5506078567641168
 30
0.0
 40
0.0019053989285387
 50
228.3394046333355902
 51
250.0612529128225106
  0
LINE
  5
103F8
  8
0
 10
387.9024000088805906
 20
75.5491843417767939
 30
0.0
 11
387.8393540794806995
 21
75.549184341825196
 31
0.0
  0
LINE
  5
103F9
  8
0
 10
387.9609564222806171
 20
75.5478705721251913
 30
0.0
 11
387.9431601305806225
 21
75.5460004052251861
 31
0.0
  0
LINE
  5
103FA
  8
0
 10
387.9431601305806225
 20
75.5460004052251861
 30
0.0
 11
387.9609564222806171
 21
75.5456528293251779
 31
0.0
  0
LINE
  5
103FB
  8
0
 10
387.9609564222806171
 20
75.5456528293251779
 30
0.0
 11
387.971185068780585
 21
75.5456013337251733
 31
0.0
  0
LINE
  5
103FC
  8
0
 10
387.9541373246801754
 20
75.5481094393251453
 30
0.0
 11
387.9439086781807191
 21
75.5470345369251959
 31
0.0
  0
LINE
  5
103FD
  8
0
 10
387.9439086781807191
 20
75.5470345369251959
 30
0.0
 11
387.9363410328807049
 21
75.546239272425197
 31
0.0
  0
ARC
  5
103FE
  8
0
 10
387.951657483307315
 20
75.9501757805636544
 30
0.0
 40
0.4042267881533398
 50
265.6546405483246076
 51
267.8285009390299933
  0
ARC
  5
103FF
  8
0
 10
387.9287964211920894
 20
75.657168929709627
 30
0.0
 40
0.1103316592656987
 50
260.9591080184536054
 51
265.963504448209676
  0
ARC
  5
10400
  8
0
 10
387.9141735904378834
 20
75.5645986520771089
 30
0.0
 40
0.0166139454230578
 50
252.1040720207398067
 51
260.5960691003274974
  0
ARC
  5
10401
  8
0
 10
387.9097679004822226
 20
75.5510308515730458
 30
0.0
 40
0.0023489015165665
 50
231.8240397087326983
 51
252.6721958638582066
  0
LINE
  5
10402
  8
0
 10
387.908316094680572
 20
75.549184341825196
 30
0.0
 11
387.9439086781807191
 21
75.549184341825196
 31
0.0
  0
ARC
  5
10403
  8
0
 10
387.9464312514152766
 20
75.5564784728778704
 30
0.0
 40
0.007718012926795
 50
250.9227713153076138
 51
262.9755209785519128
  0
ARC
  5
10404
  8
0
 10
387.9584908438505977
 20
75.6543502657092972
 30
0.0
 40
0.1063299878676972
 50
262.9755209785519128
 51
267.6534557764230726
  0
LINE
  5
10405
  8
0
 10
387.9439086781807191
 20
75.549184341825196
 30
0.0
 11
387.9439086781807191
 21
75.5470345369251959
 31
0.0
  0
LINE
  5
10406
  8
0
 10
387.940202087680575
 20
75.5416479339251907
 30
0.0
 11
387.940202087680575
 21
75.5456895520251805
 31
0.0
  0
LINE
  5
10407
  8
0
 10
387.9268631554805893
 20
75.5340827967099813
 30
0.0
 11
387.9268631554805893
 21
75.5375414858251872
 31
0.0
  0
LINE
  5
10408
  8
0
 10
387.8742202177805893
 20
75.535022711773081
 30
0.0
 11
387.8742202177805893
 21
75.5387556853251851
 31
0.0
  0
LINE
  5
10409
  8
0
 10
387.8348839194807169
 20
75.5361764627060381
 30
0.0
 11
387.8348839194807169
 21
75.5404778904251941
 31
0.0
  0
LINE
  5
1040A
  8
0
 10
387.7993000123806269
 20
75.5396701710234026
 30
0.0
 11
387.7993000123806269
 21
75.5431264013251962
 31
0.0
  0
LINE
  5
1040B
  8
0
 10
387.7794264662805972
 20
75.5458111859251744
 30
0.0
 11
387.7794264662805972
 21
75.5429818881042934
 31
0.0
  0
LINE
  5
1040C
  8
0
 10
387.7704362690806192
 20
75.549184341825196
 30
0.0
 11
387.7704362690806192
 21
75.5466542056216497
 31
0.0
  0
LINE
  5
1040D
  8
0
 10
387.8334460476806953
 20
75.5491843418206201
 30
0.0
 11
387.8334460476806953
 21
75.544874148078577
 31
0.0
  0
LINE
  5
1040E
  8
0
 10
387.8538680813805968
 20
75.5399837957251918
 30
0.0
 11
387.8538680813805968
 21
75.5450378744251907
 31
0.0
  0
LINE
  5
1040F
  8
0
 10
387.9057251070806274
 20
75.5382934990118144
 30
0.0
 11
387.9057251070806274
 21
75.5420664539252016
 31
0.0
  0
LINE
  5
10410
  8
0
 10
387.9024000088805906
 20
75.5356938948463039
 30
0.0
 11
387.9024000088805906
 21
75.5380277636311916
 31
0.0
  0
LINE
  5
10411
  8
0
 10
387.9609564222806171
 20
75.5456528293251779
 30
0.0
 11
387.9609564222806171
 21
75.5478705721251913
 31
0.0
  0
ARC
  5
10412
  8
0
 10
358.5059403134222862
 20
73.915393146265373
 30
0.0
 40
30.4732448381815715
 50
0.6669411109700915
 51
2.1590498427957092
  0
ARC
  5
10413
  8
0
 10
384.0979064138957142
 20
74.8625117018096091
 30
0.0
 40
4.863797351815716
 50
2.367505177371795
 51
15.3582136682995198
  0
ARC
  5
10414
  8
0
 10
388.630143399118424
 20
76.1096808205308832
 30
0.0
 40
0.1631110975987712
 50
14.5660699958646696
 51
40.9575318213498534
  0
ARC
  5
10415
  8
0
 10
388.5512741023866283
 20
76.2913902741078971
 30
0.0
 40
0.0354325577790067
 50
57.5509962283826724
 51
90.0465526786995838
  0
LINE
  5
10416
  8
0
 10
388.5702853963805978
 20
76.3212907231252018
 30
0.0
 11
388.701957804630581
 21
76.2495738084751906
 31
0.0
  0
ARC
  5
10417
  8
0
 10
388.6152807292356215
 20
76.0942346644001759
 30
0.0
 40
0.177885258189055
 50
55.3078993432395194
 51
60.8390922892475885
  0
ARC
  5
10418
  8
0
 10
388.8065905192141258
 20
76.3999059627475532
 30
0.0
 40
0.1830928620337631
 50
240.5344098864972011
 51
247.0082242574320901
  0
ARC
  5
10419
  8
0
 10
388.7042908260825129
 20
76.1746277196493651
 30
0.0
 40
0.0645441538653055
 50
40.563374351062393
 51
61.5141437615986035
  0
ARC
  5
1041A
  8
0
 10
387.97065947701509
 20
64.3861897181899394
 30
0.0
 40
11.3332955824050607
 50
88.9023119417694545
 51
89.997342856745135
  0
ARC
  5
1041B
  8
0
 10
388.0360683726922844
 20
67.7999055853673269
 30
0.0
 40
7.9189531353953351
 50
87.2635297096462352
 51
88.9023119417694545
  0
ARC
  5
1041C
  8
0
 10
388.3856906696448732
 20
75.1146747250498379
 30
0.0
 40
0.5958333550436447
 50
80.1247208290100446
 51
87.2635297096462352
  0
ARC
  5
1041D
  8
0
 10
388.4798885521083776
 20
75.655782599666594
 30
0.0
 40
0.0465875329995855
 50
65.1149195397109111
 51
80.1247208290133557
  0
ARC
  5
1041E
  8
0
 10
388.4953293241994743
 20
75.6890695894272483
 30
0.0
 40
0.009893648902999
 50
43.603449880265849
 51
65.1149195397109111
  0
ARC
  5
1041F
  8
0
 10
388.5007683655152277
 20
75.6942393690139852
 30
0.0
 40
0.0023896794353093
 50
0.8223854043012399
 51
43.7835631670755134
  0
ARC
  5
10420
  8
0
 10
387.6739460676747058
 20
75.7474604485877023
 30
0.0
 40
0.8309157169595554
 50
356.3159194211049225
 51
356.3299973297250176
  0
ARC
  5
10421
  8
0
 10
388.4939595775664998
 20
75.6946519809031315
 30
0.0
 40
0.0092035515458894
 50
340.4942093770594056
 51
356.3740632996215254
  0
ARC
  5
10422
  8
0
 10
388.4942484594632788
 20
75.6942102579529035
 30
0.0
 40
0.0087895808471719
 50
314.1944281359794786
 51
342.5800568932431815
  0
ARC
  5
10423
  8
0
 10
388.4859905529934849
 20
75.7012758446993814
 30
0.0
 40
0.0196372443402238
 50
288.5564383581656784
 51
317.0998233822489851
  0
ARC
  5
10424
  8
0
 10
388.4225041266248013
 20
75.9065115254299769
 30
0.0
 40
0.2344627739747923
 50
275.898782569939101
 51
287.3031784856297008
  0
ARC
  5
10425
  8
0
 10
388.2801333182767962
 20
77.0227499726669294
 30
0.0
 40
1.359688498745049
 50
274.0001003081346198
 51
277.0323746749539282
  0
ARC
  5
10426
  8
0
 10
388.1804077125881918
 20
78.3174638273281545
 30
0.0
 40
2.6582208202651771
 50
273.2912359143334129
 51
274.1976605867520789
  0
ARC
  5
10427
  8
0
 10
387.9758055094292217
 20
70.4343266112580011
 30
0.0
 40
5.2749024656568224
 50
87.7982957848602155
 51
90.0501870478604616
  0
ARC
  5
10428
  8
0
 10
388.1025768823491262
 20
73.7317219068422531
 30
0.0
 40
1.975071149311513
 50
84.3451079309025147
 51
87.7982957848602155
  0
ARC
  5
10429
  8
0
 10
388.2745416476021774
 20
75.4684203531099911
 30
0.0
 40
0.2298796487141276
 50
75.4950453392896463
 51
84.3451079309025147
  0
ARC
  5
1042A
  8
0
 10
388.328409497379198
 20
75.6766375924571832
 30
0.0
 40
0.0148071865044103
 50
54.5412082836819465
 51
75.4950453392930143
  0
ARC
  5
1042B
  8
0
 10
388.3351568618957117
 20
75.6861114540621998
 30
0.0
 40
0.0031761512267553
 50
27.3343214883578192
 51
54.5412082836779319
  0
ARC
  5
1042C
  8
0
 10
388.3368465257996149
 20
75.686984836813167
 30
0.0
 40
0.0012741098134895
 50
346.6672053523773229
 51
27.3343214883655392
  0
ARC
  5
1042D
  8
0
 10
387.7795381281508185
 20
75.7973049869116267
 30
0.0
 40
0.5693957360432654
 50
343.4934221639974226
 51
348.7981784946902053
  0
ARC
  5
1042E
  8
0
 10
387.9746904087418216
 20
70.5711967873702122
 30
0.0
 40
5.0861799563502821
 50
87.6457663941396987
 51
90.0394876318096351
  0
ARC
  5
1042F
  8
0
 10
388.1094390681441837
 20
73.8487066522508542
 30
0.0
 40
1.8059012920324671
 50
85.0720369958185643
 51
87.6458550912745551
  0
ARC
  5
10430
  8
0
 10
388.213995071972704
 20
75.0613453072218988
 30
0.0
 40
0.5887634750755928
 50
80.8220086990082933
 51
85.0720369958185643
  0
ARC
  5
10431
  8
0
 10
388.2959977760521042
 20
75.5688804904029041
 30
0.0
 40
0.0746463623056485
 50
69.0790377761167207
 51
80.8220086990050248
  0
ARC
  5
10432
  8
0
 10
388.3204841266742164
 20
75.6329335767617152
 30
0.0
 40
0.006072466114135
 50
37.7142202413672933
 51
69.0790377761132248
  0
ARC
  5
10433
  8
0
 10
388.3240958193271126
 20
75.6358817877503213
 30
0.0
 40
0.001417206589
 50
345.4263794652654838
 51
32.7397143215899433
  0
ARC
  5
10434
  8
0
 10
388.3230799329227807
 20
75.6363728985802055
 30
0.0
 40
0.0025335249673184
 50
316.384549286867184
 51
340.4518735454561238
  0
ARC
  5
10435
  8
0
 10
388.3155053359428734
 20
75.6467309339248857
 30
0.0
 40
0.0153321256268104
 50
284.7336326831427868
 51
307.8551907832198822
  0
ARC
  5
10436
  8
0
 10
388.2822973809666109
 20
75.7621382414138509
 30
0.0
 40
0.1354185495793275
 50
277.9121811228566798
 51
285.9035847511137263
  0
ARC
  5
10437
  8
0
 10
388.2459159071323143
 20
75.9868954396245613
 30
0.0
 40
0.3630799713377701
 50
277.3766742866084769
 51
278.7164046701516895
  0
ARC
  5
10438
  8
0
 10
387.9719382200016184
 20
70.5911422625879652
 30
0.0
 40
5.0643227205404528
 50
88.6414324085736922
 51
90.0085208603099716
  0
ARC
  5
10439
  8
0
 10
388.0202473838763808
 20
72.6281350936868932
 30
0.0
 40
3.0267571217773859
 50
86.0767110601395871
 51
88.6414324085736922
  0
ARC
  5
1043A
  8
0
 10
388.1886047741235188
 20
75.0829854114428343
 30
0.0
 40
0.5661404727567803
 50
81.1775832451416761
 51
86.0767110601395871
  0
ARC
  5
1043B
  8
0
 10
388.2620014537532143
 20
75.5558752690003814
 30
0.0
 40
0.0875886051797822
 50
70.472365865063523
 51
81.1775832451416761
  0
ARC
  5
1043C
  8
0
 10
388.2893836086365127
 20
75.6330817278322343
 30
0.0
 40
0.0056702330559816
 50
41.4350855247935073
 51
70.4723658650704436
  0
ARC
  5
1043D
  8
0
 10
388.2924325029496231
 20
75.6357730096918033
 30
0.0
 40
0.0016034462924397
 50
340.2503061423814756
 51
41.4350855247885903
  0
ARC
  5
1043E
  8
0
 10
388.1372679350023986
 20
75.657158413158129
 30
0.0
 40
0.1582006646646773
 50
338.4072355064503199
 51
352.032932864579891
  0
ARC
  5
1043F
  8
0
 10
388.1369759730387727
 20
75.6572956693157153
 30
0.0
 40
0.1585226501334899
 50
316.6346750575125952
 51
338.3999417867128159
  0
ARC
  5
10440
  8
0
 10
387.9712443935744091
 20
70.9664175392007053
 30
0.0
 40
4.6000846755922256
 50
89.4297137830538986
 51
90.0007389125507444
  0
ARC
  5
10441
  8
0
 10
387.9753035604858837
 20
71.3742258700276579
 30
0.0
 40
4.1922561435743102
 50
88.5673552520723177
 51
89.4297133016457337
  0
ARC
  5
10442
  8
0
 10
388.004951504513997
 20
72.5596893506356651
 30
0.0
 40
3.0064219796035281
 50
87.1972649526333186
 51
88.5673552520723177
  0
ARC
  5
10443
  8
0
 10
388.0867346830332849
 20
74.2302335737401791
 30
0.0
 40
1.33387706551702
 50
84.3535696910288522
 51
87.1972649526365728
  0
ARC
  5
10444
  8
0
 10
388.1937513066919792
 20
75.3126410264569586
 30
0.0
 40
0.2461921610358885
 50
78.3902545716248511
 51
84.3535696910288522
  0
ARC
  5
10445
  8
0
 10
388.2360606199258086
 20
75.5185780902516797
 30
0.0
 40
0.0359538385760982
 50
65.3302225904827338
 51
78.3902545716248511
  0
ARC
  5
10446
  8
0
 10
388.2496402344306716
 20
75.5481433591104548
 30
0.0
 40
0.0034190717443749
 50
31.2363157626069814
 51
65.3302225904719336
  0
ARC
  5
10447
  8
0
 10
388.251534504239487
 20
75.5494122434362225
 30
0.0
 40
0.0011460040947253
 50
359.6298494394691829
 51
26.0982410934404001
  0
ARC
  5
10448
  8
0
 10
388.2515767631840049
 20
75.5494307239833063
 30
0.0
 40
0.00110402470572
 50
335.4178085692755076
 51
358.6565659720941994
  0
ARC
  5
10449
  8
0
 10
388.2508418481450008
 20
75.5497787446861082
 30
0.0
 40
0.0019171371927271
 50
317.3073567916507045
 51
335.0963908127787931
  0
ARC
  5
1044A
  8
0
 10
388.2471938773542206
 20
75.5541295513814077
 30
0.0
 40
0.007587064955138
 50
295.313999407747076
 51
311.4918602502917224
  0
ARC
  5
1044B
  8
0
 10
388.2305559766306828
 20
75.597968188377493
 30
0.0
 40
0.0544563723164477
 50
279.1716945390119236
 51
291.4136770398720842
  0
ARC
  5
1044C
  8
0
 10
388.1478393826483284
 20
76.1287509959224167
 30
0.0
 40
0.5916450038215318
 50
273.2027426510475721
 51
278.8865672238364937
  0
ARC
  5
1044D
  8
0
 10
388.0158170934440136
 20
78.1727847967498519
 30
0.0
 40
2.6399209872570562
 50
271.0778873738865968
 51
273.585105291732873
  0
ARC
  5
1044E
  8
0
 10
387.973413361477526
 20
79.8577477087861496
 30
0.0
 40
4.3253966536827058
 50
270.2600104455735845
 51
271.2196159861302931
  0
ARC
  5
1044F
  8
0
 10
387.9712269222176815
 20
80.1627220676253529
 30
0.0
 40
4.6303778638795787
 50
269.9994821102351921
 51
270.2699397011660949
  0
ARC
  5
10450
  8
0
 10
387.9903950188809176
 20
76.3043772415698527
 30
0.0
 40
0.7641114074048142
 50
292.6318946482450087
 51
303.8634728260880138
  0
ARC
  5
10451
  8
0
 10
390.2021969451081986
 20
75.569891027122253
 30
0.0
 40
1.7035859420582899
 50
174.1913158819419891
 51
175.8129806403092061
  0
ARC
  5
10452
  8
0
 10
390.6078448954958731
 20
75.528617435261026
 30
0.0
 40
2.111328224629943
 50
167.114844152005503
 51
174.1911199383226005
  0
ARC
  5
10453
  8
0
 10
394.0940005899888092
 20
74.0333596984975486
 30
0.0
 40
5.8825958712653668
 50
159.6986025694588989
 51
160.4749112243185039
  0
ARC
  5
10454
  8
0
 10
388.1884873820820872
 20
76.204766237623744
 30
0.0
 40
0.4096468448862917
 50
341.4399776552717185
 51
356.2547991447884215
  0
ARC
  5
10455
  8
0
 10
388.5112686249631224
 20
76.1824133670626225
 30
0.0
 40
0.0861035155555152
 50
357.0674543290733141
 51
7.7412333795693318
  0
ARC
  5
10456
  8
0
 10
388.5848462934325198
 20
76.1925415672523627
 30
0.0
 40
0.0118327947350108
 50
7.1357873672593257
 51
31.0737852755394215
  0
ARC
  5
10457
  8
0
 10
388.5934659268988867
 20
76.1974635877834601
 30
0.0
 40
0.001923780326276
 50
38.0369920924300331
 51
110.1891437721651954
  0
ARC
  5
10458
  8
0
 10
388.6035348374807086
 20
76.1857364047420162
 30
0.0
 40
0.0172722225898126
 50
128.4179647205523054
 51
155.2488787117125071
  0
ARC
  5
10459
  8
0
 10
391.3621275511331987
 20
74.9279018012555014
 30
0.0
 40
3.0491001760150049
 50
155.4870958355334949
 51
156.7014782749209871
  0
ARC
  5
1045A
  8
0
 10
387.9782382533575742
 20
76.3918631513396917
 30
0.0
 40
0.6379138386161494
 50
316.5265233793649031
 51
336.1461339520290039
  0
ARC
  5
1045B
  8
0
 10
387.9808355065990213
 20
76.3919891425230162
 30
0.0
 40
0.6361184878978026
 50
291.7622686462249817
 51
316.3573348352098265
  0
ARC
  5
1045C
  8
0
 10
387.971474144451804
 20
76.4133285705551941
 30
0.0
 40
0.6594083071824937
 50
269.9748844776764258
 51
291.8302556631455218
  0
ARC
  5
1045D
  8
0
 10
388.5515990898932159
 20
76.324353805662696
 30
0.0
 40
0.002494231437208
 50
98.1542073927797531
 51
142.4187123452836943
  0
ARC
  5
1045E
  8
0
 10
388.5767937285480116
 20
76.3115071226953319
 30
0.0
 40
0.0307362157650125
 50
152.1306034880900881
 51
170.939693261398503
  0
ARC
  5
1045F
  8
0
 10
391.0066850658445787
 20
75.8951935220125335
 30
0.0
 40
2.4960311150719918
 50
170.2860499037959983
 51
171.2663714756880893
  0
ARC
  5
10460
  8
0
 10
387.9123292447923177
 20
76.3799747607953066
 30
0.0
 40
0.6361232440627822
 50
321.808550731574428
 51
350.4277710733941262
  0
ARC
  5
10461
  8
0
 10
387.9752688377179766
 20
76.375602065533343
 30
0.0
 40
0.5850290805301734
 50
269.6000461641128254
 51
318.3317946459945915
  0
ARC
  5
10462
  8
0
 10
388.2710187578115892
 20
76.1385019706627304
 30
0.0
 40
1.337502753846723
 50
84.1830988278957904
 51
89.999724335541103
  0
ARC
  5
10463
  8
0
 10
388.3693434392383779
 20
77.1036585710507438
 30
0.0
 40
0.367350700686908
 50
74.2668141831212409
 51
84.1830988278957904
  0
ARC
  5
10464
  8
0
 10
388.4501024164566729
 20
77.390330298074872
 30
0.0
 40
0.0695207299379357
 50
50.7953051682940711
 51
74.2668141831212409
  0
ARC
  5
10465
  8
0
 10
388.4717993667351834
 20
77.4169289372867411
 30
0.0
 40
0.0351951526039388
 50
15.4020169399520306
 51
50.7953051682940711
  0
ARC
  5
10466
  8
0
 10
432.0458348395346206
 20
87.1043843299174938
 30
0.0
 40
44.6027628813577266
 50
192.531979265655508
 51
192.8419423641057051
  0
ARC
  5
10467
  8
0
 10
433.4873595488595015
 20
89.0866400420544551
 30
0.0
 40
46.4767845891872327
 50
194.8299283011116927
 51
195.949263139392599
  0
ARC
  5
10468
  8
0
 10
388.6721399958680081
 20
76.3039887491329409
 30
0.0
 40
0.1328131026627283
 50
348.5230927559339875
 51
355.4569933039613829
  0
ARC
  5
10469
  8
0
 10
388.7270572517289224
 20
76.287904193995729
 30
0.0
 40
0.0776781531631586
 50
4.1081266668126206
 51
20.7848837268890883
  0
ARC
  5
1046A
  8
0
 10
388.7174340999533797
 20
76.2970102328998507
 30
0.0
 40
0.0870632491261816
 50
327.3910803215737815
 51
347.0926948787969195
  0
ARC
  5
1046B
  8
0
 10
388.700011693655199
 20
76.3138954421395113
 30
0.0
 40
0.1109441958538142
 50
298.7203069569558807
 51
324.893519009185809
  0
ARC
  5
1046C
  8
0
 10
388.2752593393755092
 20
76.231579457262626
 30
0.0
 40
1.1493285820629331
 50
82.4855028068450338
 51
90.0000455839775668
  0
ARC
  5
1046D
  8
0
 10
388.3899656968891918
 20
77.1011604674890236
 30
0.0
 40
0.2722147457791623
 50
69.4198772255340089
 51
82.4855028068450338
  0
ARC
  5
1046E
  8
0
 10
388.4289827285766137
 20
77.2050730425454219
 30
0.0
 40
0.1612185655901501
 50
52.7978840676148309
 51
69.4198772255340089
  0
ARC
  5
1046F
  8
0
 10
387.947600028224997
 20
70.0105433424738806
 30
0.0
 40
6.3940320291154142
 50
88.4726148854622778
 51
89.7886581828730357
  0
ARC
  5
10470
  8
0
 10
388.0284747374112158
 20
73.0436236965201999
 30
0.0
 40
3.3598736363007449
 50
83.481635454533631
 51
88.4726148897791944
  0
ARC
  5
10471
  8
0
 10
388.2101686402671135
 20
74.6337989234479267
 30
0.0
 40
1.759351869291701
 50
77.1679062941882989
 51
83.481635454533631
  0
LINE
  5
10476
  8
0
 10
387.9751220766805773
 20
75.5650671873251838
 30
0.0
 11
387.9750965026465224
 21
75.5616032831384956
 31
0.0
  0
LINE
  5
10477
  8
0
 10
387.9750965026465224
 20
75.5616032831384956
 30
0.0
 11
388.0155069820805807
 21
75.5613049322251982
 31
0.0
  0
LINE
  5
10478
  8
0
 10
388.0155069820805807
 20
75.5613049322251982
 30
0.0
 11
388.0302909391805883
 21
75.5646524930251928
 31
0.0
  0
LINE
  5
10479
  8
0
 10
388.0302909391805883
 20
75.5646524930251928
 30
0.0
 11
387.9751220766805773
 21
75.5650671873251838
 31
0.0
  0
LINE
  5
1047A
  8
0
 10
387.9751220766805773
 20
75.5612447225251742
 30
0.0
 11
387.9751220766805773
 21
75.5580142476720766
 31
0.0
  0
LINE
  5
1047B
  8
0
 10
387.9751220766805773
 20
75.5580142476720766
 30
0.0
 11
388.0366488934164977
 21
75.5570140009720035
 31
0.0
  0
LINE
  5
1047C
  8
0
 10
388.0366450304807131
 20
75.5567799641251838
 30
0.0
 11
388.0651965788806024
 21
75.5597803736251734
 31
0.0
  0
ARC
  5
1047D
  8
0
 10
387.9738439906566896
 20
72.7115802098420829
 30
0.0
 40
2.8496647992964701
 50
88.1629366861288446
 51
89.9743026135917319
  0
LINE
  5
1047E
  8
0
 10
388.0307184123806223
 20
75.5610576386251864
 30
0.0
 11
388.0455023694806869
 21
75.5644051995251971
 31
0.0
  0
LINE
  5
1047F
  8
0
 10
388.0966975001805963
 20
75.5630907252251802
 30
0.0
 11
388.0681499197805806
 21
75.5600907327252003
 31
0.0
  0
LINE
  5
10480
  8
0
 10
388.0681499197805806
 20
75.5600907327252003
 30
0.0
 11
388.0307184123806223
 21
75.5610576386251864
 31
0.0
  0
LINE
  5
10481
  8
0
 10
388.0455023694806869
 20
75.5644051995251971
 30
0.0
 11
388.0966975001805963
 21
75.5630907252251802
 31
0.0
  0
ARC
  5
10482
  8
0
 10
387.9721980528155996
 20
73.5792061728144802
 30
0.0
 40
1.9782193468693829
 50
88.2186733520663751
 51
90.0293393715650438
  0
LINE
  5
10483
  8
0
 10
388.0336910145805973
 20
75.5564695341251849
 30
0.0
 11
388.0021680498805949
 21
75.5531568660251764
 31
0.0
  0
LINE
  5
10484
  8
0
 10
388.0021680498805949
 20
75.5531568660251764
 30
0.0
 11
387.971185068780585
 21
75.5536033851252
 31
0.0
  0
LINE
  5
10485
  8
0
 10
388.2290290292805821
 20
75.5496620762251894
 30
0.0
 11
388.1719338684806075
 21
75.5496620762251894
 31
0.0
  0
ARC
  5
10486
  8
0
 10
388.1655020231614799
 20
75.5429153976838847
 30
0.0
 40
0.0093212823982749
 50
46.3685284139642988
 51
80.6303340060974563
  0
LINE
  5
10487
  8
0
 10
388.1670195616806041
 20
75.5521123201251896
 30
0.0
 11
388.2221940408807086
 21
75.5530092963252002
 31
0.0
  0
ARC
  5
10488
  8
0
 10
388.2181982295977036
 20
75.5337260238352997
 30
0.0
 40
0.0196929201930083
 50
59.273438013119609
 51
78.2930554624070112
  0
ARC
  5
10489
  8
0
 10
388.227385270862726
 20
75.5491824376208569
 30
0.0
 40
0.0017123069021664
 50
16.2669204692940212
 51
59.2734380131158005
  0
ARC
  5
1048A
  8
0
 10
388.1709177552306755
 20
75.3018204870885768
 30
0.0
 40
0.2564920998533635
 50
79.3958349801122125
 51
84.2864166494756688
  0
LINE
  5
1048B
  8
0
 10
388.1470071332441876
 20
75.5553062866309233
 30
0.0
 11
388.1629436712805727
 21
75.5530352321251826
 31
0.0
  0
LINE
  5
1048C
  8
0
 10
388.1629436712805727
 20
75.5530352321251826
 30
0.0
 11
388.218118150380576
 21
75.5539322083251932
 31
0.0
  0
LINE
  5
1048D
  8
0
 10
388.1470071339743981
 20
75.5553062865268714
 30
0.0
 11
388.1964529926805767
 21
75.5570383331251634
 31
0.0
  0
LINE
  5
1048E
  8
0
 10
388.1925159847805844
 20
75.5574520632251847
 30
0.0
 11
388.1590122799805727
 21
75.5601434937251639
 31
0.0
  0
LINE
  5
1048F
  8
0
 10
388.1590122799805727
 20
75.5601434937251639
 30
0.0
 11
388.1186217579888194
 21
75.5576929091256773
 31
0.0
  0
LINE
  5
10490
  8
0
 10
388.1186217579888194
 20
75.5576929091256773
 30
0.0
 11
388.1430701251805999
 21
75.5557200167251892
 31
0.0
  0
LINE
  5
10491
  8
0
 10
388.1430701251805999
 20
75.5557200167251892
 30
0.0
 11
388.1925159847805844
 21
75.5574520632251847
 31
0.0
  0
LINE
  5
10492
  8
0
 10
388.1478767400805054
 20
75.5608191122251753
 30
0.0
 11
388.1035165978806276
 21
75.5628518580251836
 31
0.0
  0
LINE
  5
10493
  8
0
 10
388.1035165978806276
 20
75.5628518580251836
 30
0.0
 11
388.0749690174807256
 21
75.5598518655251752
 31
0.0
  0
LINE
  5
10494
  8
0
 10
388.0749690174807256
 20
75.5598518655251752
 30
0.0
 11
388.1074862180806235
 21
75.5583685276251913
 31
0.0
  0
LINE
  5
10495
  8
0
 10
388.1074862180806235
 20
75.5583685276251913
 30
0.0
 11
388.1478767400805054
 21
75.5608191122251753
 31
0.0
  0
LINE
  5
10496
  8
0
 10
388.1379547886805881
 20
75.5555408308251799
 30
0.0
 11
388.0885020561805732
 21
75.5588626223251936
 31
0.0
  0
LINE
  5
10497
  8
0
 10
388.0885020561805732
 20
75.5588626223251936
 30
0.0
 11
388.0720156765805768
 21
75.5595415064251767
 31
0.0
  0
LINE
  5
10498
  8
0
 10
388.0720156765805768
 20
75.5595415064251767
 30
0.0
 11
388.0434641282524808
 21
75.5565410969327331
 31
0.0
  0
LINE
  5
10499
  8
0
 10
388.0434641282524808
 20
75.5565410969327331
 30
0.0
 11
388.0885020561805732
 21
75.5538085436251947
 31
0.0
  0
LINE
  5
1049A
  8
0
 10
388.0885020561805732
 20
75.5538085436251947
 30
0.0
 11
388.1379547886805881
 21
75.5555408308251799
 31
0.0
  0
ARC
  5
1049B
  8
0
 10
388.1137454251476129
 20
75.2951531945813315
 30
0.0
 40
0.2614931167364627
 50
81.5097827300989479
 51
83.8208750723010638
  0
ARC
  5
1049C
  8
0
 10
388.1386750570811159
 20
75.4621563066447152
 30
0.0
 40
0.0926395529979352
 50
75.1681245756647485
 51
81.5097827300989479
  0
ARC
  5
1049D
  8
0
 10
388.1596299790559783
 20
75.5412892205937965
 30
0.0
 40
0.0107791423890896
 50
57.2877704708784492
 51
75.1681245756681307
  0
ARC
  5
1049E
  8
0
 10
388.1646629271726852
 20
75.5491251634502134
 30
0.0
 40
0.001466110273024
 50
21.4824254748945194
 51
57.2877704708939106
  0
LINE
  5
1049F
  8
0
 10
388.1660271866805942
 20
75.5496620762251894
 30
0.0
 11
388.1089240898805883
 21
75.5496620762297653
 31
0.0
  0
ARC
  5
104A0
  8
0
 10
388.1066310479420736
 20
75.5478648550199239
 30
0.0
 40
0.0029134250305996
 50
38.0883413894577316
 51
72.7714080531760885
  0
ARC
  5
104A1
  8
0
 10
388.0914029202099869
 20
75.4987574872251059
 30
0.0
 40
0.0543277172649784
 50
72.7714080531760885
 51
79.4371001004965933
  0
ARC
  5
104A2
  8
0
 10
388.0839188598426972
 20
75.4586230536249047
 30
0.0
 40
0.0951539823401795
 50
79.4371001004965933
 51
84.8627852744888429
  0
LINE
  5
104A3
  8
0
 10
388.0924390640806223
 20
75.5533948135251734
 30
0.0
 11
388.1418917965805804
 21
75.5551271007252012
 31
0.0
  0
ARC
  5
104A4
  8
0
 10
388.1015544459252169
 20
75.5488141479571027
 30
0.0
 40
0.0016897610602344
 50
30.1194004555527499
 51
74.6861873347551892
  0
ARC
  5
104A5
  8
0
 10
388.0942196533900983
 20
75.5313623284648656
 30
0.0
 40
0.0206070824352748
 50
67.8153997311412411
 51
79.2120643690210926
  0
ARC
  5
104A6
  8
0
 10
388.0699324012787201
 20
75.4020400722457254
 30
0.0
 40
0.1521901367724951
 50
79.3430061894188157
 51
85.1193636257418262
  0
ARC
  5
104A7
  8
0
 10
388.0147785527825022
 20
74.7760835376142268
 30
0.0
 40
0.7805713654281444
 50
84.9947730877959771
 51
88.1109005839565356
  0
LINE
  5
104A8
  8
0
 10
388.0405101122805718
 20
75.556230666925174
 30
0.0
 11
388.0089871475827863
 21
75.5529179988254214
 31
0.0
  0
ARC
  5
104A9
  8
0
 10
387.9876756449850177
 20
75.0107382513802463
 30
0.0
 40
0.5425984322520212
 50
86.5712693003206653
 51
87.7490290305123182
  0
ARC
  5
104AA
  8
0
 10
388.0036548444846858
 20
75.2774397268870246
 30
0.0
 40
0.2754186952693167
 50
84.3001936119079716
 51
86.5712693003206653
  0
ARC
  5
104AB
  8
0
 10
388.0234062341497179
 20
75.4753298985543637
 30
0.0
 40
0.0765452746313953
 50
79.7116988578528094
 51
84.3001936119079716
  0
ARC
  5
104AC
  8
0
 10
388.0345744494514975
 20
75.5368560258607715
 30
0.0
 40
0.0140137355942572
 50
70.0612529128467543
 51
79.7116988578528094
  0
ARC
  5
104AD
  8
0
 10
388.0387035781851068
 20
75.5482385612862686
 30
0.0
 40
0.0019053989285387
 50
48.3394046333355689
 51
70.0612529128225106
  0
LINE
  5
104AE
  8
0
 10
388.0399701286806931
 20
75.5496620762735915
 30
0.0
 11
388.1030160580805841
 21
75.5496620762251894
 31
0.0
  0
LINE
  5
104AF
  8
0
 10
387.9609564222806171
 20
75.5509758459251941
 30
0.0
 11
387.9814137152806097
 21
75.5509758459251941
 31
0.0
  0
LINE
  5
104B0
  8
0
 10
387.9814137152806097
 20
75.5509758459251941
 30
0.0
 11
387.9992100069806042
 21
75.5528460128251993
 31
0.0
  0
LINE
  5
104B1
  8
0
 10
387.9992100069806042
 20
75.5528460128251993
 30
0.0
 11
387.9814137152806097
 21
75.5531935887251791
 31
0.0
  0
LINE
  5
104B2
  8
0
 10
387.9814137152806097
 20
75.5531935887251791
 30
0.0
 11
387.971185068780585
 21
75.5532450843251837
 31
0.0
  0
LINE
  5
104B3
  8
0
 10
387.9882328128811082
 20
75.5507369787252401
 30
0.0
 11
387.9984614593806214
 21
75.5518118811251895
 31
0.0
  0
LINE
  5
104B4
  8
0
 10
387.9984614593806214
 20
75.5518118811251895
 30
0.0
 11
388.0060291046805787
 21
75.5526071456251884
 31
0.0
  0
ARC
  5
104B5
  8
0
 10
387.9907126542537981
 20
75.148670637486731
 30
0.0
 40
0.4042267881533398
 50
85.6546405483245934
 51
87.8285009390299791
  0
ARC
  5
104B6
  8
0
 10
388.0135737163691942
 20
75.4416774883407584
 30
0.0
 40
0.1103316592656987
 50
80.9591080184536054
 51
85.963504448209676
  0
ARC
  5
104B7
  8
0
 10
388.0281965471232866
 20
75.5342477659732339
 30
0.0
 40
0.0166139454230578
 50
72.1040720207398067
 51
80.5960691003275258
  0
ARC
  5
104B8
  8
0
 10
388.0326022370791179
 20
75.5478155664773396
 30
0.0
 40
0.0023489015165665
 50
51.8240397087327835
 51
72.672195863858235
  0
LINE
  5
104B9
  8
0
 10
388.034054042880598
 20
75.5496620762251894
 30
0.0
 11
387.9984614593806214
 21
75.5496620762251894
 31
0.0
  0
ARC
  5
104BA
  8
0
 10
387.9959388861458933
 20
75.542367945172515
 30
0.0
 40
0.007718012926795
 50
70.922771315307628
 51
82.9755209785518417
  0
ARC
  5
104BB
  8
0
 10
387.9838792937105723
 20
75.4444961523410598
 30
0.0
 40
0.1063299878676972
 50
82.9755209785518417
 51
87.653455776423101
  0
LINE
  5
104BC
  8
0
 10
387.9984614593806214
 20
75.5496620762251894
 30
0.0
 11
387.9984614593806214
 21
75.5518118811251895
 31
0.0
  0
LINE
  5
104BD
  8
0
 10
388.0021680498805949
 20
75.5571984841251947
 30
0.0
 11
388.0021680498805949
 21
75.5531568660251764
 31
0.0
  0
LINE
  5
104BE
  8
0
 10
388.0155069820805807
 20
75.5647636213403757
 30
0.0
 11
388.0155069820805807
 21
75.5613049322251982
 31
0.0
  0
LINE
  5
104BF
  8
0
 10
388.0681499197805806
 20
75.563823706277276
 30
0.0
 11
388.0681499197805806
 21
75.5600907327252003
 31
0.0
  0
LINE
  5
104C0
  8
0
 10
388.1074862180806235
 20
75.5626699553443473
 30
0.0
 11
388.1074862180806235
 21
75.5583685276251913
 31
0.0
  0
LINE
  5
104C1
  8
0
 10
388.1430701251805999
 20
75.5591762470269828
 30
0.0
 11
388.1430701251805999
 21
75.5557200167251892
 31
0.0
  0
LINE
  5
104C2
  8
0
 10
388.1629436712805727
 20
75.5530352321251826
 30
0.0
 11
388.1629436712805727
 21
75.555864529946092
 31
0.0
  0
LINE
  5
104C3
  8
0
 10
388.1719338684806075
 20
75.5496620762251894
 30
0.0
 11
388.1719338684806075
 21
75.5521922124287073
 31
0.0
  0
LINE
  5
104C4
  8
0
 10
388.1089240898805883
 20
75.5496620762297653
 30
0.0
 11
388.1089240898805883
 21
75.5539722699718084
 31
0.0
  0
LINE
  5
104C5
  8
0
 10
388.0885020561805732
 20
75.5588626223251936
 30
0.0
 11
388.0885020561805732
 21
75.5538085436251947
 31
0.0
  0
LINE
  5
104C6
  8
0
 10
388.0366450304807131
 20
75.560552919038571
 30
0.0
 11
388.0366450304807131
 21
75.5567799641251838
 31
0.0
  0
LINE
  5
104C7
  8
0
 10
388.0399701286806931
 20
75.5631525232040815
 30
0.0
 11
388.0399701286806931
 21
75.5608186544191938
 31
0.0
  0
LINE
  5
104C8
  8
0
 10
387.9814137152806097
 20
75.5531935887251791
 30
0.0
 11
387.9814137152806097
 21
75.5509758459251941
 31
0.0
  0
LINE
  5
104C9
  8
0
 10
387.9751220766805773
 20
75.5337792307252016
 30
0.0
 11
387.9750965026465224
 21
75.5372431349118756
 31
0.0
  0
LINE
  5
104CA
  8
0
 10
387.9750965026465224
 20
75.5372431349118756
 30
0.0
 11
388.0155069820805807
 21
75.5375414858251872
 31
0.0
  0
LINE
  5
104CB
  8
0
 10
388.0155069820805807
 20
75.5375414858251872
 30
0.0
 11
388.0302909391805883
 21
75.5341939250251926
 31
0.0
  0
LINE
  5
104CC
  8
0
 10
388.0302909391805883
 20
75.5341939250251926
 30
0.0
 11
387.9751220766805773
 21
75.5337792307252016
 31
0.0
  0
LINE
  5
104CD
  8
0
 10
387.9751220766805773
 20
75.5376016955251828
 30
0.0
 11
387.9751220766805773
 21
75.5408321703783088
 31
0.0
  0
LINE
  5
104CE
  8
0
 10
387.9751220766805773
 20
75.5408321703783088
 30
0.0
 11
388.0366488934164977
 21
75.5418324170783819
 31
0.0
  0
LINE
  5
104CF
  8
0
 10
388.0366450304807131
 20
75.5420664539252016
 30
0.0
 11
388.0651965788806024
 21
75.5390660444251978
 31
0.0
  0
ARC
  5
104D0
  8
0
 10
387.9738439906566896
 20
78.3872662082083025
 30
0.0
 40
2.8496647992964701
 50
270.0256973864082966
 51
271.8370633138711128
  0
LINE
  5
104D1
  8
0
 10
388.0307184123806223
 20
75.5377887794251848
 30
0.0
 11
388.0455023694806869
 21
75.5344412185251883
 31
0.0
  0
LINE
  5
104D2
  8
0
 10
388.0966975001805963
 20
75.5357556928251768
 30
0.0
 11
388.0681499197805806
 21
75.5387556853251851
 31
0.0
  0
LINE
  5
104D3
  8
0
 10
388.0681499197805806
 20
75.5387556853251851
 30
0.0
 11
388.0307184123806223
 21
75.5377887794251848
 31
0.0
  0
LINE
  5
104D4
  8
0
 10
388.0455023694806869
 20
75.5344412185251883
 30
0.0
 11
388.0966975001805963
 21
75.5357556928251768
 31
0.0
  0
ARC
  5
104D5
  8
0
 10
387.9721980528155996
 20
77.5196402452358768
 30
0.0
 40
1.9782193468693829
 50
269.9706606284349846
 51
271.7813266479336107
  0
LINE
  5
104D6
  8
0
 10
388.0336910145805973
 20
75.5423768839251863
 30
0.0
 11
388.0021680498805949
 21
75.5456895520251805
 31
0.0
  0
LINE
  5
104D7
  8
0
 10
388.0021680498805949
 20
75.5456895520251805
 30
0.0
 11
387.971185068780585
 21
75.5452430329251854
 31
0.0
  0
LINE
  5
104D8
  8
0
 10
388.2290290292805821
 20
75.549184341825196
 30
0.0
 11
388.1719338684806075
 21
75.549184341825196
 31
0.0
  0
ARC
  5
104D9
  8
0
 10
388.1655020231614799
 20
75.5559310203665007
 30
0.0
 40
0.0093212823982749
 50
279.3696659939059259
 51
313.6314715860356728
  0
LINE
  5
104DA
  8
0
 10
388.1670195616806041
 20
75.5467340979251958
 30
0.0
 11
388.2221940408807086
 21
75.5458371217251852
 31
0.0
  0
ARC
  5
104DB
  8
0
 10
388.2181982295977036
 20
75.5651203942150858
 30
0.0
 40
0.0196929201930083
 50
281.7069445375929035
 51
300.7265619868804265
  0
ARC
  5
104DC
  8
0
 10
388.227385270862726
 20
75.5496639804295285
 30
0.0
 40
0.0017123069021664
 50
300.7265619868841782
 51
343.7330795307058793
  0
ARC
  5
104DD
  8
0
 10
388.1709177552306755
 20
75.7970259309618086
 30
0.0
 40
0.2564920998533635
 50
275.7135833505242886
 51
280.6041650198877733
  0
LINE
  5
104DE
  8
0
 10
388.1470071332441876
 20
75.5435401314194621
 30
0.0
 11
388.1629436712805727
 21
75.5458111859251744
 31
0.0
  0
LINE
  5
104DF
  8
0
 10
388.1629436712805727
 20
75.5458111859251744
 30
0.0
 11
388.218118150380576
 21
75.5449142097251922
 31
0.0
  0
LINE
  5
104E0
  8
0
 10
388.1470071339743981
 20
75.543540131523514
 30
0.0
 11
388.1964529926805767
 21
75.5418080849251652
 31
0.0
  0
LINE
  5
104E1
  8
0
 10
388.1925159847805844
 20
75.5413943548252007
 30
0.0
 11
388.1590122799805727
 21
75.5387029243251789
 31
0.0
  0
LINE
  5
104E2
  8
0
 10
388.1590122799805727
 20
75.5387029243251789
 30
0.0
 11
388.1186217579888194
 21
75.5411535089246797
 31
0.0
  0
LINE
  5
104E3
  8
0
 10
388.1186217579888194
 20
75.5411535089246797
 30
0.0
 11
388.1430701251805999
 21
75.5431264013251962
 31
0.0
  0
LINE
  5
104E4
  8
0
 10
388.1430701251805999
 20
75.5431264013251962
 30
0.0
 11
388.1925159847805844
 21
75.5413943548252007
 31
0.0
  0
LINE
  5
104E5
  8
0
 10
388.1478767400805054
 20
75.5380273058251817
 30
0.0
 11
388.1035165978806276
 21
75.5359945600251876
 31
0.0
  0
LINE
  5
104E6
  8
0
 10
388.1035165978806276
 20
75.5359945600251876
 30
0.0
 11
388.0749690174807256
 21
75.538994552525196
 31
0.0
  0
LINE
  5
104E7
  8
0
 10
388.0749690174807256
 20
75.538994552525196
 30
0.0
 11
388.1074862180806235
 21
75.5404778904251941
 31
0.0
  0
LINE
  5
104E8
  8
0
 10
388.1074862180806235
 20
75.5404778904251941
 30
0.0
 11
388.1478767400805054
 21
75.5380273058251817
 31
0.0
  0
LINE
  5
104E9
  8
0
 10
388.1379547886805881
 20
75.5433055872251771
 30
0.0
 11
388.0885020561805732
 21
75.5399837957251918
 31
0.0
  0
LINE
  5
104EA
  8
0
 10
388.0885020561805732
 20
75.5399837957251918
 30
0.0
 11
388.0720156765805768
 21
75.5393049116251802
 31
0.0
  0
LINE
  5
104EB
  8
0
 10
388.0720156765805768
 20
75.5393049116251802
 30
0.0
 11
388.0434641282524808
 21
75.5423053211176239
 31
0.0
  0
LINE
  5
104EC
  8
0
 10
388.0434641282524808
 20
75.5423053211176239
 30
0.0
 11
388.0885020561805732
 21
75.5450378744251907
 31
0.0
  0
LINE
  5
104ED
  8
0
 10
388.0885020561805732
 20
75.5450378744251907
 30
0.0
 11
388.1379547886805881
 21
75.5433055872251771
 31
0.0
  0
ARC
  5
104EE
  8
0
 10
388.1137454251476129
 20
75.8036932234690539
 30
0.0
 40
0.2614931167364627
 50
276.179124927698922
 51
278.4902172699009952
  0
ARC
  5
104EF
  8
0
 10
388.1386750570811159
 20
75.6366901114056702
 30
0.0
 40
0.0926395529979352
 50
278.4902172699009952
 51
284.8318754243352942
  0
ARC
  5
104F0
  8
0
 10
388.1596299790559783
 20
75.5575571974565605
 30
0.0
 40
0.0107791423890896
 50
284.8318754243318267
 51
302.7122295291214868
  0
ARC
  5
104F1
  8
0
 10
388.1646629271726852
 20
75.549721254600172
 30
0.0
 40
0.001466110273024
 50
302.7122295291060823
 51
338.5175745251054877
  0
LINE
  5
104F2
  8
0
 10
388.1660271866805942
 20
75.549184341825196
 30
0.0
 11
388.1089240898805883
 21
75.5491843418206201
 31
0.0
  0
ARC
  5
104F3
  8
0
 10
388.1066310479420736
 20
75.5509815630304615
 30
0.0
 40
0.0029134250305996
 50
287.2285919468238831
 51
321.9116586105421902
  0
ARC
  5
104F4
  8
0
 10
388.0914029202099869
 20
75.6000889308252795
 30
0.0
 40
0.0543277172649784
 50
280.5628998995034067
 51
287.2285919468238831
  0
ARC
  5
104F5
  8
0
 10
388.0839188598426972
 20
75.6402233644254807
 30
0.0
 40
0.0951539823401795
 50
275.1372147255112282
 51
280.5628998995034067
  0
LINE
  5
104F6
  8
0
 10
388.0924390640806223
 20
75.5454516045251836
 30
0.0
 11
388.1418917965805804
 21
75.5437193173251842
 31
0.0
  0
ARC
  5
104F7
  8
0
 10
388.1015544459252169
 20
75.5500322700932827
 30
0.0
 40
0.0016897610602344
 50
285.313812665244825
 51
329.8805995444471932
  0
ARC
  5
104F8
  8
0
 10
388.0942196533900983
 20
75.5674840895854913
 30
0.0
 40
0.0206070824352748
 50
280.7879356309788932
 51
292.1846002688587873
  0
ARC
  5
104F9
  8
0
 10
388.0699324012787201
 20
75.6968063458046032
 30
0.0
 40
0.1521901367724951
 50
274.880636374258188
 51
280.6569938105778874
  0
ARC
  5
104FA
  8
0
 10
388.0147785527825022
 20
76.3227628804361586
 30
0.0
 40
0.7805713654281444
 50
271.8890994160433934
 51
275.0052269122040229
  0
LINE
  5
104FB
  8
0
 10
388.0405101122805718
 20
75.542615751125183
 30
0.0
 11
388.0089871475827863
 21
75.545928419224964
 31
0.0
  0
ARC
  5
104FC
  8
0
 10
387.9876756449850177
 20
76.0881081666701391
 30
0.0
 40
0.5425984322520212
 50
272.2509709694875824
 51
273.42873069967942
  0
ARC
  5
104FD
  8
0
 10
388.0036548444846858
 20
75.8214066911633608
 30
0.0
 40
0.2754186952693167
 50
273.42873069967942
 51
275.6998063880919858
  0
ARC
  5
104FE
  8
0
 10
388.0234062341497179
 20
75.6235165194960075
 30
0.0
 40
0.0765452746313953
 50
275.6998063880919858
 51
280.2883011421471906
  0
ARC
  5
104FF
  8
0
 10
388.0345744494514975
 20
75.5619903921896139
 30
0.0
 40
0.0140137355942572
 50
280.2883011421471906
 51
289.9387470871532173
  0
ARC
  5
10500
  8
0
 10
388.0387035781851068
 20
75.5506078567641168
 30
0.0
 40
0.0019053989285387
 50
289.9387470871774894
 51
311.6605953666643813
  0
LINE
  5
10501
  8
0
 10
388.0399701286806931
 20
75.5491843417767939
 30
0.0
 11
388.1030160580805841
 21
75.549184341825196
 31
0.0
  0
LINE
  5
10502
  8
0
 10
387.9609564222806171
 20
75.5478705721251913
 30
0.0
 11
387.9814137152806097
 21
75.5478705721251913
 31
0.0
  0
LINE
  5
10503
  8
0
 10
387.9814137152806097
 20
75.5478705721251913
 30
0.0
 11
387.9992100069806042
 21
75.5460004052251861
 31
0.0
  0
LINE
  5
10504
  8
0
 10
387.9992100069806042
 20
75.5460004052251861
 30
0.0
 11
387.9814137152806097
 21
75.5456528293251779
 31
0.0
  0
LINE
  5
10505
  8
0
 10
387.9814137152806097
 20
75.5456528293251779
 30
0.0
 11
387.971185068780585
 21
75.5456013337251733
 31
0.0
  0
LINE
  5
10506
  8
0
 10
387.9882328128811082
 20
75.5481094393251453
 30
0.0
 11
387.9984614593806214
 21
75.5470345369251959
 31
0.0
  0
LINE
  5
10507
  8
0
 10
387.9984614593806214
 20
75.5470345369251959
 30
0.0
 11
388.0060291046805787
 21
75.546239272425197
 31
0.0
  0
ARC
  5
10508
  8
0
 10
387.9907126542537981
 20
75.9501757805636544
 30
0.0
 40
0.4042267881533398
 50
272.1714990609700067
 51
274.3453594516753924
  0
ARC
  5
10509
  8
0
 10
388.0135737163691942
 20
75.657168929709627
 30
0.0
 40
0.1103316592656987
 50
274.036495551790324
 51
279.0408919815463946
  0
ARC
  5
1050A
  8
0
 10
388.0281965471232866
 20
75.5645986520771089
 30
0.0
 40
0.0166139454230578
 50
279.4039308996725026
 51
287.8959279792601933
  0
ARC
  5
1050B
  8
0
 10
388.0326022370791179
 20
75.5510308515730458
 30
0.0
 40
0.0023489015165665
 50
287.3278041361418218
 51
308.1759602912673017
  0
LINE
  5
1050C
  8
0
 10
388.034054042880598
 20
75.549184341825196
 30
0.0
 11
387.9984614593806214
 21
75.549184341825196
 31
0.0
  0
ARC
  5
1050D
  8
0
 10
387.9959388861458933
 20
75.5564784728778704
 30
0.0
 40
0.007718012926795
 50
277.0244790214480872
 51
289.0772286846923862
  0
ARC
  5
1050E
  8
0
 10
387.9838792937105723
 20
75.6543502657092972
 30
0.0
 40
0.1063299878676972
 50
272.3465442235769274
 51
277.0244790214480872
  0
LINE
  5
1050F
  8
0
 10
387.9984614593806214
 20
75.549184341825196
 30
0.0
 11
387.9984614593806214
 21
75.5470345369251959
 31
0.0
  0
LINE
  5
10510
  8
0
 10
388.0021680498805949
 20
75.5416479339251907
 30
0.0
 11
388.0021680498805949
 21
75.5456895520251805
 31
0.0
  0
LINE
  5
10511
  8
0
 10
388.0155069820805807
 20
75.5340827967099813
 30
0.0
 11
388.0155069820805807
 21
75.5375414858251872
 31
0.0
  0
LINE
  5
10512
  8
0
 10
388.0681499197805806
 20
75.535022711773081
 30
0.0
 11
388.0681499197805806
 21
75.5387556853251851
 31
0.0
  0
LINE
  5
10513
  8
0
 10
388.1074862180806235
 20
75.5361764627060381
 30
0.0
 11
388.1074862180806235
 21
75.5404778904251941
 31
0.0
  0
LINE
  5
10514
  8
0
 10
388.1430701251805999
 20
75.5396701710234026
 30
0.0
 11
388.1430701251805999
 21
75.5431264013251962
 31
0.0
  0
LINE
  5
10515
  8
0
 10
388.1629436712805727
 20
75.5458111859251744
 30
0.0
 11
388.1629436712805727
 21
75.5429818881042934
 31
0.0
  0
LINE
  5
10516
  8
0
 10
388.1719338684806075
 20
75.549184341825196
 30
0.0
 11
388.1719338684806075
 21
75.5466542056216497
 31
0.0
  0
LINE
  5
10517
  8
0
 10
388.1089240898805883
 20
75.5491843418206201
 30
0.0
 11
388.1089240898805883
 21
75.544874148078577
 31
0.0
  0
LINE
  5
10518
  8
0
 10
388.0885020561805732
 20
75.5399837957251918
 30
0.0
 11
388.0885020561805732
 21
75.5450378744251907
 31
0.0
  0
LINE
  5
10519
  8
0
 10
388.0366450304807131
 20
75.5382934990118144
 30
0.0
 11
388.0366450304807131
 21
75.5420664539252016
 31
0.0
  0
LINE
  5
1051A
  8
0
 10
388.0399701286806931
 20
75.5356938948463039
 30
0.0
 11
388.0399701286806931
 21
75.5380277636311916
 31
0.0
  0
LINE
  5
1051B
  8
0
 10
387.9814137152806097
 20
75.5456528293251779
 30
0.0
 11
387.9814137152806097
 21
75.5478705721251913
 31
0.0
  0
LINE
  5
1051C
  8
0
 10
388.977120658131696
 20
67.5277877324439828
 30
0.0
 11
386.9649959917296087
 21
67.5277877324439828
 31
0.0
  0
LINE
  5
1051D
  8
0
 10
388.2710251928750154
 20
77.4760047244939756
 30
0.0
 11
387.6713449446862114
 21
77.4760047244939756
 31
0.0
  0
LINE
  5
1051E
  8
0
 10
388.977120658131696
 20
67.5277877324439828
 30
0.0
 11
388.977120658131696
 21
74.2701034054275055
 31
0.0
  0
LINE
  5
1051F
  8
0
 10
386.9649959917296087
 20
67.5277877324439828
 30
0.0
 11
386.9649959917296087
 21
74.2590430880253649
 31
0.0
  0
ARC
  5
10957
  8
0
 10
388.4674678173590792
 20
76.2072947402092069
 30
0.0
 40
0.1948010357202439
 50
21.4533532321043694
 51
46.7624507199080526
  0
ARC
  5
10958
  8
0
 10
387.4274404845347135
 20
76.2337863483318614
 30
0.0
 40
0.1512934832526361
 50
132.4230631002843097
 51
165.5024331395972013
  0
ENDSEC
  0
EOF
