  0
SECTION
  2
HEADER
  9
$ACADVER
  1
AC1009
  9
$INSBASE
 10
4450.3367601200898207
 20
268.5145805917625808
 30
0.0
  9
$EXTMIN
 10
4443.3833691150766754
 20
268.4984852350377196
 30
-0.0000000349181948
  9
$EXTMAX
 10
4451.569154126000285
 20
278.481736319546485
 30
0.0000000814935746
  9
$LIMMIN
 10
0.0
 20
0.0
  9
$LIMMAX
 10
11.6929133858000007
 20
8.2677165353999982
  9
$ORTHOMODE
 70
     0
  9
$REGENMODE
 70
     1
  9
$FILLMODE
 70
     1
  9
$QTEXTMODE
 70
     0
  9
$MIRRTEXT
 70
     0
  9
$DRAGMODE
 70
     2
  9
$LTSCALE
 40
0.6431102362
  9
$OSMODE
 70
   575
  9
$ATTMODE
 70
     1
  9
$TEXTSIZE
 40
0.2
  9
$TRACEWID
 40
0.05
  9
$TEXTSTYLE
  7
STANDARD
  9
$CLAYER
  8
0
  9
$CELTYPE
  6
BYLAYER
  9
$CECOLOR
 62
   256
  9
$DIMSCALE
 40
1.0
  9
$DIMASZ
 40
0.1875
  9
$DIMEXO
 40
0.0625
  9
$DIMDLI
 40
0.4443307087
  9
$DIMRND
 40
0.0
  9
$DIMDLE
 40
0.0
  9
$DIMEXE
 40
0.125
  9
$DIMTP
 40
0.01
  9
$DIMTM
 40
0.01
  9
$DIMTXT
 40
2.0
  9
$DIMCEN
 40
0.1052362205
  9
$DIMTSZ
 40
0.0
  9
$DIMTOL
 70
     1
  9
$DIMLIM
 70
     0
  9
$DIMTIH
 70
     1
  9
$DIMTOH
 70
     1
  9
$DIMSE1
 70
     0
  9
$DIMSE2
 70
     0
  9
$DIMTAD
 70
     0
  9
$DIMZIN
 70
     0
  9
$DIMBLK
  1

  9
$DIMASO
 70
     1
  9
$DIMSHO
 70
     1
  9
$DIMPOST
  1
\X
  9
$DIMAPOST
  1

  9
$DIMALT
 70
     1
  9
$DIMALTD
 70
     2
  9
$DIMALTF
 40
25.3999999999999986
  9
$DIMLFAC
 40
1.0
  9
$DIMTOFL
 70
     0
  9
$DIMTVP
 40
0.0
  9
$DIMTIX
 70
     0
  9
$DIMSOXD
 70
     0
  9
$DIMSAH
 70
     0
  9
$DIMBLK1
  1

  9
$DIMBLK2
  1

  9
$DIMSTYLE
  2
STANDARD
  9
$DIMCLRD
 70
     0
  9
$DIMCLRE
 70
     0
  9
$DIMCLRT
 70
     0
  9
$DIMTFAC
 40
1.0
  9
$DIMGAP
 40
0.09
  9
$LUNITS
 70
     2
  9
$LUPREC
 70
     4
  9
$SKETCHINC
 40
0.1
  9
$FILLETRAD
 40
0.0
  9
$AUNITS
 70
     0
  9
$AUPREC
 70
     0
  9
$MENU
  1
.
  9
$ELEVATION
 40
0.0
  9
$PELEVATION
 40
0.0
  9
$THICKNESS
 40
0.0
  9
$LIMCHECK
 70
     0
  9
$BLIPMODE
 70
     0
  9
$CHAMFERA
 40
0.0
  9
$CHAMFERB
 40
0.0
  9
$SKPOLY
 70
     0
  9
$TDCREATE
 40
2458060.468368056230247
  9
$TDUPDATE
 40
2459436.8066550930961967
  9
$TDINDWG
 40
0.5366737269
  9
$TDUSRTIMER
 40
0.5366737269
  9
$USRTIMER
 70
     1
  9
$ANGBASE
 50
0.0
  9
$ANGDIR
 70
     0
  9
$PDMODE
 70
     0
  9
$PDSIZE
 40
0.3125
  9
$PLINEWID
 40
0.0
  9
$COORDS
 70
     2
  9
$SPLFRAME
 70
     0
  9
$SPLINETYPE
 70
     6
  9
$SPLINESEGS
 70
     8
  9
$ATTDIA
 70
     1
  9
$ATTREQ
 70
     1
  9
$HANDLING
 70
     1
  9
$HANDSEED
  5
242D7
  9
$SURFTAB1
 70
     6
  9
$SURFTAB2
 70
     6
  9
$SURFTYPE
 70
     6
  9
$SURFU
 70
     6
  9
$SURFV
 70
     6
  9
$UCSNAME
  2

  9
$UCSORG
 10
0.0
 20
0.0
 30
0.0
  9
$UCSXDIR
 10
1.0
 20
0.0
 30
0.0
  9
$UCSYDIR
 10
0.0
 20
1.0
 30
0.0
  9
$PUCSNAME
  2

  9
$PUCSORG
 10
0.0
 20
0.0
 30
0.0
  9
$PUCSXDIR
 10
1.0
 20
0.0
 30
0.0
  9
$PUCSYDIR
 10
0.0
 20
1.0
 30
0.0
  9
$USERI1
 70
     0
  9
$USERI2
 70
     0
  9
$USERI3
 70
     0
  9
$USERI4
 70
     0
  9
$USERI5
 70
     0
  9
$USERR1
 40
0.0
  9
$USERR2
 40
0.0
  9
$USERR3
 40
0.0
  9
$USERR4
 40
0.0
  9
$USERR5
 40
0.0
  9
$WORLDVIEW
 70
     1
  9
$SHADEDGE
 70
     3
  9
$SHADEDIF
 70
    70
  9
$TILEMODE
 70
     1
  9
$MAXACTVP
 70
    64
  9
$PLIMCHECK
 70
     0
  9
$PEXTMIN
 10
1.0000000000000000E+20
 20
1.0000000000000000E+20
 30
1.0000000000000000E+20
  9
$PEXTMAX
 10
-1.0000000000000000E+20
 20
-1.0000000000000000E+20
 30
-1.0000000000000000E+20
  9
$PLIMMIN
 10
0.0
 20
0.0
  9
$PLIMMAX
 10
12.0
 20
9.0
  9
$UNITMODE
 70
     0
  9
$VISRETAIN
 70
     1
  9
$PLINEGEN
 70
     0
  9
$PSLTSCALE
 70
     1
  0
ENDSEC
  0
SECTION
  2
TABLES
  0
TABLE
  2
VPORT
 70
     1
  0
VPORT
  2
*ACTIVE
 70
     0
 10
0.0
 20
0.0
 11
1.0
 21
1.0
 12
536.110905095862563
 22
140.9105056601140973
 13
0.0
 23
0.0
 14
1.0
 24
1.0
 15
0.0
 25
0.0
 16
0.0
 26
0.0
 36
60.4960186965801583
 17
3911.3653564453120453
 27
132.5796051025390057
 37
0.0
 40
16.3268940961055691
 41
2.5310015898251188
 42
50.0
 43
0.0
 44
0.0
 50
0.0
 51
0.0
 71
     0
 72
   100
 73
     1
 74
     1
 75
     0
 76
     0
 77
     0
 78
     0
  0
ENDTAB
  0
TABLE
  2
LTYPE
 70
     2
  0
LTYPE
  2
CONTINUOUS
 70
     0
  3
Solid line
 72
    65
 73
     0
 40
0.0
  0
LTYPE
  2
PHANTOM2
 70
     0
  3
___ _ _ ___ _ _ ___ _ _ ___ _ _
 72
    65
 73
     6
 40
1.25
 49
0.625
 49
-0.125
 49
0.125
 49
-0.125
 49
0.125
 49
-0.125
  0
ENDTAB
  0
TABLE
  2
LAYER
 70
     2
  0
LAYER
  2
0
 70
     0
 62
   255
  6
CONTINUOUS
  0
LAYER
  2
DEFPOINTS
 70
     0
 62
     7
  6
CONTINUOUS
  0
ENDTAB
  0
TABLE
  2
STYLE
 70
     1
  0
STYLE
  2
STANDARD
 70
     0
 40
0.0
 41
0.8
 50
0.0
 71
     0
 42
0.2
  3
txt
  4

  0
ENDTAB
  0
TABLE
  2
VIEW
 70
     0
  0
ENDTAB
  0
TABLE
  2
UCS
 70
     0
  0
ENDTAB
  0
TABLE
  2
APPID
 70
    11
  0
APPID
  2
ACAD
 70
     0
  0
APPID
  2
ACAD_MLEADERVER
 70
     0
  0
APPID
  2
ACAD_EXEMPT_FROM_CAD_STANDARDS
 70
     0
  0
APPID
  2
ACAD_NAV_VCDISPLAY
 70
     0
  0
APPID
  2
ACAECLAYERSTANDARD
 70
     0
  0
APPID
  2
ACCMTRANSPARENCY
 70
     0
  0
APPID
  2
ACAD_DSTYLE_DIMJAG
 70
     0
  0
APPID
  2
ACAD_DSTYLE_DIMTALN
 70
     0
  0
APPID
  2
ACDBATTR
 70
     0
  0
APPID
  2
ACADANNOTATIVE
 70
     0
  0
APPID
  2
DCO15
 70
     0
  0
ENDTAB
  0
TABLE
  2
DIMSTYLE
 70
     1
  0
DIMSTYLE
  2
STANDARD
 70
     0
  3

  4

  5

  6

  7

 40
1.0
 41
0.1875
 42
0.0625
 43
0.38
 44
0.125
 45
0.0
 46
0.0
 47
0.01
 48
0.01
140
0.15625
141
0.09
142
0.0
143
25.3999999999999986
144
1.0
145
0.0
146
1.0
147
0.09
 71
     1
 72
     0
 73
     1
 74
     1
 75
     0
 76
     0
 77
     0
 78
     4
170
     0
171
     2
172
     0
173
     0
174
     0
175
     0
176
     0
177
     0
178
     0
  0
ENDTAB
  0
ENDSEC
  0
SECTION
  2
BLOCKS
  0
BLOCK
  8
0
  2
$MODEL_SPACE
 70
     0
 10
0.0
 20
0.0
 30
0.0
  3
$MODEL_SPACE
  1

  0
ENDBLK
  5
21
  8
0
  0
BLOCK
 67
     1
  8
0
  2
$PAPER_SPACE
 70
     0
 10
0.0
 20
0.0
 30
0.0
  3
$PAPER_SPACE
  1

  0
ENDBLK
  5
1D
 67
     1
  8
0
  0
BLOCK
  8
0
  2
_FILLED
 70
     0
 10
0.0
 20
0.0
 30
0.0
  3
_FILLED
  1

  0
SOLID
  5
24127
  8
0
  6
BYBLOCK
 62
     0
 10
0.0
 20
0.0
 30
0.0
 11
-1.0
 21
0.1666666667
 31
0.0
 12
-1.0
 22
-0.1666666667
 32
0.0
 13
-1.0
 23
-0.1666666667
 33
0.0
  0
ENDBLK
  5
24128
  8
0
  6
BYBLOCK
 62
     0
  0
ENDSEC
  0
SECTION
  2
ENTITIES
  0
ATTDEF
  5
20106
  8
DEFPOINTS
 10
4450.3368254748629624
 20
268.5133725441268098
 30
0.0
 40
0.001
  1
K-97347D-ND
  3

  2
MODELNUMBER
 70
     0
1001
ACDBATTR
1070
     0
1070
     1
  0
ATTDEF
  5
20107
  8
DEFPOINTS
 10
4450.3366996652057423
 20
268.5117057037476798
 30
0.0
 40
0.001
  1
AVID
  3

  2
TRADENAME
 70
     0
1001
ACDBATTR
1070
     0
1070
     1
  0
ATTDEF
  5
20108
  8
DEFPOINTS
 10
4450.3368254748629624
 20
268.5100392107934795
 30
0.0
 40
0.001
  1
BATHROOM SINK FAUCET
  3

  2
PRODUCT
 70
     0
1001
ACDBATTR
1070
     0
1070
     1
  0
LINE
  5
241CA
  8
0
 10
4449.3328231122386569
 20
268.5145805917625808
 30
0.0
 11
4451.340697127940075
 21
268.5145805917625808
 31
0.0
  0
LINE
  5
241CB
  8
0
 10
4443.8656311827398895
 20
278.4367660960626267
 30
0.0
 11
4443.855873954839808
 21
278.3813833084626026
 31
0.0
  0
LINE
  5
241CC
  8
0
 10
4443.5402447327396658
 20
276.9734568096625935
 30
0.0
 11
4443.5366971279399877
 21
276.7773662347694881
 31
0.0
  0
LINE
  5
241CD
  8
0
 10
4450.9733365532383687
 20
277.1190791919626122
 30
0.0
 11
4450.9611518072397303
 21
277.100368640462591
 31
0.0
  0
LINE
  5
241CE
  8
0
 10
4449.3328020888384344
 20
274.7135878416626156
 30
0.0
 11
4449.3328231122386569
 21
268.5145805917625808
 31
0.0
  0
LINE
  5
241CF
  8
0
 10
4444.212343365338711
 20
276.5532936313625783
 30
0.0
 11
4444.7742983139396529
 21
276.5191356213625795
 31
0.0
  0
LINE
  5
241D0
  8
0
 10
4444.1448979784736366
 20
276.6441672820606072
 30
0.0
 11
4444.8522538577353771
 21
276.6011711855629187
 31
0.0
  0
LINE
  5
241D1
  8
0
 10
4443.9718920443392562
 20
276.7059588831626229
 30
0.0
 11
4445.031522582238722
 21
276.6415500359626094
 31
0.0
  0
LINE
  5
241D2
  8
0
 10
4445.3977106169395483
 20
276.6473423039626027
 30
0.0
 11
4447.7096124734398472
 21
276.5235637295626248
 31
0.0
  0
LINE
  5
241D3
  8
0
 10
4449.2179752734400608
 20
277.2216737829626254
 30
0.0
 11
4444.0487724833392349
 21
277.3119024274625986
 31
0.0
  0
LINE
  5
241D4
  8
0
 10
4451.340697127940075
 20
274.9057254428626038
 30
0.0
 11
4451.340697127940075
 21
268.5145805917625808
 31
0.0
  0
LINE
  5
241D5
  8
0
 10
4443.8654746071042609
 20
278.3676989727377986
 30
0.0
 11
4451.0923626608400809
 21
277.1060388739626887
 31
0.0
  0
LINE
  5
241D6
  8
0
 10
4451.0777958600392594
 20
276.9616226412625792
 30
0.0
 11
4449.9456292615395796
 21
277.161254476962597
 31
0.0
  0
LINE
  5
241D7
  8
0
 10
4443.9010301914386218
 20
278.4624912595626256
 30
0.0
 11
4450.8189377468397652
 21
277.4902427572625925
 31
0.0
  0
ARC
  5
241D8
  8
0
 10
4444.7592915207387705
 20
276.7831686085626188
 30
0.0
 40
0.6299212598000001
 50
187.9524279245239882
 51
192.7480714806301023
  0
ARC
  5
241D9
  8
0
 10
4444.2592196118393986
 20
276.813565104362624
 30
0.0
 40
0.6299212598000001
 50
340.2951259688451842
 51
345.0907695353595273
  0
ARC
  5
241DA
  8
0
 10
4444.333374196038676
 20
276.6540487186626933
 30
0.0
 40
0.157480315
 50
184.294417991501291
 51
219.7765203056036114
  0
ARC
  5
241DB
  8
0
 10
4444.6663620983399596
 20
276.6338082988626184
 30
0.0
 40
0.157480315
 50
313.2666771487084816
 51
348.7487794344839926
  0
ARC
  5
241DC
  8
0
 10
4443.8966495370450502
 20
278.4313013274154969
 30
0.0
 40
0.0314960632501499
 50
82.0050524998004988
 51
170.0082482898683054
  0
ARC
  5
241DD
  8
0
 10
4443.8675058379385518
 20
278.3793340223626274
 30
0.0
 40
0.0118110236
 50
170.008255888297299
 51
260.0971823891005101
  0
ARC
  5
241DE
  8
0
 10
4449.9738910519690762
 20
277.1541320419200929
 30
0.0
 40
0.4131132271680114
 50
149.5157921247219122
 51
173.0070745795489131
  0
ARC
  5
241DF
  8
0
 10
4450.8410473176400046
 20
276.9832632750624839
 30
0.0
 40
0.1991499560235834
 50
28.9168966718411404
 51
43.3990138556572802
  0
ARC
  5
241E0
  8
0
 10
4450.8429673202663253
 20
276.9845051498684256
 30
0.0
 40
0.1968689026522564
 50
355.316891544435407
 51
28.8707264959458314
  0
ARC
  5
241E1
  8
0
 10
4451.0944117783692491
 20
277.1176707965395281
 30
0.0
 40
0.0118110332096742
 50
260.009097296034497
 51
26.9533817154722009
  0
ARC
  5
241E2
  8
0
 10
4450.9799347280131769
 20
277.1147821920944807
 30
0.0
 40
0.0078740153803951
 50
42.4253557538956727
 51
146.9261881247601025
  0
ARC
  5
241E3
  8
0
 10
4443.263373196901739
 20
274.6808594468224101
 30
0.0
 40
6.0695171325323427
 50
0.3089550521240759
 51
8.1422280494214867
  0
ARC
  5
241E4
  8
0
 10
4448.0765552805069092
 20
275.3167081457784775
 30
0.0
 40
1.2159217413210719
 50
10.6053587940484295
 51
49.2075428920793101
  0
ARC
  5
241E5
  8
0
 10
4448.1764636085135862
 20
275.2931417920905801
 30
0.0
 40
1.172032006177063
 50
53.6623579052456421
 51
80.6427648053324191
  0
ARC
  5
241E6
  8
0
 10
4447.5193980523526989
 20
271.8755981462904856
 30
0.0
 40
4.6518561445159392
 50
79.5013495213506332
 51
87.6565219323270242
  0
ARC
  5
241E7
  8
0
 10
4445.2608695969838664
 20
273.7203248732387237
 30
0.0
 40
2.9302144127186511
 50
87.3233134337411059
 51
94.4891151802343359
  0
ARC
  5
241E8
  8
0
 10
4443.7651198746652881
 20
275.8870469946438106
 30
0.0
 40
0.8446131725880769
 50
75.8292251592481961
 51
86.0110474411908967
  0
ARC
  5
241E9
  8
0
 10
4443.3753051021749343
 20
271.5163704176288775
 30
0.0
 40
5.2325064823820711
 50
85.082141373370817
 51
87.904543717341781
  0
ARC
  5
241EA
  8
0
 10
4443.5688716386166561
 20
276.777474335029126
 30
0.0
 40
0.0321746922751538
 50
180.1925022386685953
 51
266.0029017066140113
  0
ARC
  5
241EB
  8
0
 10
4443.901651129851416
 20
276.9641569870814806
 30
0.0
 40
0.3615260302845347
 50
146.5155536117001986
 51
178.5259723459942904
  0
ARC
  5
241EC
  8
0
 10
4443.876542583077935
 20
276.9902079432127948
 30
0.0
 40
0.3263070541963034
 50
113.4943831029640933
 51
147.8984079484494885
  0
ARC
  5
241ED
  8
0
 10
4443.8896629282771755
 20
276.8684585733765857
 30
0.0
 40
0.4446946310194722
 50
89.3335173243598319
 51
108.785821036895598
  0
ARC
  5
241EE
  8
0
 10
4443.9405560696859538
 20
273.3719445440947879
 30
0.0
 40
3.9414437602097561
 50
88.4266874214490457
 51
90.6646413181907747
  0
ARC
  5
241EF
  8
0
 10
4449.1068174189877027
 20
271.4710306761307947
 30
0.0
 40
5.7517173270909359
 50
81.6142626647674234
 51
88.8926311774284841
  0
ARC
  5
241F0
  8
0
 10
4437.0958157121913246
 20
274.8949214961925236
 30
0.0
 40
14.2448855128428402
 50
0.0434556392229845
 51
4.9514700226923427
  0
ARC
  5
241F1
  8
0
 10
4447.6035204949739637
 20
275.7834199203227854
 30
0.0
 40
3.6997697438569199
 50
5.2884161805363679
 51
12.7445046737877998
  0
ARC
  5
241F2
  8
0
 10
4449.0385214938487479
 20
276.0874968335875224
 30
0.0
 40
2.2331310162695708
 50
13.2571742685794902
 51
22.5303844151219899
  0
ARC
  5
241F3
  8
0
 10
4451.0723170042792844
 20
276.930584189780177
 30
0.0
 40
0.0315183015225266
 50
23.5415834077490089
 51
79.9893671833711153
  0
ARC
  5
241F4
  8
0
 10
4451.1114832726443638
 20
277.2816427189756041
 30
0.0
 40
0.2354991317002613
 50
218.5595225605925975
 51
230.3309191349418938
  0
ARC
  5
241F5
  8
0
 10
4450.8145483716252784
 20
277.4590307760886958
 30
0.0
 40
0.0315191114020504
 50
47.0168192450158102
 51
81.9949284722850962
  0
ARC
  5
241F6
  8
0
 10
4449.6841293504467103
 20
276.3392057538711128
 30
0.0
 40
1.6226749586199141
 50
28.8842052328764503
 51
44.7746600623165421
  0
ENDSEC
  0
EOF
