  0
SECTION
  2
HEADER
  9
$ACADVER
  1
AC1009
  9
$INSBASE
 10
475.5252910129207748
 20
56.7115651005147328
 30
0.0
  9
$EXTMIN
 10
463.833727564861988
 20
53.1874574723606273
 30
0.0
  9
$EXTMAX
 10
478.9479136687297114
 20
62.1479845989672981
 30
0.0
  9
$LIMMIN
 10
0.0
 20
0.0
  9
$LIMMAX
 10
11.6929133858000007
 20
8.2677165353999982
  9
$ORTHOMODE
 70
     0
  9
$REGENMODE
 70
     1
  9
$FILLMODE
 70
     1
  9
$QTEXTMODE
 70
     0
  9
$MIRRTEXT
 70
     0
  9
$DRAGMODE
 70
     2
  9
$LTSCALE
 40
0.6431102362
  9
$OSMODE
 70
  4095
  9
$ATTMODE
 70
     1
  9
$TEXTSIZE
 40
0.2
  9
$TRACEWID
 40
0.05
  9
$TEXTSTYLE
  7
STANDARD
  9
$CLAYER
  8
0
  9
$CELTYPE
  6
BYLAYER
  9
$CECOLOR
 62
   256
  9
$DIMSCALE
 40
1.0
  9
$DIMASZ
 40
0.1875
  9
$DIMEXO
 40
0.0625
  9
$DIMDLI
 40
0.4443307087
  9
$DIMRND
 40
0.0
  9
$DIMDLE
 40
0.0
  9
$DIMEXE
 40
0.125
  9
$DIMTP
 40
0.01
  9
$DIMTM
 40
0.01
  9
$DIMTXT
 40
1.0
  9
$DIMCEN
 40
0.1052362205
  9
$DIMTSZ
 40
0.0
  9
$DIMTOL
 70
     1
  9
$DIMLIM
 70
     0
  9
$DIMTIH
 70
     0
  9
$DIMTOH
 70
     1
  9
$DIMSE1
 70
     0
  9
$DIMSE2
 70
     0
  9
$DIMTAD
 70
     0
  9
$DIMZIN
 70
     0
  9
$DIMBLK
  1

  9
$DIMASO
 70
     1
  9
$DIMSHO
 70
     1
  9
$DIMPOST
  1
\X
  9
$DIMAPOST
  1

  9
$DIMALT
 70
     1
  9
$DIMALTD
 70
     2
  9
$DIMALTF
 40
25.3999999999999986
  9
$DIMLFAC
 40
1.0
  9
$DIMTOFL
 70
     0
  9
$DIMTVP
 40
0.0
  9
$DIMTIX
 70
     0
  9
$DIMSOXD
 70
     0
  9
$DIMSAH
 70
     0
  9
$DIMBLK1
  1

  9
$DIMBLK2
  1

  9
$DIMSTYLE
  2
STANDARD
  9
$DIMCLRD
 70
     0
  9
$DIMCLRE
 70
     0
  9
$DIMCLRT
 70
     0
  9
$DIMTFAC
 40
1.0
  9
$DIMGAP
 40
0.09
  9
$LUNITS
 70
     2
  9
$LUPREC
 70
     4
  9
$SKETCHINC
 40
0.1
  9
$FILLETRAD
 40
0.0
  9
$AUNITS
 70
     0
  9
$AUPREC
 70
     0
  9
$MENU
  1
.
  9
$ELEVATION
 40
0.0
  9
$PELEVATION
 40
0.0
  9
$THICKNESS
 40
0.0
  9
$LIMCHECK
 70
     0
  9
$BLIPMODE
 70
     0
  9
$CHAMFERA
 40
0.0
  9
$CHAMFERB
 40
0.0
  9
$SKPOLY
 70
     0
  9
$TDCREATE
 40
2458172.5207638889551163
  9
$TDUPDATE
 40
2459113.0632291669026017
  9
$TDINDWG
 40
0.2742911806
  9
$TDUSRTIMER
 40
0.2742911806
  9
$USRTIMER
 70
     1
  9
$ANGBASE
 50
0.0
  9
$ANGDIR
 70
     0
  9
$PDMODE
 70
     0
  9
$PDSIZE
 40
0.3125
  9
$PLINEWID
 40
0.0
  9
$COORDS
 70
     1
  9
$SPLFRAME
 70
     0
  9
$SPLINETYPE
 70
     6
  9
$SPLINESEGS
 70
     8
  9
$ATTDIA
 70
     1
  9
$ATTREQ
 70
     1
  9
$HANDLING
 70
     1
  9
$HANDSEED
  5
EB52
  9
$SURFTAB1
 70
     6
  9
$SURFTAB2
 70
     6
  9
$SURFTYPE
 70
     6
  9
$SURFU
 70
     6
  9
$SURFV
 70
     6
  9
$UCSNAME
  2

  9
$UCSORG
 10
0.0
 20
0.0
 30
0.0
  9
$UCSXDIR
 10
1.0
 20
0.0
 30
0.0
  9
$UCSYDIR
 10
0.0
 20
1.0
 30
0.0
  9
$PUCSNAME
  2

  9
$PUCSORG
 10
0.0
 20
0.0
 30
0.0
  9
$PUCSXDIR
 10
1.0
 20
0.0
 30
0.0
  9
$PUCSYDIR
 10
0.0
 20
1.0
 30
0.0
  9
$USERI1
 70
     0
  9
$USERI2
 70
     0
  9
$USERI3
 70
     0
  9
$USERI4
 70
     0
  9
$USERI5
 70
     0
  9
$USERR1
 40
0.0
  9
$USERR2
 40
0.0
  9
$USERR3
 40
0.0
  9
$USERR4
 40
0.0
  9
$USERR5
 40
0.0
  9
$WORLDVIEW
 70
     1
  9
$SHADEDGE
 70
     3
  9
$SHADEDIF
 70
    70
  9
$TILEMODE
 70
     1
  9
$MAXACTVP
 70
    64
  9
$PLIMCHECK
 70
     0
  9
$PEXTMIN
 10
1.0000000000000000E+20
 20
1.0000000000000000E+20
 30
1.0000000000000000E+20
  9
$PEXTMAX
 10
-1.0000000000000000E+20
 20
-1.0000000000000000E+20
 30
-1.0000000000000000E+20
  9
$PLIMMIN
 10
0.0
 20
0.0
  9
$PLIMMAX
 10
12.0
 20
9.0
  9
$UNITMODE
 70
     0
  9
$VISRETAIN
 70
     1
  9
$PLINEGEN
 70
     0
  9
$PSLTSCALE
 70
     1
  0
ENDSEC
  0
SECTION
  2
TABLES
  0
TABLE
  2
VPORT
 70
     1
  0
VPORT
  2
*ACTIVE
 70
     0
 10
0.0
 20
0.0
 11
1.0
 21
1.0
 12
50.2210951803137817
 22
-16.8035723371103707
 13
0.0
 23
0.0
 14
1.0
 24
1.0
 15
0.0
 25
0.0
 16
0.0
 26
0.0
 36
14.6338572656650907
 17
429.6292891080536833
 27
69.7025415122186871
 37
0.0
 40
50.0185029916201813
 41
2.005224660397074
 42
50.0
 43
0.0
 44
0.0
 50
0.0
 51
0.0
 71
     0
 72
   100
 73
     1
 74
     1
 75
     0
 76
     0
 77
     0
 78
     0
  0
ENDTAB
  0
TABLE
  2
LTYPE
 70
     2
  0
LTYPE
  2
CONTINUOUS
 70
     0
  3
Solid line
 72
    65
 73
     0
 40
0.0
  0
LTYPE
  2
PHANTOM2
 70
     0
  3
___ _ _ ___ _ _ ___ _ _ ___ _ _
 72
    65
 73
     6
 40
1.25
 49
0.625
 49
-0.125
 49
0.125
 49
-0.125
 49
0.125
 49
-0.125
  0
ENDTAB
  0
TABLE
  2
LAYER
 70
     2
  0
LAYER
  2
0
 70
     0
 62
   255
  6
CONTINUOUS
  0
LAYER
  2
DEFPOINTS
 70
     0
 62
     7
  6
CONTINUOUS
  0
ENDTAB
  0
TABLE
  2
STYLE
 70
     1
  0
STYLE
  2
STANDARD
 70
     0
 40
0.0
 41
0.8
 50
0.0
 71
     0
 42
0.2
  3
txt
  4

  0
ENDTAB
  0
TABLE
  2
VIEW
 70
     0
  0
ENDTAB
  0
TABLE
  2
UCS
 70
     0
  0
ENDTAB
  0
TABLE
  2
APPID
 70
    10
  0
APPID
  2
ACAD
 70
     0
  0
APPID
  2
ACAD_MLEADERVER
 70
     0
  0
APPID
  2
ACAD_EXEMPT_FROM_CAD_STANDARDS
 70
     0
  0
APPID
  2
ACAD_DSTYLE_DIMJAG
 70
     0
  0
APPID
  2
ACAD_DSTYLE_DIMTALN
 70
     0
  0
APPID
  2
ACAD_NAV_VCDISPLAY
 70
     0
  0
APPID
  2
ACAECLAYERSTANDARD
 70
     0
  0
APPID
  2
ACCMTRANSPARENCY
 70
     0
  0
APPID
  2
DCO15
 70
     0
  0
APPID
  2
ACDBATTR
 70
     0
  0
ENDTAB
  0
TABLE
  2
DIMSTYLE
 70
     1
  0
DIMSTYLE
  2
STANDARD
 70
     0
  3

  4

  5

  6

  7

 40
1.0
 41
0.1875
 42
0.0625
 43
0.38
 44
0.125
 45
0.0
 46
0.0
 47
0.01
 48
0.01
140
0.15625
141
0.09
142
0.0
143
25.3999999999999986
144
1.0
145
0.0
146
1.0
147
0.09
 71
     1
 72
     0
 73
     1
 74
     1
 75
     0
 76
     0
 77
     0
 78
     4
170
     0
171
     2
172
     0
173
     0
174
     0
175
     0
176
     0
177
     0
178
     0
  0
ENDTAB
  0
ENDSEC
  0
SECTION
  2
BLOCKS
  0
BLOCK
  8
0
  2
$MODEL_SPACE
 70
     0
 10
0.0
 20
0.0
 30
0.0
  3
$MODEL_SPACE
  1

  0
ENDBLK
  5
21
  8
0
  0
BLOCK
 67
     1
  8
0
  2
$PAPER_SPACE
 70
     0
 10
0.0
 20
0.0
 30
0.0
  3
$PAPER_SPACE
  1

  0
ENDBLK
  5
1D
 67
     1
  8
0
  0
BLOCK
  8
0
  2
_FILLED
 70
     0
 10
0.0
 20
0.0
 30
0.0
  3
_FILLED
  1

  0
SOLID
  5
87E2
  8
0
  6
BYBLOCK
 62
     0
 10
0.0
 20
0.0
 30
0.0
 11
-1.0
 21
0.1666666667
 31
0.0
 12
-1.0
 22
-0.1666666667
 32
0.0
 13
-1.0
 23
-0.1666666667
 33
0.0
  0
ENDBLK
  5
87E3
  8
0
  6
BYBLOCK
 62
     0
  0
BLOCK
  8
0
  2
A$C90B10729
 70
     0
 10
0.0
 20
0.0
 30
0.0
  3
A$C90B10729
  1

  0
LINE
  5
EA5F
  8
0
 10
21.7360009002330514
 20
39.2205928225258589
 30
0.0
 11
24.0478891944392892
 21
39.0968149742634878
 31
0.0
  0
LINE
  5
EA60
  8
0
 10
25.5562506772412483
 20
39.7949250568186628
 30
0.0
 11
20.3870490273380689
 21
39.8852754144410326
 31
0.0
  0
LINE
  5
EA61
  8
0
 10
19.8785199266563701
 20
39.5466304588000028
 30
0.0
 11
19.8751029988546684
 21
39.3511881727887314
 31
0.0
  0
ARC
  5
EA62
  8
0
 10
20.2943597464336811
 20
37.0925264480862893
 30
0.0
 40
2.7941650209132529
 50
88.0990102451326464
 51
91.7337555733090824
  0
ARC
  5
EA63
  8
0
 10
20.2067377353013917
 20
39.5603716543519965
 30
0.0
 40
0.3250553028927357
 50
89.4563566028677286
 51
122.5932491209424029
  0
ARC
  5
EA64
  8
0
 10
20.2465422343295707
 20
39.5352599737334671
 30
0.0
 40
0.3681979180763559
 50
125.7084075261682017
 51
178.230341979805786
  0
ARC
  5
EA65
  8
0
 10
19.9066249273997684
 20
39.3501153962925727
 30
0.0
 40
0.0315401780054125
 50
178.0508219329967972
 51
266.8837355973483909
  0
ARC
  5
EA66
  8
0
 10
19.4740616816445389
 20
30.0970618621544794
 30
0.0
 40
9.2316195386102731
 50
85.7215882560321916
 51
87.3249786073079974
  0
ARC
  5
EA67
  8
0
 10
20.1021919320600908
 20
38.4621980264156207
 30
0.0
 40
0.8429371669066497
 50
75.841186655449448
 51
85.8789854327646367
  0
ARC
  5
EA68
  8
0
 10
20.6702175400495989
 20
39.203721448972388
 30
0.0
 40
0.1574803150000388
 50
184.2944160426804956
 51
219.7765183236348037
  0
ARC
  5
EA69
  8
0
 10
21.5940002863659615
 20
36.6560644710558989
 30
0.0
 40
2.568456703904471
 50
86.8307091553254367
 51
94.9858364973799354
  0
ARC
  5
EA6A
  8
0
 10
19.6453595546830009
 20
19.6453596924881317
 30
0.0
 40
19.6453598692273417
 50
84.9613200921441774
 51
88.0659214011895273
  0
LINE
  5
EA6B
  8
0
 10
20.4817416463495583
 20
39.1938399990723809
 30
0.0
 11
21.189096875849561
 21
39.1508439179723808
 31
0.0
  0
LINE
  5
EA6C
  8
0
 10
20.5491867058672391
 20
39.1029663657773767
 30
0.0
 11
21.1111416888054784
 21
39.0688078238783021
 31
0.0
  0
ARC
  5
EA6D
  8
0
 10
21.00320146877608
 20
39.183482473484311
 30
0.0
 40
0.1574844956249803
 50
313.2672462435572811
 51
348.7485401248796961
  0
ARC
  5
EA6E
  8
0
 10
27.4108404923710189
 20
39.5041575853109279
 30
0.0
 40
0.031158662515911
 50
23.1715921373830689
 51
80.3216639078287926
  0
ARC
  5
EA6F
  8
0
 10
24.366865655806329
 20
38.3676825807049227
 30
0.0
 40
3.2803333064845779
 50
2.0079481936906389
 51
20.4988544912801416
  0
ARC
  5
EA70
  8
0
 10
18.8952505158529505
 20
37.7497401130488726
 30
0.0
 40
8.7805729437926594
 50
358.2272449732798236
 51
4.7878191656563809
  0
ARC
  5
EA71
  8
0
 10
23.9030424465722788
 20
34.9730076881484422
 30
0.0
 40
4.1263503381781934
 50
77.0020350025230016
 51
87.9883403078931252
  0
ARC
  5
EA72
  8
0
 10
24.6156691888658017
 20
38.0653617877066708
 30
0.0
 40
0.9529475919071972
 50
37.3350662413931502
 51
76.9326847187514886
  0
ARC
  5
EA73
  8
0
 10
24.2942510610233597
 20
37.8395566247665087
 30
0.0
 40
1.345541211233044
 50
3.6324652248649669
 51
36.6795511195844171
  0
ARC
  5
EA74
  8
0
 10
17.9834912229778894
 20
37.2009875311617435
 30
0.0
 40
7.6877481303383099
 50
0.3350658609283765
 51
5.4025169407764846
  0
ARC
  5
EA75
  8
0
 10
25.4428599282353289
 20
34.0242457765149311
 30
0.0
 40
5.7717932064555892
 50
81.5959103831940951
 51
88.8743135618294247
  0
LINE
  5
EA76
  8
0
 10
27.41607878284956
 20
39.5348727698723721
 30
0.0
 11
26.2864285132833011
 21
39.7340609101604088
 31
0.0
  0
ARC
  5
EA77
  8
0
 10
27.1774367606068701
 20
39.5535041277297807
 30
0.0
 40
0.1968014875900203
 50
356.7394745081380734
 51
41.1046100894359299
  0
ARC
  5
EA78
  8
0
 10
27.3167994479107215
 20
39.6751671447363918
 30
0.0
 40
0.0118047236557939
 50
40.8506191335109179
 51
146.9312216757022043
  0
ARC
  5
EA79
  8
0
 10
26.7948404224079297
 20
39.307960715194497
 30
0.0
 40
0.5973433939436662
 50
38.3393003574189493
 51
45.4772555020150833
  0
ARC
  5
EA7A
  8
0
 10
27.426695175368689
 20
39.7874143327359207
 30
0.0
 40
0.1963100563315481
 50
213.6963891004220955
 51
224.2891042902516858
  0
LINE
  5
EA7B
  8
0
 10
27.2861714241495612
 20
39.6503351090723726
 30
0.0
 11
27.3069068985495598
 21
39.6816083377723814
 31
0.0
  0
LINE
  5
EA7C
  8
0
 10
27.4360121791020006
 20
39.6950377548766866
 30
0.0
 11
20.2091288772020015
 21
40.9566970240766821
 31
0.0
  0
LINE
  5
EA7D
  8
0
 10
20.2446872129597715
 20
41.0514889242685612
 30
0.0
 11
27.1625920182020018
 21
40.0792408084766905
 31
0.0
  0
LINE
  5
EA7E
  8
0
 10
20.19952822543463
 20
40.9703813554449994
 30
0.0
 11
20.2092856021644813
 21
41.0257649874997412
 31
0.0
  0
ARC
  5
EA7F
  8
0
 10
20.2403038082216788
 20
41.0202993787643777
 30
0.0
 40
0.0314960630215067
 50
82.0000001440372159
 51
170.0066964378027876
  0
ARC
  5
EA80
  8
0
 10
20.2111601094721287
 20
40.9683320736144907
 30
0.0
 40
0.0118110237609826
 50
170.0082799106301934
 51
260.097175460346989
  0
ARC
  5
EA81
  8
0
 10
27.1576356677439392
 20
40.0468337815067201
 30
0.0
 40
0.0327838497875819
 50
47.7436858661304626
 51
81.3045288630569161
  0
ARC
  5
EA82
  8
0
 10
26.0350112844137591
 20
38.9334118152145123
 30
0.0
 40
1.613877359279585
 50
28.8462577614052691
 51
44.8246985083763079
  0
ARC
  5
EA83
  8
0
 10
27.4380255283959613
 20
39.7067310843618912
 30
0.0
 40
0.0118653921059862
 50
260.2306410449800751
 51
26.6042333274120502
  0
ARC
  5
EA84
  8
0
 10
26.2689380324382391
 20
39.7443058354872392
 30
0.0
 40
0.3657340901086925
 50
145.5035655214605015
 51
174.7879764452189022
  0
ARC
  5
EA85
  8
0
 10
21.0961348691493598
 20
39.3328413243723318
 30
0.0
 40
0.6299212597998022
 50
187.952525930298691
 51
192.7481572808001999
  0
ARC
  5
EA86
  8
0
 10
20.5960629613489097
 20
39.3632378371725835
 30
0.0
 40
0.629921259800676
 50
340.2950098174025015
 51
345.090700190896996
  0
LINE
  5
EA87
  8
0
 10
25.6711078965302484
 20
37.2459452450725692
 30
0.0
 11
25.6711254166495593
 21
35.6153759433333335
 31
0.0
  0
LINE
  5
EA88
  8
0
 10
25.6711254166495593
 20
35.6153759433333335
 30
0.0
 11
27.6789479210495593
 21
35.6153759433333335
 31
0.0
  0
LINE
  5
EA89
  8
0
 10
27.6789479210495593
 20
35.6153759433333335
 30
0.0
 11
27.6789736767495604
 21
37.0049820699723782
 31
0.0
  0
ARC
  5
EA8A
  8
0
 10
35.2306628309221566
 20
37.3589614905352576
 30
0.0
 40
7.5599808539063194
 50
179.0969650359643879
 51
182.6837296717444019
  0
ARC
  5
EA8B
  8
0
 10
28.0589662551496417
 20
37.272007834971987
 30
0.0
 40
0.5019685039003792
 50
90.0000000000095639
 51
139.9967509777958981
  0
ARC
  5
EA8C
  8
0
 10
28.0589662551004615
 20
37.2720078351281217
 30
0.0
 40
0.2854330707442674
 50
89.9999999901443459
 51
160.0000000259703938
  0
ARC
  5
EA8D
  8
0
 10
28.5117221606495583
 20
37.7542912995723725
 30
0.0
 40
0.0196850394000028
 50
0.0000000000077351
 51
89.999999999994813
  0
ARC
  5
EA8E
  8
0
 10
28.5117221606495583
 20
37.5771259452723783
 30
0.0
 40
0.0196850394000032
 50
270.0000000000155751
 51
359.9999999999910187
  0
LINE
  5
EA8F
  8
0
 10
27.7907469046966291
 20
37.3696316947916429
 30
0.0
 11
27.6767389803010495
 21
37.0563974965643368
 31
0.0
  0
LINE
  5
EA90
  8
0
 10
28.0589662551496417
 20
37.773976338872373
 30
0.0
 11
28.5117221606495583
 21
37.773976338872373
 31
0.0
  0
LINE
  5
EA91
  8
0
 10
28.5314072000495607
 20
37.7542912995723725
 30
0.0
 11
28.5314072000495607
 21
37.5771259452723783
 31
0.0
  0
LINE
  5
EA92
  8
0
 10
28.05896625514956
 20
37.557440905872383
 30
0.0
 11
28.5117221606495583
 21
37.557440905872383
 31
0.0
  0
LINE
  5
EA93
  8
0
 62
     3
 10
26.675036668849561
 20
35.6153759433333335
 30
0.0
 11
30.0976593246584798
 21
32.0912683151792208
 31
0.0
  0
ENDBLK
  5
EA97
  8
0
  0
ENDSEC
  0
SECTION
  2
ENTITIES
  0
ATTDEF
  5
C848
  8
DEFPOINTS
 10
475.5488532508636013
 20
56.7361154750343033
 30
0.0
 40
0.001
  1
K-97345IN-4
  3

  2
MODELNUMBER
 70
     0
1001
ACDBATTR
1070
     0
1070
     1
  0
ATTDEF
  5
C849
  8
DEFPOINTS
 10
475.5488532508636013
 20
56.7344488083676382
 30
0.0
 40
0.001
  1
AVID
  3

  2
TRADENAME
 70
     0
1001
ACDBATTR
1070
     0
1070
     1
  0
ATTDEF
  5
C84A
  8
DEFPOINTS
 10
475.5488532508636013
 20
56.732782141700973
 30
0.0
 40
0.001
  1
BATHROOM SINK FAUCET
  3

  2
PRODUCT
 70
     0
1001
ACDBATTR
1070
     0
1070
     1
  0
LINE
  5
EA99
  8
0
 10
470.5862552443043114
 20
60.3167819797072724
 30
0.0
 11
472.8981435385103964
 21
60.1930041314448872
 31
0.0
  0
LINE
  5
EA9A
  8
0
 10
474.4065050213123982
 20
60.8911142140000621
 30
0.0
 11
469.2373033714093253
 21
60.9814645716224319
 31
0.0
  0
LINE
  5
EA9B
  8
0
 10
468.7287742707276266
 20
60.6428196159814021
 30
0.0
 11
468.725357342925804
 21
60.4473773299701307
 31
0.0
  0
ARC
  5
EA9C
  8
0
 10
469.1446140905048878
 20
58.1887156052676886
 30
0.0
 40
2.7941650209132529
 50
88.0990102451329449
 51
91.7337555733097929
  0
ARC
  5
EA9D
  8
0
 10
469.0569920793726055
 20
60.656560811533403
 30
0.0
 40
0.3250553028927357
 50
89.4563566028678423
 51
122.5932491209429003
  0
ARC
  5
EA9E
  8
0
 10
469.0967965784006992
 20
60.6314491309148806
 30
0.0
 40
0.3681979180763559
 50
125.7084075261672069
 51
178.230341979805786
  0
ARC
  5
EA9F
  8
0
 10
468.7568792714710071
 20
60.446304553473972
 30
0.0
 40
0.0315401780054125
 50
178.0508219329967972
 51
266.8837355973471972
  0
ARC
  5
EAA0
  8
0
 10
468.3243160257156887
 20
51.1932510193358894
 30
0.0
 40
9.2316195386102731
 50
85.7215882560312821
 51
87.3249786073069032
  0
ARC
  5
EAA1
  8
0
 10
468.9524462761312975
 20
59.55838718359702
 30
0.0
 40
0.8429371669066497
 50
75.841186655450187
 51
85.878985432765063
  0
ARC
  5
EAA2
  8
0
 10
469.5204718841208091
 20
60.2999106061538015
 30
0.0
 40
0.1574803150000388
 50
184.2944160426806093
 51
219.7765183236352868
  0
ARC
  5
EAA3
  8
0
 10
470.4442546304371149
 20
57.7522536282372982
 30
0.0
 40
2.568456703904471
 50
86.8307091553246551
 51
94.985836497379637
  0
ARC
  5
EAA4
  8
0
 10
468.4956138987541863
 20
40.7415488496695275
 30
0.0
 40
19.6453598692273417
 50
84.961320092142671
 51
88.0659214011900389
  0
LINE
  5
EAA5
  8
0
 10
469.3319959904208076
 20
60.2900291562537802
 30
0.0
 11
470.039351219920718
 21
60.2470330751537801
 31
0.0
  0
LINE
  5
EAA6
  8
0
 10
469.3994410499383889
 20
60.1991555229587831
 30
0.0
 11
469.961396032876678
 21
60.1649969810597014
 31
0.0
  0
ARC
  5
EAA7
  8
0
 10
469.8534558128471872
 20
60.2796716306657103
 30
0.0
 40
0.1574844956249803
 50
313.2672462435580201
 51
348.7485401248799235
  0
ARC
  5
EAA8
  8
0
 10
476.2610948364422256
 20
60.6003467424923414
 30
0.0
 40
0.031158662515911
 50
23.1715921373824614
 51
80.3216639078296737
  0
ARC
  5
EAA9
  8
0
 10
473.2171199998775251
 20
59.463871737886322
 30
0.0
 40
3.2803333064845779
 50
2.0079481936906611
 51
20.4988544912801416
  0
ARC
  5
EAAA
  8
0
 10
467.7455048599240968
 20
58.845929270230279
 30
0.0
 40
8.7805729437926594
 50
358.2272449732798236
 51
4.787819165656364
  0
ARC
  5
EAAB
  8
0
 10
472.7532967906435033
 20
56.0691968453298415
 30
0.0
 40
4.1263503381781934
 50
77.0020350025226605
 51
87.9883403078922157
  0
ARC
  5
EAAC
  8
0
 10
473.4659235329369835
 20
59.1615509448880701
 30
0.0
 40
0.9529475919071972
 50
37.3350662413930792
 51
76.932684718750707
  0
ARC
  5
EAAD
  8
0
 10
473.1445054050944918
 20
58.935745781947908
 30
0.0
 40
1.345541211233044
 50
3.6324652248649092
 51
36.6795511195849002
  0
ARC
  5
EAAE
  8
0
 10
466.8337455670489931
 20
58.2971766883431499
 30
0.0
 40
7.6877481303383099
 50
0.3350658609283705
 51
5.4025169407764269
  0
ARC
  5
EAAF
  8
0
 10
474.293114272306525
 20
55.1204349336963304
 30
0.0
 40
5.7717932064555892
 50
81.5959103831939245
 51
88.8743135618308457
  0
LINE
  5
EAB0
  8
0
 10
476.2663331269208129
 20
60.6310619270537785
 30
0.0
 11
475.1366828573544012
 21
60.8302500673418223
 31
0.0
  0
ARC
  5
EAB1
  8
0
 10
476.0276911046781265
 20
60.6496932849111801
 30
0.0
 40
0.1968014875900203
 50
356.7394745081380165
 51
41.1046100894360578
  0
ARC
  5
EAB2
  8
0
 10
476.1670537919819139
 20
60.7713563019177911
 30
0.0
 40
0.0118047236557939
 50
40.8506191335104418
 51
146.9312216757020053
  0
ARC
  5
EAB3
  8
0
 10
475.645094766479076
 20
60.4041498723759034
 30
0.0
 40
0.5973433939436662
 50
38.3393003574195106
 51
45.4772555020153817
  0
ARC
  5
EAB4
  8
0
 10
476.2769495194398814
 20
60.88360348991732
 30
0.0
 40
0.1963100563315481
 50
213.6963891004218965
 51
224.2891042902527943
  0
LINE
  5
EAB5
  8
0
 10
476.136425768220704
 20
60.746524266253779
 30
0.0
 11
476.1571612426207025
 21
60.7777974949537807
 31
0.0
  0
LINE
  5
EAB6
  8
0
 10
476.2862665231731967
 20
60.791226912058093
 30
0.0
 11
469.0593832212732082
 21
62.0528861812580885
 31
0.0
  0
LINE
  5
EAB7
  8
0
 10
469.0949415570310066
 20
62.1476780814499676
 30
0.0
 11
476.0128463622733079
 21
61.1754299656580898
 31
0.0
  0
LINE
  5
EAB8
  8
0
 10
469.0497825695057941
 20
62.0665705126264129
 30
0.0
 11
469.0595399462357022
 21
62.1219541446811618
 31
0.0
  0
ARC
  5
EAB9
  8
0
 10
469.0905581522928856
 20
62.1164885359457912
 30
0.0
 40
0.0314960630215067
 50
82.0000001440364201
 51
170.0066964378029013
  0
ARC
  5
EABA
  8
0
 10
469.061414453543307
 20
62.0645212307958971
 30
0.0
 40
0.0118110237609826
 50
170.0082799106303071
 51
260.0971754603463069
  0
ARC
  5
EABB
  8
0
 10
476.0078900118151068
 20
61.1430229386881408
 30
0.0
 40
0.0327838497875819
 50
47.7436858661300079
 51
81.304528863057314
  0
ARC
  5
EABC
  8
0
 10
474.8852656284848877
 20
60.0296009723959116
 30
0.0
 40
1.613877359279585
 50
28.84625776140523
 51
44.8246985083765992
  0
ARC
  5
EABD
  8
0
 10
476.2882798724671147
 20
60.8029202415432906
 30
0.0
 40
0.0118653921059862
 50
260.2306410449792793
 51
26.6042333274120502
  0
ARC
  5
EABE
  8
0
 10
475.1191923765094884
 20
60.8404949926686385
 30
0.0
 40
0.3657340901086925
 50
145.5035655214603025
 51
174.7879764452189875
  0
ARC
  5
EABF
  8
0
 10
469.9463892132205842
 20
60.4290304815537311
 30
0.0
 40
0.6299212597998022
 50
187.95252593029889
 51
192.748157280800001
  0
ARC
  5
EAC0
  8
0
 10
469.4463173054201093
 20
60.4594269943539828
 30
0.0
 40
0.629921259800676
 50
340.2950098174028994
 51
345.0907001908972234
  0
LINE
  5
EAC1
  8
0
 10
474.5213622406014906
 20
58.3421344022539685
 30
0.0
 11
474.5213797607207198
 21
56.7115651005147328
 31
0.0
  0
LINE
  5
EAC2
  8
0
 10
474.5213797607207198
 20
56.7115651005147328
 30
0.0
 11
476.5292022651207162
 21
56.7115651005147328
 31
0.0
  0
LINE
  5
EAC3
  8
0
 10
476.5292022651207162
 20
56.7115651005147328
 30
0.0
 11
476.5292280208207103
 21
58.1011712271537917
 31
0.0
  0
ARC
  5
EAC4
  8
0
 10
484.0809171749933171
 20
58.4551506477166569
 30
0.0
 40
7.5599808539063194
 50
179.0969650359643879
 51
182.6837296717444019
  0
ARC
  5
EAC5
  8
0
 10
476.9092205992208164
 20
58.3681969921534005
 30
0.0
 40
0.5019685039003792
 50
90.0000000000097771
 51
139.9967509777968075
  0
ARC
  5
EAC6
  8
0
 10
476.9092205991717037
 20
58.368196992309521
 30
0.0
 40
0.2854330707442674
 50
89.9999999901446586
 51
160.0000000259705928
  0
ARC
  5
EAC7
  8
0
 10
477.3619765047207011
 20
58.8504804567537789
 30
0.0
 40
0.0196850394000028
 50
0.0000000000077351
 51
89.9999999999934914
  0
ARC
  5
EAC8
  8
0
 10
477.3619765047207011
 20
58.6733151024537776
 30
0.0
 40
0.0196850394000032
 50
270.0000000000163141
 51
359.9999999999910187
  0
LINE
  5
EAC9
  8
0
 10
476.6410012487677932
 20
58.4658208519730422
 30
0.0
 11
476.5269933243721994
 21
58.1525866537457503
 31
0.0
  0
LINE
  5
EACA
  8
0
 10
476.9092205992208164
 20
58.8701654960537795
 30
0.0
 11
477.3619765047207011
 21
58.8701654960537795
 31
0.0
  0
LINE
  5
EACB
  8
0
 10
477.3816615441207887
 20
58.8504804567537789
 30
0.0
 11
477.3816615441207887
 21
58.6733151024537776
 31
0.0
  0
LINE
  5
EACC
  8
0
 10
476.9092205992207028
 20
58.6536300630537824
 30
0.0
 11
477.3619765047207011
 21
58.6536300630537824
 31
0.0
  0
ENDSEC
  0
EOF
