  0
SECTION
  2
HEADER
  9
$ACADVER
  1
AC1009
  9
$INSBASE
 10
5070.9975447304314002
 20
506.7973092808605884
 30
0.0
  9
$EXTMIN
 10
5067.507544730430709
 20
505.4223092808604747
 30
0.0
  9
$EXTMAX
 10
5071.0082129176153103
 20
508.1723092808605884
 30
0.0
  9
$LIMMIN
 10
0.0
 20
0.0
  9
$LIMMAX
 10
11.6929133858000007
 20
8.2677165353999982
  9
$ORTHOMODE
 70
     0
  9
$REGENMODE
 70
     1
  9
$FILLMODE
 70
     1
  9
$QTEXTMODE
 70
     0
  9
$MIRRTEXT
 70
     0
  9
$DRAGMODE
 70
     2
  9
$LTSCALE
 40
0.6431102362
  9
$OSMODE
 70
     7
  9
$ATTMODE
 70
     1
  9
$TEXTSIZE
 40
0.2
  9
$TRACEWID
 40
0.05
  9
$TEXTSTYLE
  7
STANDARD
  9
$CLAYER
  8
0
  9
$CELTYPE
  6
BYLAYER
  9
$CECOLOR
 62
   256
  9
$DIMSCALE
 40
1.0
  9
$DIMASZ
 40
0.1875
  9
$DIMEXO
 40
0.0625
  9
$DIMDLI
 40
0.4443307087
  9
$DIMRND
 40
0.0
  9
$DIMDLE
 40
0.0
  9
$DIMEXE
 40
0.125
  9
$DIMTP
 40
0.01
  9
$DIMTM
 40
0.01
  9
$DIMTXT
 40
2.0
  9
$DIMCEN
 40
0.1052362205
  9
$DIMTSZ
 40
0.0
  9
$DIMTOL
 70
     1
  9
$DIMLIM
 70
     0
  9
$DIMTIH
 70
     1
  9
$DIMTOH
 70
     1
  9
$DIMSE1
 70
     0
  9
$DIMSE2
 70
     0
  9
$DIMTAD
 70
     0
  9
$DIMZIN
 70
     0
  9
$DIMBLK
  1

  9
$DIMASO
 70
     1
  9
$DIMSHO
 70
     1
  9
$DIMPOST
  1
\X
  9
$DIMAPOST
  1

  9
$DIMALT
 70
     1
  9
$DIMALTD
 70
     2
  9
$DIMALTF
 40
25.3999999999999986
  9
$DIMLFAC
 40
1.0
  9
$DIMTOFL
 70
     0
  9
$DIMTVP
 40
0.0
  9
$DIMTIX
 70
     0
  9
$DIMSOXD
 70
     0
  9
$DIMSAH
 70
     0
  9
$DIMBLK1
  1

  9
$DIMBLK2
  1

  9
$DIMSTYLE
  2
STANDARD
  9
$DIMCLRD
 70
     0
  9
$DIMCLRE
 70
     0
  9
$DIMCLRT
 70
     0
  9
$DIMTFAC
 40
1.0
  9
$DIMGAP
 40
0.09
  9
$LUNITS
 70
     2
  9
$LUPREC
 70
     4
  9
$SKETCHINC
 40
0.1
  9
$FILLETRAD
 40
0.0
  9
$AUNITS
 70
     0
  9
$AUPREC
 70
     0
  9
$MENU
  1
.
  9
$ELEVATION
 40
0.0
  9
$PELEVATION
 40
0.0
  9
$THICKNESS
 40
0.0
  9
$LIMCHECK
 70
     0
  9
$BLIPMODE
 70
     0
  9
$CHAMFERA
 40
0.0
  9
$CHAMFERB
 40
0.0
  9
$SKPOLY
 70
     0
  9
$TDCREATE
 40
2458060.468368056230247
  9
$TDUPDATE
 40
2459393.8794907410629094
  9
$TDINDWG
 40
1.6800663656999999
  9
$TDUSRTIMER
 40
1.6800663656999999
  9
$USRTIMER
 70
     1
  9
$ANGBASE
 50
0.0
  9
$ANGDIR
 70
     0
  9
$PDMODE
 70
     0
  9
$PDSIZE
 40
0.3125
  9
$PLINEWID
 40
0.0
  9
$COORDS
 70
     1
  9
$SPLFRAME
 70
     0
  9
$SPLINETYPE
 70
     6
  9
$SPLINESEGS
 70
     8
  9
$ATTDIA
 70
     1
  9
$ATTREQ
 70
     1
  9
$HANDLING
 70
     1
  9
$HANDSEED
  5
1F1F3
  9
$SURFTAB1
 70
     6
  9
$SURFTAB2
 70
     6
  9
$SURFTYPE
 70
     6
  9
$SURFU
 70
     6
  9
$SURFV
 70
     6
  9
$UCSNAME
  2

  9
$UCSORG
 10
0.0
 20
0.0
 30
0.0
  9
$UCSXDIR
 10
1.0
 20
0.0
 30
0.0
  9
$UCSYDIR
 10
0.0
 20
1.0
 30
0.0
  9
$PUCSNAME
  2

  9
$PUCSORG
 10
0.0
 20
0.0
 30
0.0
  9
$PUCSXDIR
 10
1.0
 20
0.0
 30
0.0
  9
$PUCSYDIR
 10
0.0
 20
1.0
 30
0.0
  9
$USERI1
 70
     0
  9
$USERI2
 70
     0
  9
$USERI3
 70
     0
  9
$USERI4
 70
     0
  9
$USERI5
 70
     0
  9
$USERR1
 40
0.0
  9
$USERR2
 40
0.0
  9
$USERR3
 40
0.0
  9
$USERR4
 40
0.0
  9
$USERR5
 40
0.0
  9
$WORLDVIEW
 70
     1
  9
$SHADEDGE
 70
     3
  9
$SHADEDIF
 70
    70
  9
$TILEMODE
 70
     1
  9
$MAXACTVP
 70
    64
  9
$PLIMCHECK
 70
     0
  9
$PEXTMIN
 10
1.0000000000000000E+20
 20
1.0000000000000000E+20
 30
1.0000000000000000E+20
  9
$PEXTMAX
 10
-1.0000000000000000E+20
 20
-1.0000000000000000E+20
 30
-1.0000000000000000E+20
  9
$PLIMMIN
 10
0.0
 20
0.0
  9
$PLIMMAX
 10
12.0
 20
9.0
  9
$UNITMODE
 70
     0
  9
$VISRETAIN
 70
     1
  9
$PLINEGEN
 70
     0
  9
$PSLTSCALE
 70
     1
  0
ENDSEC
  0
SECTION
  2
TABLES
  0
TABLE
  2
VPORT
 70
     1
  0
VPORT
  2
*ACTIVE
 70
     0
 10
0.0
 20
0.0
 11
1.0
 21
1.0
 12
1157.8925223787100549
 22
374.2177041783215259
 13
0.0
 23
0.0
 14
1.0
 24
1.0
 15
0.0
 25
0.0
 16
0.0
 26
0.0
 36
60.4960186965801583
 17
3911.3653564453120453
 27
132.5796051025390057
 37
0.0
 40
2.771126760563333
 41
2.3461538461538458
 42
50.0
 43
0.0
 44
0.0
 50
0.0
 51
0.0
 71
     0
 72
   100
 73
     1
 74
     1
 75
     0
 76
     0
 77
     0
 78
     0
  0
ENDTAB
  0
TABLE
  2
LTYPE
 70
     2
  0
LTYPE
  2
CONTINUOUS
 70
     0
  3
Solid line
 72
    65
 73
     0
 40
0.0
  0
LTYPE
  2
PHANTOM2
 70
     0
  3
___ _ _ ___ _ _ ___ _ _ ___ _ _
 72
    65
 73
     6
 40
1.25
 49
0.625
 49
-0.125
 49
0.125
 49
-0.125
 49
0.125
 49
-0.125
  0
ENDTAB
  0
TABLE
  2
LAYER
 70
     2
  0
LAYER
  2
0
 70
     0
 62
   255
  6
CONTINUOUS
  0
LAYER
  2
DEFPOINTS
 70
     0
 62
     7
  6
CONTINUOUS
  0
ENDTAB
  0
TABLE
  2
STYLE
 70
     1
  0
STYLE
  2
STANDARD
 70
     0
 40
0.0
 41
0.8
 50
0.0
 71
     0
 42
0.2
  3
txt
  4

  0
ENDTAB
  0
TABLE
  2
VIEW
 70
     0
  0
ENDTAB
  0
TABLE
  2
UCS
 70
     0
  0
ENDTAB
  0
TABLE
  2
APPID
 70
    11
  0
APPID
  2
ACAD
 70
     0
  0
APPID
  2
ACAD_MLEADERVER
 70
     0
  0
APPID
  2
ACAD_EXEMPT_FROM_CAD_STANDARDS
 70
     0
  0
APPID
  2
ACAD_NAV_VCDISPLAY
 70
     0
  0
APPID
  2
ACAECLAYERSTANDARD
 70
     0
  0
APPID
  2
ACCMTRANSPARENCY
 70
     0
  0
APPID
  2
ACAD_DSTYLE_DIMJAG
 70
     0
  0
APPID
  2
ACAD_DSTYLE_DIMTALN
 70
     0
  0
APPID
  2
ACDBATTR
 70
     0
  0
APPID
  2
ACADANNOTATIVE
 70
     0
  0
APPID
  2
DCO15
 70
     0
  0
ENDTAB
  0
TABLE
  2
DIMSTYLE
 70
     1
  0
DIMSTYLE
  2
STANDARD
 70
     0
  3

  4

  5

  6

  7

 40
1.0
 41
0.1875
 42
0.0625
 43
0.38
 44
0.125
 45
0.0
 46
0.0
 47
0.01
 48
0.01
140
0.15625
141
0.09
142
0.0
143
25.3999999999999986
144
1.0
145
0.0
146
1.0
147
0.09
 71
     1
 72
     0
 73
     1
 74
     1
 75
     0
 76
     0
 77
     0
 78
     4
170
     0
171
     2
172
     0
173
     0
174
     0
175
     0
176
     0
177
     0
178
     0
  0
ENDTAB
  0
ENDSEC
  0
SECTION
  2
BLOCKS
  0
BLOCK
  8
0
  2
$MODEL_SPACE
 70
     0
 10
0.0
 20
0.0
 30
0.0
  3
$MODEL_SPACE
  1

  0
ENDBLK
  5
21
  8
0
  0
BLOCK
 67
     1
  8
0
  2
$PAPER_SPACE
 70
     0
 10
0.0
 20
0.0
 30
0.0
  3
$PAPER_SPACE
  1

  0
ENDBLK
  5
1D
 67
     1
  8
0
  0
ENDSEC
  0
SECTION
  2
ENTITIES
  0
ATTDEF
  5
159BF
  8
DEFPOINTS
 10
5070.997546250945561
 20
506.8006433181346893
 30
0.0
 40
0.001
  1
K-972W-4
  3

  2
MODELNUMBER
 70
     0
1001
ACDBATTR
1070
     0
1070
     1
  0
ATTDEF
  5
159C0
  8
DEFPOINTS
 10
5070.997546250945561
 20
506.7989764777555024
 30
0.0
 40
0.001
  1
STILLNESS
  3

  2
TRADENAME
 70
     0
1001
ACDBATTR
1070
     0
1070
     1
  0
ATTDEF
  5
159C1
  8
DEFPOINTS
 10
5070.997546250945561
 20
506.7973099848013021
 30
0.0
 40
0.001
  1
BATH FAUCET HANDLES
  3

  2
PRODUCT
 70
     0
1001
ACDBATTR
1070
     0
1070
     1
  0
LINE
  5
1F115
  8
0
 10
5070.6875447304310001
 20
505.4223092808604747
 30
0.0
 11
5070.9975447304314002
 21
505.4223092808604747
 31
0.0
  0
LINE
  5
1F116
  8
0
 10
5070.6875447304310001
 20
508.1723092808605884
 30
0.0
 11
5070.9975447304314002
 21
508.1723092808605884
 31
0.0
  0
LINE
  5
1F117
  8
0
 10
5068.0575447304318004
 20
506.8773092808605156
 30
0.0
 11
5067.5275447304311456
 21
506.8773092808605156
 31
0.0
  0
LINE
  5
1F118
  8
0
 10
5070.6875447304310001
 20
508.1723092808605884
 30
0.0
 11
5070.6875447304310001
 21
505.4223092808604747
 31
0.0
  0
LINE
  5
1F119
  8
0
 10
5070.9975447304314002
 20
508.1723092808605884
 30
0.0
 11
5070.9975447304314002
 21
505.4223092808604747
 31
0.0
  0
LINE
  5
1F11A
  8
0
 10
5067.5275447308476942
 20
507.5858092808605875
 30
0.0
 11
5068.0575447304318004
 21
507.5858092808605875
 31
0.0
  0
LINE
  5
1F11B
  8
0
 10
5068.077544730432237
 20
507.5858092808605875
 30
0.0
 11
5070.6475447304310364
 21
507.5858092808605875
 31
0.0
  0
LINE
  5
1F11C
  8
0
 10
5067.5275447308476942
 20
506.0088092808604756
 30
0.0
 11
5068.0575447304318004
 21
506.0088092808604756
 31
0.0
  0
LINE
  5
1F11D
  8
0
 10
5068.077544730432237
 20
506.0088092808604756
 30
0.0
 11
5070.6475447304310364
 21
506.0088092808604756
 31
0.0
  0
LINE
  5
1F11E
  8
0
 10
5067.5075447304316185
 20
507.5658141325504857
 30
0.0
 11
5067.5075447304316185
 21
506.0288044291614256
 31
0.0
  0
LINE
  5
1F11F
  8
0
 10
5068.077544730432237
 20
507.5858092808605875
 30
0.0
 11
5068.077544730432237
 21
506.0088092808604756
 31
0.0
  0
ARC
  5
1F120
  8
0
 10
5067.5275447304311456
 20
506.857309280860477
 30
0.0
 40
0.0199999999999996
 50
90.0
 51
180.0
  0
ARC
  5
1F121
  8
0
 10
5068.0575447304318004
 20
506.857309280860477
 30
0.0
 40
0.0200000000000102
 50
0.0000000000162844
 51
89.9999999999478888
  0
LINE
  5
1F122
  8
0
 10
5068.0575447304318004
 20
506.7173092808606043
 30
0.0
 11
5067.5275447304311456
 21
506.7173092808606043
 31
0.0
  0
ARC
  5
1F123
  8
0
 10
5067.5275447304311456
 20
506.7373092808605861
 30
0.0
 40
0.0199999999999996
 50
180.0
 51
270.0
  0
ARC
  5
1F124
  8
0
 10
5068.0575447304318004
 20
506.7373092808605861
 30
0.0
 40
0.0200000000000102
 50
270.0000000000521254
 51
359.9999999999836859
  0
ARC
  5
1F125
  8
0
 10
5067.5275447308476942
 20
507.5658092798555003
 30
0.0
 40
0.0200000010050054
 50
90.0000011925942118
 51
179.9860980534413102
  0
ARC
  5
1F126
  8
0
 10
5068.0575447304318004
 20
507.565809280860492
 30
0.0
 40
0.0199999999999978
 50
359.9999999999935199
 51
90.0
  0
ARC
  5
1F127
  8
0
 10
5070.6475447304310364
 20
507.6258092808604943
 30
0.0
 40
0.04
 50
270.0
 51
359.9999410262003039
  0
ARC
  5
1F128
  8
0
 10
5070.6475447304310364
 20
505.968809280860512
 30
0.0
 40
0.0399999999999992
 50
0.0000589737997144
 51
90.0
  0
ARC
  5
1F129
  8
0
 10
5067.5275447308476942
 20
506.0288092818655059
 30
0.0
 40
0.0200000010050054
 50
180.0139019465586045
 51
269.9999988074058024
  0
ARC
  5
1F12A
  8
0
 10
5068.0575447304318004
 20
506.028809280860628
 30
0.0
 40
0.0199999999999978
 50
270.0
 51
0.0000000000065138
  0
ENDSEC
  0
EOF
