  0
SECTION
  2
HEADER
  9
$ACADVER
  1
AC1009
  9
$INSBASE
 10
5071.489863791712196
 20
502.9818682433901245
 30
0.0
  9
$EXTMIN
 10
5064.4281127573631238
 20
499.485555470160989
 30
-0.0015258207003583
  9
$EXTMAX
 10
5078.3769241628488089
 20
503.0161390294255739
 30
0.0000000349246037
  9
$LIMMIN
 10
0.0
 20
0.0
  9
$LIMMAX
 10
11.6929133858000007
 20
8.2677165353999982
  9
$ORTHOMODE
 70
     0
  9
$REGENMODE
 70
     1
  9
$FILLMODE
 70
     1
  9
$QTEXTMODE
 70
     0
  9
$MIRRTEXT
 70
     0
  9
$DRAGMODE
 70
     2
  9
$LTSCALE
 40
0.6431102362
  9
$OSMODE
 70
     7
  9
$ATTMODE
 70
     1
  9
$TEXTSIZE
 40
0.2
  9
$TRACEWID
 40
0.05
  9
$TEXTSTYLE
  7
STANDARD
  9
$CLAYER
  8
0
  9
$CELTYPE
  6
BYLAYER
  9
$CECOLOR
 62
   256
  9
$DIMSCALE
 40
1.0
  9
$DIMASZ
 40
0.1875
  9
$DIMEXO
 40
0.0625
  9
$DIMDLI
 40
0.4443307087
  9
$DIMRND
 40
0.0
  9
$DIMDLE
 40
0.0
  9
$DIMEXE
 40
0.125
  9
$DIMTP
 40
0.01
  9
$DIMTM
 40
0.01
  9
$DIMTXT
 40
2.0
  9
$DIMCEN
 40
0.1052362205
  9
$DIMTSZ
 40
0.0
  9
$DIMTOL
 70
     1
  9
$DIMLIM
 70
     0
  9
$DIMTIH
 70
     1
  9
$DIMTOH
 70
     1
  9
$DIMSE1
 70
     0
  9
$DIMSE2
 70
     0
  9
$DIMTAD
 70
     0
  9
$DIMZIN
 70
     0
  9
$DIMBLK
  1

  9
$DIMASO
 70
     1
  9
$DIMSHO
 70
     1
  9
$DIMPOST
  1
\X
  9
$DIMAPOST
  1

  9
$DIMALT
 70
     1
  9
$DIMALTD
 70
     2
  9
$DIMALTF
 40
25.3999999999999986
  9
$DIMLFAC
 40
1.0
  9
$DIMTOFL
 70
     0
  9
$DIMTVP
 40
0.0
  9
$DIMTIX
 70
     0
  9
$DIMSOXD
 70
     0
  9
$DIMSAH
 70
     0
  9
$DIMBLK1
  1

  9
$DIMBLK2
  1

  9
$DIMSTYLE
  2
STANDARD
  9
$DIMCLRD
 70
     0
  9
$DIMCLRE
 70
     0
  9
$DIMCLRT
 70
     0
  9
$DIMTFAC
 40
1.0
  9
$DIMGAP
 40
0.09
  9
$LUNITS
 70
     2
  9
$LUPREC
 70
     4
  9
$SKETCHINC
 40
0.1
  9
$FILLETRAD
 40
0.0
  9
$AUNITS
 70
     0
  9
$AUPREC
 70
     0
  9
$MENU
  1
.
  9
$ELEVATION
 40
0.0
  9
$PELEVATION
 40
0.0
  9
$THICKNESS
 40
0.0
  9
$LIMCHECK
 70
     0
  9
$BLIPMODE
 70
     0
  9
$CHAMFERA
 40
0.0
  9
$CHAMFERB
 40
0.0
  9
$SKPOLY
 70
     0
  9
$TDCREATE
 40
2458060.468368056230247
  9
$TDUPDATE
 40
2459393.8799768518656492
  9
$TDINDWG
 40
1.679800162
  9
$TDUSRTIMER
 40
1.679800162
  9
$USRTIMER
 70
     1
  9
$ANGBASE
 50
0.0
  9
$ANGDIR
 70
     0
  9
$PDMODE
 70
     0
  9
$PDSIZE
 40
0.3125
  9
$PLINEWID
 40
0.0
  9
$COORDS
 70
     1
  9
$SPLFRAME
 70
     0
  9
$SPLINETYPE
 70
     6
  9
$SPLINESEGS
 70
     8
  9
$ATTDIA
 70
     1
  9
$ATTREQ
 70
     1
  9
$HANDLING
 70
     1
  9
$HANDSEED
  5
1F138
  9
$SURFTAB1
 70
     6
  9
$SURFTAB2
 70
     6
  9
$SURFTYPE
 70
     6
  9
$SURFU
 70
     6
  9
$SURFV
 70
     6
  9
$UCSNAME
  2

  9
$UCSORG
 10
0.0
 20
0.0
 30
0.0
  9
$UCSXDIR
 10
1.0
 20
0.0
 30
0.0
  9
$UCSYDIR
 10
0.0
 20
1.0
 30
0.0
  9
$PUCSNAME
  2

  9
$PUCSORG
 10
0.0
 20
0.0
 30
0.0
  9
$PUCSXDIR
 10
1.0
 20
0.0
 30
0.0
  9
$PUCSYDIR
 10
0.0
 20
1.0
 30
0.0
  9
$USERI1
 70
     0
  9
$USERI2
 70
     0
  9
$USERI3
 70
     0
  9
$USERI4
 70
     0
  9
$USERI5
 70
     0
  9
$USERR1
 40
0.0
  9
$USERR2
 40
0.0
  9
$USERR3
 40
0.0
  9
$USERR4
 40
0.0
  9
$USERR5
 40
0.0
  9
$WORLDVIEW
 70
     1
  9
$SHADEDGE
 70
     3
  9
$SHADEDIF
 70
    70
  9
$TILEMODE
 70
     1
  9
$MAXACTVP
 70
    64
  9
$PLIMCHECK
 70
     0
  9
$PEXTMIN
 10
1.0000000000000000E+20
 20
1.0000000000000000E+20
 30
1.0000000000000000E+20
  9
$PEXTMAX
 10
-1.0000000000000000E+20
 20
-1.0000000000000000E+20
 30
-1.0000000000000000E+20
  9
$PLIMMIN
 10
0.0
 20
0.0
  9
$PLIMMAX
 10
12.0
 20
9.0
  9
$UNITMODE
 70
     0
  9
$VISRETAIN
 70
     1
  9
$PLINEGEN
 70
     0
  9
$PSLTSCALE
 70
     1
  0
ENDSEC
  0
SECTION
  2
TABLES
  0
TABLE
  2
VPORT
 70
     1
  0
VPORT
  2
*ACTIVE
 70
     0
 10
0.0
 20
0.0
 11
1.0
 21
1.0
 12
1160.0371620147930116
 22
368.6712421472543042
 13
0.0
 23
0.0
 14
1.0
 24
1.0
 15
0.0
 25
0.0
 16
0.0
 26
0.0
 36
60.4960186965801583
 17
3911.3653564453120453
 27
132.5796051025390057
 37
0.0
 40
5.9648631645795227
 41
2.3461538461538458
 42
50.0
 43
0.0
 44
0.0
 50
0.0
 51
0.0
 71
     0
 72
   100
 73
     1
 74
     1
 75
     0
 76
     0
 77
     0
 78
     0
  0
ENDTAB
  0
TABLE
  2
LTYPE
 70
     2
  0
LTYPE
  2
CONTINUOUS
 70
     0
  3
Solid line
 72
    65
 73
     0
 40
0.0
  0
LTYPE
  2
PHANTOM2
 70
     0
  3
___ _ _ ___ _ _ ___ _ _ ___ _ _
 72
    65
 73
     6
 40
1.25
 49
0.625
 49
-0.125
 49
0.125
 49
-0.125
 49
0.125
 49
-0.125
  0
ENDTAB
  0
TABLE
  2
LAYER
 70
     2
  0
LAYER
  2
0
 70
     0
 62
   255
  6
CONTINUOUS
  0
LAYER
  2
DEFPOINTS
 70
     0
 62
     7
  6
CONTINUOUS
  0
ENDTAB
  0
TABLE
  2
STYLE
 70
     1
  0
STYLE
  2
STANDARD
 70
     0
 40
0.0
 41
0.8
 50
0.0
 71
     0
 42
0.2
  3
txt
  4

  0
ENDTAB
  0
TABLE
  2
VIEW
 70
     0
  0
ENDTAB
  0
TABLE
  2
UCS
 70
     0
  0
ENDTAB
  0
TABLE
  2
APPID
 70
    11
  0
APPID
  2
ACAD
 70
     0
  0
APPID
  2
ACAD_MLEADERVER
 70
     0
  0
APPID
  2
ACAD_EXEMPT_FROM_CAD_STANDARDS
 70
     0
  0
APPID
  2
ACAD_NAV_VCDISPLAY
 70
     0
  0
APPID
  2
ACAECLAYERSTANDARD
 70
     0
  0
APPID
  2
ACCMTRANSPARENCY
 70
     0
  0
APPID
  2
ACAD_DSTYLE_DIMJAG
 70
     0
  0
APPID
  2
ACAD_DSTYLE_DIMTALN
 70
     0
  0
APPID
  2
ACDBATTR
 70
     0
  0
APPID
  2
ACADANNOTATIVE
 70
     0
  0
APPID
  2
DCO15
 70
     0
  0
ENDTAB
  0
TABLE
  2
DIMSTYLE
 70
     1
  0
DIMSTYLE
  2
STANDARD
 70
     0
  3

  4

  5

  6

  7

 40
1.0
 41
0.1875
 42
0.0625
 43
0.38
 44
0.125
 45
0.0
 46
0.0
 47
0.01
 48
0.01
140
0.15625
141
0.09
142
0.0
143
25.3999999999999986
144
1.0
145
0.0
146
1.0
147
0.09
 71
     1
 72
     0
 73
     1
 74
     1
 75
     0
 76
     0
 77
     0
 78
     4
170
     0
171
     2
172
     0
173
     0
174
     0
175
     0
176
     0
177
     0
178
     0
  0
ENDTAB
  0
ENDSEC
  0
SECTION
  2
BLOCKS
  0
BLOCK
  8
0
  2
$MODEL_SPACE
 70
     0
 10
0.0
 20
0.0
 30
0.0
  3
$MODEL_SPACE
  1

  0
ENDBLK
  5
21
  8
0
  0
BLOCK
 67
     1
  8
0
  2
$PAPER_SPACE
 70
     0
 10
0.0
 20
0.0
 30
0.0
  3
$PAPER_SPACE
  1

  0
ENDBLK
  5
1D
 67
     1
  8
0
  0
ENDSEC
  0
SECTION
  2
ENTITIES
  0
ATTDEF
  5
159BF
  8
DEFPOINTS
 10
5071.4898669661088206
 20
502.9852008087416948
 30
0.0
 40
0.001
  1
K-972W-4
  3

  2
MODELNUMBER
 70
     0
1001
ACDBATTR
1070
     0
1070
     1
  0
ATTDEF
  5
159C0
  8
DEFPOINTS
 10
5071.4898669661088206
 20
502.9835339683626785
 30
0.0
 40
0.001
  1
STILLNESS
  3

  2
TRADENAME
 70
     0
1001
ACDBATTR
1070
     0
1070
     1
  0
ATTDEF
  5
159C1
  8
DEFPOINTS
 10
5071.4898669661088206
 20
502.9818674754084782
 30
0.0
 40
0.001
  1
BATH FAUCET HANDLES
  3

  2
PRODUCT
 70
     0
1001
ACDBATTR
1070
     0
1070
     1
  0
LINE
  5
1F04A
  8
0
 10
5066.114863791712196
 20
502.9818682433901245
 30
0.0
 11
5068.8648637917131055
 21
502.9818682433901245
 31
0.0
  0
LINE
  5
1F04B
  8
0
 10
5064.6998637917122323
 20
499.4918682433901154
 30
0.0
 11
5068.2583665914426092
 21
499.4918682433901154
 31
0.0
  0
LINE
  5
1F04C
  8
0
 10
5066.114863791712196
 20
502.6718682433901222
 30
0.0
 11
5068.8648637917131055
 21
502.6718682433901222
 31
0.0
  0
LINE
  5
1F04D
  8
0
 10
5066.114863791712196
 20
502.9818682433901245
 30
0.0
 11
5066.114863791712196
 21
502.6718682433901222
 31
0.0
  0
LINE
  5
1F04E
  8
0
 10
5068.8648637917131055
 20
502.9818682433901245
 30
0.0
 11
5068.8648637917131055
 21
502.6718682433901222
 31
0.0
  0
LINE
  5
1F04F
  8
0
 10
5066.7013637917107189
 20
500.0618682433901085
 30
0.0
 11
5066.7013637917107189
 21
502.6318682433901017
 31
0.0
  0
LINE
  5
1F050
  8
0
 10
5068.278363791711854
 20
499.5118682435286246
 30
0.0
 11
5068.278363791711854
 21
500.0418682433901267
 31
0.0
  0
LINE
  5
1F051
  8
0
 10
5068.278363791711854
 20
500.0618682433901085
 30
0.0
 11
5068.278363791711854
 21
502.6318682433901017
 31
0.0
  0
LINE
  5
1F052
  8
0
 10
5064.6598637917122687
 20
500.0618682433901085
 30
0.0
 11
5068.278363791711854
 21
500.0618682433901085
 31
0.0
  0
LINE
  5
1F053
  8
0
 10
5064.6398637917109227
 20
499.5518682433901176
 30
0.0
 11
5064.6398637917109227
 21
500.0418682433901267
 31
0.0
  0
ARC
  5
1F054
  8
0
 10
5064.6598637917122687
 20
500.0418682433901267
 30
0.0
 40
0.0199999999999996
 50
90.0
 51
180.0
  0
ARC
  5
1F055
  8
0
 10
5064.6998637917122323
 20
499.5518682433901176
 30
0.0
 40
0.0600000000000037
 50
180.0000000000065086
 51
270.0
  0
LINE
  5
1F056
  8
0
 10
5066.7121709256007307
 20
500.0421347444312232
 30
0.0
 11
5066.7121709256007307
 21
499.5116017457859812
 31
0.0
  0
ARC
  5
1F057
  8
0
 10
5066.7320377377427576
 20
499.5117350012317843
 30
0.0
 40
0.019867259038273
 50
180.3843022268027028
 51
269.5930194934330757
  0
ARC
  5
1F058
  8
0
 10
5066.7320377345631641
 20
500.0420014872669867
 30
0.0
 40
0.0198672558704418
 50
90.4063917174117648
 51
179.6156927559590883
  0
ARC
  5
1F059
  8
0
 10
5066.6613637917116648
 20
502.6318682433901017
 30
0.0
 40
0.0400000000000026
 50
0.0000000000032569
 51
89.9999410262002755
  0
ARC
  5
1F05A
  8
0
 10
5068.3183637917109081
 20
502.6318682433901017
 30
0.0
 40
0.0400000000000018
 50
90.0000589737997245
 51
179.9999999999934914
  0
ARC
  5
1F05B
  8
0
 10
5068.2583637917114174
 20
500.0418682433901267
 30
0.0
 40
0.0200000000000014
 50
0.0000000000065138
 51
90.0
  0
ARC
  5
1F05C
  8
0
 10
5068.2583637913776329
 20
499.5118682435286246
 30
0.0
 40
0.0200000003346072
 50
270.0080215963957926
 51
359.9999996029429781
  0
LINE
  5
1F05D
  8
0
 10
5076.864863791712196
 20
502.9818682433901245
 30
0.0
 11
5074.114863791712196
 21
502.9818682433901245
 31
0.0
  0
LINE
  5
1F05E
  8
0
 10
5078.2798637917130691
 20
499.4918682433901154
 30
0.0
 11
5074.7213609919808732
 21
499.4918682433901154
 31
0.0
  0
LINE
  5
1F05F
  8
0
 10
5076.864863791712196
 20
502.6718682433901222
 30
0.0
 11
5074.114863791712196
 21
502.6718682433901222
 31
0.0
  0
LINE
  5
1F060
  8
0
 10
5076.864863791712196
 20
502.9818682433901245
 30
0.0
 11
5076.864863791712196
 21
502.6718682433901222
 31
0.0
  0
LINE
  5
1F061
  8
0
 10
5074.114863791712196
 20
502.9818682433901245
 30
0.0
 11
5074.114863791712196
 21
502.6718682433901222
 31
0.0
  0
LINE
  5
1F062
  8
0
 10
5076.2783637917109445
 20
500.0618682433901085
 30
0.0
 11
5076.2783637917109445
 21
502.6318682433901017
 31
0.0
  0
LINE
  5
1F063
  8
0
 10
5074.7013637917116284
 20
499.5118682435286246
 30
0.0
 11
5074.7013637917116284
 21
500.0418682433901267
 31
0.0
  0
LINE
  5
1F064
  8
0
 10
5074.7013637917116284
 20
500.0618682433901085
 30
0.0
 11
5074.7013637917116284
 21
502.6318682433901017
 31
0.0
  0
LINE
  5
1F065
  8
0
 10
5078.3198637917121232
 20
500.0618682433901085
 30
0.0
 11
5074.7013637917116284
 21
500.0618682433901085
 31
0.0
  0
LINE
  5
1F066
  8
0
 10
5078.3398637917107408
 20
499.5518682433901176
 30
0.0
 11
5078.3398637917107408
 21
500.0418682433901267
 31
0.0
  0
ARC
  5
1F067
  8
0
 10
5078.3198637917121232
 20
500.0418682433901267
 30
0.0
 40
0.0199999999999996
 50
0.0
 51
90.0
  0
ARC
  5
1F068
  8
0
 10
5078.2798637917130691
 20
499.5518682433901176
 30
0.0
 40
0.0600000000000037
 50
270.0
 51
359.9999999999935199
  0
LINE
  5
1F069
  8
0
 10
5076.2675566578227517
 20
500.0421347444312232
 30
0.0
 11
5076.2675566578227517
 21
499.5116017457859812
 31
0.0
  0
ARC
  5
1F06A
  8
0
 10
5076.2476898456807248
 20
499.5117350012317843
 30
0.0
 40
0.019867259038273
 50
270.4069805065669243
 51
359.6156977731973257
  0
ARC
  5
1F06B
  8
0
 10
5076.2476898488612278
 20
500.0420014872669867
 30
0.0
 40
0.0198672558704418
 50
0.3843072440408743
 51
89.5936082825882352
  0
ARC
  5
1F06C
  8
0
 10
5076.3183637917109081
 20
502.6318682433901017
 30
0.0
 40
0.0400000000000026
 50
90.0000589737997245
 51
179.9999999999967031
  0
ARC
  5
1F06D
  8
0
 10
5074.6613637917116648
 20
502.6318682433901017
 30
0.0
 40
0.0400000000000018
 50
0.0000000000065138
 51
89.9999410262002755
  0
ARC
  5
1F06E
  8
0
 10
5074.721363791712065
 20
500.0418682433901267
 30
0.0
 40
0.0200000000000014
 50
90.0
 51
179.9999999999934914
  0
ARC
  5
1F06F
  8
0
 10
5074.721363792046759
 20
499.5118682435286246
 30
0.0
 40
0.0200000003346072
 50
180.0000003970536966
 51
269.9919784036042074
  0
ENDSEC
  0
EOF
