  0
SECTION
  2
HEADER
  9
$ACADVER
  1
AC1009
  9
$INSBASE
 10
4772.6114159864800968
 20
209.138522076045291
 30
0.0
  9
$EXTMIN
 10
4769.9974766863151672
 20
176.6268016410953123
 30
0.0
  9
$EXTMAX
 10
4772.6249632477929481
 20
215.8851022702336877
 30
0.0
  9
$LIMMIN
 10
0.0
 20
0.0
  9
$LIMMAX
 10
11.6929133858000007
 20
8.2677165353999982
  9
$ORTHOMODE
 70
     0
  9
$REGENMODE
 70
     1
  9
$FILLMODE
 70
     1
  9
$QTEXTMODE
 70
     0
  9
$MIRRTEXT
 70
     0
  9
$DRAGMODE
 70
     2
  9
$LTSCALE
 40
0.6431102362
  9
$OSMODE
 70
  4095
  9
$ATTMODE
 70
     1
  9
$TEXTSIZE
 40
0.2
  9
$TRACEWID
 40
0.05
  9
$TEXTSTYLE
  7
STANDARD
  9
$CLAYER
  8
0
  9
$CELTYPE
  6
BYLAYER
  9
$CECOLOR
 62
   256
  9
$DIMSCALE
 40
1.0
  9
$DIMASZ
 40
0.1875
  9
$DIMEXO
 40
0.0625
  9
$DIMDLI
 40
0.4443307087
  9
$DIMRND
 40
0.0
  9
$DIMDLE
 40
0.0
  9
$DIMEXE
 40
0.125
  9
$DIMTP
 40
0.01
  9
$DIMTM
 40
0.01
  9
$DIMTXT
 40
2.0
  9
$DIMCEN
 40
0.1052362205
  9
$DIMTSZ
 40
0.0
  9
$DIMTOL
 70
     1
  9
$DIMLIM
 70
     0
  9
$DIMTIH
 70
     1
  9
$DIMTOH
 70
     1
  9
$DIMSE1
 70
     0
  9
$DIMSE2
 70
     0
  9
$DIMTAD
 70
     0
  9
$DIMZIN
 70
     0
  9
$DIMBLK
  1

  9
$DIMASO
 70
     1
  9
$DIMSHO
 70
     1
  9
$DIMPOST
  1
\X
  9
$DIMAPOST
  1

  9
$DIMALT
 70
     1
  9
$DIMALTD
 70
     2
  9
$DIMALTF
 40
25.3999999999999986
  9
$DIMLFAC
 40
1.0
  9
$DIMTOFL
 70
     0
  9
$DIMTVP
 40
0.0
  9
$DIMTIX
 70
     0
  9
$DIMSOXD
 70
     0
  9
$DIMSAH
 70
     0
  9
$DIMBLK1
  1

  9
$DIMBLK2
  1

  9
$DIMSTYLE
  2
STANDARD
  9
$DIMCLRD
 70
     0
  9
$DIMCLRE
 70
     0
  9
$DIMCLRT
 70
     0
  9
$DIMTFAC
 40
1.0
  9
$DIMGAP
 40
0.09
  9
$LUNITS
 70
     2
  9
$LUPREC
 70
     4
  9
$SKETCHINC
 40
0.1
  9
$FILLETRAD
 40
0.0
  9
$AUNITS
 70
     0
  9
$AUPREC
 70
     0
  9
$MENU
  1
.
  9
$ELEVATION
 40
0.0
  9
$PELEVATION
 40
0.0
  9
$THICKNESS
 40
0.0
  9
$LIMCHECK
 70
     0
  9
$BLIPMODE
 70
     0
  9
$CHAMFERA
 40
0.0
  9
$CHAMFERB
 40
0.0
  9
$SKPOLY
 70
     0
  9
$TDCREATE
 40
2458060.468368056230247
  9
$TDUPDATE
 40
2459660.4315046300180256
  9
$TDINDWG
 40
0.4183519676
  9
$TDUSRTIMER
 40
0.4183519676
  9
$USRTIMER
 70
     1
  9
$ANGBASE
 50
0.0
  9
$ANGDIR
 70
     0
  9
$PDMODE
 70
     0
  9
$PDSIZE
 40
0.3125
  9
$PLINEWID
 40
0.0
  9
$COORDS
 70
     1
  9
$SPLFRAME
 70
     0
  9
$SPLINETYPE
 70
     6
  9
$SPLINESEGS
 70
     8
  9
$ATTDIA
 70
     1
  9
$ATTREQ
 70
     1
  9
$HANDLING
 70
     1
  9
$HANDSEED
  5
BFC3
  9
$SURFTAB1
 70
     6
  9
$SURFTAB2
 70
     6
  9
$SURFTYPE
 70
     6
  9
$SURFU
 70
     6
  9
$SURFV
 70
     6
  9
$UCSNAME
  2

  9
$UCSORG
 10
0.0
 20
0.0
 30
0.0
  9
$UCSXDIR
 10
1.0
 20
0.0
 30
0.0
  9
$UCSYDIR
 10
0.0
 20
1.0
 30
0.0
  9
$PUCSNAME
  2

  9
$PUCSORG
 10
0.0
 20
0.0
 30
0.0
  9
$PUCSXDIR
 10
1.0
 20
0.0
 30
0.0
  9
$PUCSYDIR
 10
0.0
 20
1.0
 30
0.0
  9
$USERI1
 70
     0
  9
$USERI2
 70
     0
  9
$USERI3
 70
     0
  9
$USERI4
 70
     0
  9
$USERI5
 70
     0
  9
$USERR1
 40
0.0
  9
$USERR2
 40
0.0
  9
$USERR3
 40
0.0
  9
$USERR4
 40
0.0
  9
$USERR5
 40
0.0
  9
$WORLDVIEW
 70
     1
  9
$SHADEDGE
 70
     3
  9
$SHADEDIF
 70
    70
  9
$TILEMODE
 70
     1
  9
$MAXACTVP
 70
    64
  9
$PLIMCHECK
 70
     0
  9
$PEXTMIN
 10
1.0000000000000000E+20
 20
1.0000000000000000E+20
 30
1.0000000000000000E+20
  9
$PEXTMAX
 10
-1.0000000000000000E+20
 20
-1.0000000000000000E+20
 30
-1.0000000000000000E+20
  9
$PLIMMIN
 10
0.0
 20
0.0
  9
$PLIMMAX
 10
12.0
 20
9.0
  9
$UNITMODE
 70
     0
  9
$VISRETAIN
 70
     1
  9
$PLINEGEN
 70
     0
  9
$PSLTSCALE
 70
     1
  0
ENDSEC
  0
SECTION
  2
TABLES
  0
TABLE
  2
VPORT
 70
     1
  0
VPORT
  2
*ACTIVE
 70
     0
 10
0.0
 20
0.0
 11
1.0
 21
1.0
 12
967.7671525842420124
 22
70.2606897589145944
 13
0.0
 23
0.0
 14
1.0
 24
1.0
 15
0.0
 25
0.0
 16
0.0
 26
0.0
 36
17.1152628219792007
 17
3803.5440673828129547
 27
125.9952621967499056
 37
0.0
 40
39.5041772510327434
 41
2.005224660397074
 42
50.0
 43
0.0
 44
0.0
 50
0.0
 51
0.0
 71
     0
 72
   100
 73
     1
 74
     1
 75
     0
 76
     0
 77
     0
 78
     0
  0
ENDTAB
  0
TABLE
  2
LTYPE
 70
     2
  0
LTYPE
  2
CONTINUOUS
 70
     0
  3
Solid line
 72
    65
 73
     0
 40
0.0
  0
LTYPE
  2
PHANTOM2
 70
     0
  3
___ _ _ ___ _ _ ___ _ _ ___ _ _
 72
    65
 73
     6
 40
1.25
 49
0.625
 49
-0.125
 49
0.125
 49
-0.125
 49
0.125
 49
-0.125
  0
ENDTAB
  0
TABLE
  2
LAYER
 70
     2
  0
LAYER
  2
0
 70
     0
 62
   255
  6
CONTINUOUS
  0
LAYER
  2
DEFPOINTS
 70
     0
 62
     7
  6
CONTINUOUS
  0
ENDTAB
  0
TABLE
  2
STYLE
 70
     1
  0
STYLE
  2
STANDARD
 70
     0
 40
0.0
 41
0.8
 50
0.0
 71
     0
 42
0.2
  3
txt
  4

  0
ENDTAB
  0
TABLE
  2
VIEW
 70
     0
  0
ENDTAB
  0
TABLE
  2
UCS
 70
     0
  0
ENDTAB
  0
TABLE
  2
APPID
 70
     9
  0
APPID
  2
ACAD
 70
     0
  0
APPID
  2
ACAD_MLEADERVER
 70
     0
  0
APPID
  2
ACAD_EXEMPT_FROM_CAD_STANDARDS
 70
     0
  0
APPID
  2
ACAD_NAV_VCDISPLAY
 70
     0
  0
APPID
  2
ACAECLAYERSTANDARD
 70
     0
  0
APPID
  2
ACCMTRANSPARENCY
 70
     0
  0
APPID
  2
ACAD_DSTYLE_DIMJAG
 70
     0
  0
APPID
  2
ACAD_DSTYLE_DIMTALN
 70
     0
  0
APPID
  2
ACDBATTR
 70
     0
  0
ENDTAB
  0
TABLE
  2
DIMSTYLE
 70
     1
  0
DIMSTYLE
  2
STANDARD
 70
     0
  3

  4

  5

  6

  7

 40
1.0
 41
0.1875
 42
0.0625
 43
0.38
 44
0.125
 45
0.0
 46
0.0
 47
0.01
 48
0.01
140
0.15625
141
0.09
142
0.0
143
25.3999999999999986
144
1.0
145
0.0
146
1.0
147
0.09
 71
     1
 72
     0
 73
     1
 74
     1
 75
     0
 76
     0
 77
     0
 78
     4
170
     0
171
     2
172
     0
173
     0
174
     0
175
     0
176
     0
177
     0
178
     0
  0
ENDTAB
  0
ENDSEC
  0
SECTION
  2
BLOCKS
  0
BLOCK
  8
0
  2
$MODEL_SPACE
 70
     0
 10
0.0
 20
0.0
 30
0.0
  3
$MODEL_SPACE
  1

  0
ENDBLK
  5
21
  8
0
  0
BLOCK
 67
     1
  8
0
  2
$PAPER_SPACE
 70
     0
 10
0.0
 20
0.0
 30
0.0
  3
$PAPER_SPACE
  1

  0
ENDBLK
  5
1D
 67
     1
  8
0
  0
ENDSEC
  0
SECTION
  2
ENTITIES
  0
ATTDEF
  5
3930
  8
DEFPOINTS
 10
4772.6142965811241083
 20
209.1377387570919097
 30
0.0
 40
0.001
  1
K-97258IN
  3

  2
MODELNUMBER
 70
     0
1001
ACDBATTR
1070
     0
1070
     1
  0
ATTDEF
  5
3931
  8
DEFPOINTS
 10
4772.6142965811241083
 20
209.1360720904253014
 30
0.0
 40
0.001
  1

  3

  2
TRADENAME
 70
     0
1001
ACDBATTR
1070
     0
1070
     1
  0
ATTDEF
  5
3932
  8
DEFPOINTS
 10
4772.6142965811241083
 20
209.1344054237586079
 30
0.0
 40
0.001
  1
HYGIENE SPRAY
  3

  2
PRODUCT
 70
     0
1001
ACDBATTR
1070
     0
1070
     1
  0
LINE
  5
BDB7
  8
0
 10
4771.532753034444795
 20
213.302993593843496
 30
0.0
 11
4771.5321514371753437
 21
215.8260163622180983
 31
0.0
  0
ARC
  5
BDB8
  8
0
 10
4582.3938472338641077
 20
219.3358079326733048
 30
0.0
 40
189.2471968238085083
 50
357.1400823577101846
 51
357.7151734117887827
  0
ARC
  5
BDB9
  8
0
 10
4708.508854799339133
 20
214.3039580362190861
 30
0.0
 40
63.0318465425530619
 50
357.7151734117887827
 51
359.0900877586299771
  0
LINE
  5
BDBA
  8
0
 10
4771.4714051060191196
 20
215.8850793350574975
 30
0.0
 11
4770.0751671894558967
 21
215.8461696103574923
 31
0.0
  0
ARC
  5
BDBB
  8
0
 10
4771.4730514388556912
 20
215.8260022702336869
 30
0.0
 40
0.0591
 50
0.0136617807356306
 51
91.5962796467415359
  0
LINE
  5
BDBC
  8
0
 10
4770.4791620999058068
 20
209.8747425484453117
 30
0.0
 11
4771.3856623314659373
 21
209.8747425484453117
 31
0.0
  0
LINE
  5
BDBD
  8
0
 10
4770.4595839235689709
 20
211.4285932156695083
 30
0.0
 11
4770.4594620999696417
 21
209.8944441127815139
 31
0.0
  0
ARC
  5
BDBE
  8
0
 10
4748.2567214277696621
 20
211.778874467331292
 30
0.0
 40
22.3063955315506313
 50
359.8170070320152263
 51
3.5846788563363838
  0
ARC
  5
BDBF
  8
0
 10
4770.2008017242496862
 20
213.1535879058505998
 30
0.0
 40
0.3192971077826933
 50
3.5846788563363838
 51
32.0278986982596905
  0
ARC
  5
BDC0
  8
0
 10
4770.0946832067111245
 20
213.0962732597010074
 30
0.0
 40
0.4397263202968018
 50
31.0262051033509501
 51
48.7656343374081302
  0
ARC
  5
BDC1
  8
0
 10
4770.3903761787505573
 20
213.4371454353249078
 30
0.0
 40
0.0117499859894804
 50
185.7403784327580922
 51
240.1322714541549885
  0
ARC
  5
BDC2
  8
0
 10
4765.5388324266396012
 20
213.0495518313670971
 30
0.0
 40
4.8552541842699819
 50
4.5648652902406059
 51
15.0856681541085198
  0
ARC
  5
BDC3
  8
0
 10
4769.5547675749812697
 20
214.0957405190104907
 30
0.0
 40
0.7063038739564541
 50
17.9313019194866001
 51
28.03462877529984
  0
ARC
  5
BDC4
  8
0
 10
4769.795188691243311
 20
214.2284110903146086
 30
0.0
 40
0.4317565455533138
 50
27.4899585255547798
 51
53.3756388463394629
  0
LINE
  5
BDC5
  8
0
 10
4770.0368647446803152
 20
215.8067849004750087
 30
0.0
 11
4770.0368647446803152
 21
214.6065443242441972
 31
0.0
  0
ARC
  5
BDC6
  8
0
 10
4770.0762647446790652
 20
215.8067849004750087
 30
0.0
 40
0.0394
 50
91.5962796467415359
 51
179.9999999999901945
  0
ARC
  5
BDC7
  8
0
 10
4770.0762647446790652
 20
214.6065443242441972
 30
0.0
 40
0.0394
 50
180.0000000000098055
 51
233.3756388463228859
  0
ARC
  5
BDC8
  8
0
 10
4770.197557786960715
 20
211.7070572306668907
 30
0.0
 40
0.3654458553319007
 50
335.5720615825568984
 51
0.0900762356886517
  0
ARC
  5
BDC9
  8
0
 10
4769.7376363899393255
 20
211.9159573020583025
 30
0.0
 40
0.8705863617910827
 50
329.2248607962188203
 51
335.5720615825568984
  0
ARC
  5
BDCA
  8
0
 10
4770.1841230818008626
 20
211.6500603240521059
 30
0.0
 40
0.3509214996711538
 50
322.3690356781299897
 51
329.2248607962188203
  0
ARC
  5
BDCB
  8
0
 10
4770.4713839235309933
 20
211.4285922786561116
 30
0.0
 40
0.0118
 50
142.3690356765467016
 51
179.9954502614691876
  0
LINE
  5
BDCC
  8
0
 10
4770.413740415346183
 20
211.4568733049748062
 30
0.0
 11
4770.4791313059913591
 21
211.4600181008707978
 31
0.0
  0
ARC
  5
BDCD
  8
0
 10
4746.9815897448916076
 20
209.8478947316735059
 30
0.0
 40
23.4487670843918288
 50
4.0241633226950233
 51
8.5459729985793924
  0
LINE
  5
BDCE
  8
0
 10
4770.2044376545591149
 20
213.3774440428913977
 30
0.0
 11
4770.411332388000119
 21
213.4013839490419002
 31
0.0
  0
ARC
  5
BDCF
  8
0
 10
4770.2089664337945578
 20
213.3383051854908103
 30
0.0
 40
0.0394
 50
96.6003740397089814
 51
188.5459729985728927
  0
ARC
  5
BDD0
  8
0
 10
4770.4118477676493058
 20
211.4962278204044139
 30
0.0
 40
0.0394
 50
184.0241633226982003
 51
272.7533622727352167
  0
ARC
  5
BDD1
  8
0
 10
4770.4791620999058068
 20
209.894442548445312
 30
0.0
 40
0.0197
 50
179.9954502609253097
 51
270.0
  0
ARC
  5
BDD2
  8
0
 10
4771.3856623314659373
 20
209.8944425484453973
 30
0.0
 40
0.0197
 50
270.0000000000521254
 51
357.1400822084953006
  0
LINE
  5
BDD3
  8
0
 10
4770.006857971635327
 20
214.817463581514204
 30
0.0
 11
4770.0274834593610649
 21
214.8131441407207092
 31
0.0
  0
LINE
  5
BDD4
  8
0
 10
4769.9974766863151672
 20
214.8290130325528082
 30
0.0
 11
4769.9974766863151672
 21
215.6012601300184031
 31
0.0
  0
LINE
  5
BDD5
  8
0
 10
4770.0068579716225941
 20
214.9190178548157917
 30
0.0
 11
4770.0274834593710693
 21
214.9146984139966037
 31
0.0
  0
LINE
  5
BDD6
  8
0
 10
4770.006857971635327
 20
214.8351114727443019
 30
0.0
 11
4770.0274834593610649
 21
214.8307920319508071
 31
0.0
  0
LINE
  5
BDD7
  8
0
 10
4770.006857863393634
 20
215.0101549109888026
 30
0.0
 11
4770.0274835676009388
 21
215.014474598898488
 31
0.0
  0
LINE
  5
BDD8
  8
0
 10
4770.0068579716225941
 20
215.0525387417563934
 30
0.0
 11
4770.0274834593710693
 21
215.0482193009372054
 31
0.0
  0
LINE
  5
BDD9
  8
0
 10
4770.0068578633408833
 20
215.1436739539878999
 30
0.0
 11
4770.027483567654599
 21
215.1479936420205092
 31
0.0
  0
LINE
  5
BDDA
  8
0
 10
4770.006857863404548
 20
215.190518382237002
 30
0.0
 11
4770.0274835675900249
 21
215.1948380701211079
 31
0.0
  0
LINE
  5
BDDB
  8
0
 10
4770.0068579716225941
 20
215.2092374319674093
 30
0.0
 11
4770.0274834593710693
 21
215.2049179911481929
 31
0.0
  0
LINE
  5
BDDC
  8
0
 10
4770.0068578633408833
 20
215.3003725085737017
 30
0.0
 11
4770.027483567654599
 21
215.304692196606311
 31
0.0
  0
LINE
  5
BDDD
  8
0
 10
4770.006857863404548
 20
215.3141261438954075
 30
0.0
 11
4770.0274835675900249
 21
215.3184458317795134
 31
0.0
  0
LINE
  5
BDDE
  8
0
 10
4770.0068579716225941
 20
215.3580785060248957
 30
0.0
 11
4770.0274834593710693
 21
215.353759065205594
 31
0.0
  0
LINE
  5
BDDF
  8
0
 10
4770.0068578633517973
 20
215.4492151821781931
 30
0.0
 11
4770.0274835676436851
 21
215.4535348701851092
 31
0.0
  0
LINE
  5
BDE0
  8
0
 10
4770.006857971635327
 20
215.4695828079904061
 30
0.0
 11
4770.0274834593610649
 21
215.4652633671969113
 31
0.0
  0
LINE
  5
BDE1
  8
0
 10
4770.0068578633517973
 20
215.56072250205861
 30
0.0
 11
4770.0274835676436851
 21
215.5650421900654976
 31
0.0
  0
LINE
  5
BDE2
  8
0
 10
4770.0068578633517973
 20
215.6128095583796949
 30
0.0
 11
4770.0274835676436851
 21
215.6171292463866109
 31
0.0
  0
ARC
  5
BDE3
  8
0
 10
4770.0092766863153884
 20
214.8466609237829061
 30
0.0
 40
0.0118
 50
180.0
 51
258.1719163981546785
  0
ARC
  5
BDE4
  8
0
 10
4770.0092766863153884
 20
214.9305673058520938
 30
0.0
 40
0.0118
 50
180.0000000000163141
 51
258.1719163421461758
  0
ARC
  5
BDE5
  8
0
 10
4770.0092766863153884
 20
214.9986054826185864
 30
0.0
 40
0.0118
 50
101.8286205725446933
 51
180.0000000000341913
  0
ARC
  5
BDE6
  8
0
 10
4770.0092766863153884
 20
215.6012601300184031
 30
0.0
 40
0.0118
 50
101.828620783591802
 51
180.0000000000163141
  0
ARC
  5
BDE7
  8
0
 10
4770.0092766863153884
 20
215.5491730736974034
 30
0.0
 40
0.0118
 50
101.8286207835387955
 51
180.0
  0
ARC
  5
BDE8
  8
0
 10
4770.0092766863153884
 20
215.4376657538169866
 30
0.0
 40
0.0118
 50
101.8286207835911057
 51
180.0
  0
ARC
  5
BDE9
  8
0
 10
4770.0092766863153884
 20
215.2888230802147973
 30
0.0
 40
0.0118
 50
101.8286208394412995
 51
179.9999999999820943
  0
ARC
  5
BDEA
  8
0
 10
4770.0092766863153884
 20
215.0640881927926955
 30
0.0
 40
0.0118
 50
180.0000000000163141
 51
258.1719163422515066
  0
ARC
  5
BDEB
  8
0
 10
4770.0092766863153884
 20
215.1321245256289956
 30
0.0
 40
0.0118
 50
101.8286208394407026
 51
180.0000000000341913
  0
ARC
  5
BDEC
  8
0
 10
4770.0092766863153884
 20
215.1789689538645121
 30
0.0
 40
0.0118
 50
101.8286205166419052
 51
180.0000000000163141
  0
LINE
  5
BDED
  8
0
 10
4770.0079010614399522
 20
215.2075143726850968
 30
0.0
 11
4770.0125051228342272
 21
215.2080547915495004
 31
0.0
  0
ARC
  5
BDEE
  8
0
 10
4770.0092766863153884
 20
215.1957948310472091
 30
0.0
 40
0.0118
 50
96.6946719292850645
 51
179.9999999999820943
  0
ARC
  5
BDEF
  8
0
 10
4770.0092766863153884
 20
215.2207868830037114
 30
0.0
 40
0.0118
 50
180.0
 51
258.1719163421997791
  0
ARC
  5
BDF0
  8
0
 10
4770.0092766863153884
 20
215.3266887313749862
 30
0.0
 40
0.0118
 50
180.0
 51
281.8286205165895808
  0
ARC
  5
BDF1
  8
0
 10
4770.0092766863153884
 20
215.3696279570611125
 30
0.0
 40
0.0118
 50
180.0000000000341913
 51
258.1719163423048258
  0
ARC
  5
BDF2
  8
0
 10
4770.0092766863153884
 20
214.8290130325528082
 30
0.0
 40
0.0118
 50
180.0
 51
258.1719163981543943
  0
ARC
  5
BDF3
  8
0
 10
4770.0092766863153884
 20
215.3025767155228891
 30
0.0
 40
0.0118
 50
101.8286205165898934
 51
180.0
  0
LINE
  5
BDF4
  8
0
 10
4770.007500810921556
 20
215.0167173741793079
 30
0.0
 11
4770.0252736840266152
 21
215.0140117779806133
 31
0.0
  0
ARC
  5
BDF5
  8
0
 10
4770.0092766863153884
 20
215.0283829760319918
 30
0.0
 40
0.0118
 50
180.0000000000163141
 51
261.3442174602083128
  0
ARC
  5
BDF6
  8
0
 10
4770.0092955645786787
 20
214.9147586978452864
 30
0.0
 40
0.0118110236000036
 50
138.0068714162466108
 51
180.0002685326834921
  0
ARC
  5
BDF7
  8
0
 10
4770.0092766863153884
 20
215.4811322590290104
 30
0.0
 40
0.0118
 50
180.0
 51
258.1719163981537122
  0
ARC
  5
BDF8
  8
0
 10
4770.025064744680094
 20
214.8015946896821049
 30
0.0
 40
0.0118
 50
359.9999999999820943
 51
78.1719163981550338
  0
ARC
  5
BDF9
  8
0
 10
4770.025064744680094
 20
214.8192425809122028
 30
0.0
 40
0.0118
 50
359.9999999999657803
 51
78.1719163981557159
  0
ARC
  5
BDFA
  8
0
 10
4770.025064744680094
 20
214.9031489629603016
 30
0.0
 40
0.0118
 50
0.0
 51
78.1719163421982159
  0
ARC
  5
BDFB
  8
0
 10
4770.025064744680094
 20
215.628678674747789
 30
0.0
 40
0.0118
 50
281.8286207835914752
 51
0.0000000000162844
  0
ARC
  5
BDFC
  8
0
 10
4770.025064744680094
 20
215.5765916184267041
 30
0.0
 40
0.0118
 50
281.8286207835910773
 51
0.0000000000162844
  0
ARC
  5
BDFD
  8
0
 10
4770.025064744680094
 20
215.4650842985462873
 30
0.0
 40
0.0118
 50
281.8286207834860875
 51
0.0
  0
ARC
  5
BDFE
  8
0
 10
4770.025064744680094
 20
215.3299952601520033
 30
0.0
 40
0.0118
 50
281.8286205165902061
 51
359.9999999999820943
  0
ARC
  5
BDFF
  8
0
 10
4770.025064744680094
 20
215.3162416249651869
 30
0.0
 40
0.0118
 50
281.8286208394407026
 51
0.0
  0
ARC
  5
BE00
  8
0
 10
4770.025064744680094
 20
215.2063874984935978
 30
0.0
 40
0.0118
 50
281.8286205165895808
 51
326.519662834007022
  0
ARC
  5
BE01
  8
0
 10
4770.025064744680094
 20
215.1595430703792999
 30
0.0
 40
0.0118
 50
281.8286208394422943
 51
359.9999999999820943
  0
ARC
  5
BE02
  8
0
 10
4770.025064744680094
 20
215.0260240272687042
 30
0.0
 40
0.0118
 50
281.8286205725444233
 51
359.9999999999820943
  0
ARC
  5
BE03
  8
0
 10
4770.025064744680094
 20
215.0366698499009033
 30
0.0
 40
0.0118
 50
0.0
 51
78.171916342252203
  0
ARC
  5
BE04
  8
0
 10
4770.025064744680094
 20
215.1933685401118908
 30
0.0
 40
0.0118
 50
359.9999999999820943
 51
78.1719163421998644
  0
ARC
  5
BE05
  8
0
 10
4770.025064744680094
 20
215.3422096141694055
 30
0.0
 40
0.0118
 50
359.9999999999820943
 51
78.1719163423048826
  0
ARC
  5
BE06
  8
0
 10
4770.025064744680094
 20
215.453713916158307
 30
0.0
 40
0.0118
 50
28.8027585426233799
 51
78.1719163981017147
  0
LINE
  5
BE07
  8
0
 10
4772.6114159864800968
 20
208.2133421134452931
 30
0.0
 11
4772.6114159864800968
 21
210.0637020386452889
 31
0.0
  0
LINE
  5
BE08
  8
0
 10
4772.4539655927801505
 20
208.2133421134452931
 30
0.0
 11
4772.6114159864800968
 21
208.2133421134452931
 31
0.0
  0
LINE
  5
BE09
  8
0
 10
4772.4145655927795815
 20
208.2527421134452936
 30
0.0
 11
4772.4145655927795815
 21
210.0243020386452883
 31
0.0
  0
LINE
  5
BE0A
  8
0
 10
4772.4539655927801505
 20
210.0637020386452889
 30
0.0
 11
4772.6114159864800968
 21
210.0637020386452889
 31
0.0
  0
LINE
  5
BE0B
  8
0
 10
4772.2767655927800661
 20
208.4415184896454036
 30
0.0
 11
4771.4505569370548983
 21
208.4415184896454036
 31
0.0
  0
LINE
  5
BE0C
  8
0
 10
4772.2767655927800661
 20
209.835525662545308
 30
0.0
 11
4771.4502942373410406
 21
209.835525662545308
 31
0.0
  0
ARC
  5
BE0D
  8
0
 10
4772.2767655927800661
 20
209.9733256625453066
 30
0.0
 40
0.1378
 50
270.0
 51
0.0000000000016284
  0
ARC
  5
BE0E
  8
0
 10
4772.2767655927800661
 20
208.303718489645405
 30
0.0
 40
0.1378
 50
359.9999999999984084
 51
90.0
  0
ARC
  5
BE0F
  8
0
 10
4772.4539655927801505
 20
208.2527421134452936
 30
0.0
 40
0.0394
 50
179.9999999999901945
 51
270.0
  0
ARC
  5
BE10
  8
0
 10
4772.4539655927801505
 20
210.0243020386452883
 30
0.0
 40
0.0394
 50
90.0
 51
180.0000000000098055
  0
ARC
  5
BE11
  8
0
 10
4785.4430516120009997
 20
209.1468262879702991
 30
0.0
 40
15.1218400693943202
 50
178.3180058760783879
 51
181.7452753796328011
  0
ARC
  5
BE12
  8
0
 10
4770.9961252987332045
 20
210.1921712981149142
 30
0.0
 40
0.618719111186535
 50
239.706480954976314
 51
255.2738776933074121
  0
ARC
  5
BE13
  8
0
 10
4770.9291212592534066
 20
209.9372406742218971
 30
0.0
 40
0.3551301047672268
 50
255.2738776933074121
 51
286.93560832673802
  0
ARC
  5
BE14
  8
0
 10
4770.8259132908251559
 20
210.2761806404579943
 30
0.0
 40
0.7094353198842852
 50
286.93560832673802
 51
300.3782224932086251
  0
ARC
  5
BE15
  8
0
 10
4770.2538545245697605
 20
211.2520808680467042
 30
0.0
 40
1.8406437384600081
 50
300.3782224932086251
 51
309.0346348434612196
  0
ARC
  5
BE16
  8
0
 10
4771.0041203007676813
 20
208.0649428532611012
 30
0.0
 40
0.6400362315794528
 50
104.9812914372594008
 51
120.0450517308342029
  0
ARC
  5
BE17
  8
0
 10
4770.9286388660239027
 20
208.347011781914091
 30
0.0
 40
0.3480425201702717
 50
74.1592599812141628
 51
104.9812914372594008
  0
ARC
  5
BE18
  8
0
 10
4770.8345953379839557
 20
208.0155687155364888
 30
0.0
 40
0.6925692846109911
 50
58.7531948829616724
 51
74.1592599812146034
  0
ARC
  5
BE19
  8
0
 10
4770.0969132538311896
 20
206.799753407199006
 30
0.0
 40
2.1146739647482979
 50
51.4852612973105224
 51
58.7531948829616724
  0
ARC
  5
BE1A
  8
0
 10
4771.4502942373410406
 20
209.7764256625453072
 30
0.0
 40
0.0591
 50
90.0
 51
129.0346348434478898
  0
ARC
  5
BE1B
  8
0
 10
4771.4505569370548983
 20
208.5006184896454045
 30
0.0
 40
0.0591
 50
231.4852612973095063
 51
270.0
  0
LINE
  5
BE1C
  8
0
 10
4770.4802294450691988
 20
209.8540115301069022
 30
0.0
 11
4770.4900823651896644
 21
209.666006614590998
 31
0.0
  0
LINE
  5
BE1D
  8
0
 10
4771.3835683228899143
 20
209.8540115300928903
 30
0.0
 11
4771.3805579980053153
 21
209.7965711103051945
 31
0.0
  0
ARC
  5
BE1E
  8
0
 10
4771.3638953210547697
 20
209.8550425484453115
 30
0.0
 40
0.0197
 50
356.9999999579392806
 51
90.0
  0
ARC
  5
BE1F
  8
0
 10
4770.4999024469034339
 20
209.8550425484453115
 30
0.0
 40
0.0197
 50
90.0
 51
183.0000000014090062
  0
LINE
  5
BE20
  8
0
 10
4770.4057904805777071
 20
208.6110375375996
 30
0.0
 11
4770.6540762116082988
 21
208.6110375375996
 31
0.0
  0
LINE
  5
BE21
  8
0
 10
4770.4052935982308554
 20
209.666006614590998
 30
0.0
 11
4770.654213032633379
 21
209.666006614590998
 31
0.0
  0
ARC
  5
BE22
  8
0
 10
4770.4052935982308554
 20
209.5884066145910936
 30
0.0
 40
0.0776
 50
90.0
 51
178.3180058760734994
  0
ARC
  5
BE23
  8
0
 10
4770.4057904805777071
 20
208.6886375375995897
 30
0.0
 40
0.0776
 50
181.7452753796343927
 51
270.0
  0
ARC
  5
BE24
  8
0
 10
4770.654213032633379
 20
209.6069066145911961
 30
0.0
 40
0.0591
 50
59.7064809549148308
 51
90.0
  0
ARC
  5
BE25
  8
0
 10
4770.6540762116082988
 20
208.6701375375994019
 30
0.0
 40
0.0591
 50
270.0
 51
300.0450517309471934
  0
LINE
  5
BE26
  8
0
 10
4771.2074894351790135
 20
208.5993273908420917
 30
0.0
 11
4771.2074894351790135
 21
176.9023921922953093
 31
0.0
  0
LINE
  5
BE27
  8
0
 10
4770.6563083327800996
 20
208.6110797046297023
 30
0.0
 11
4770.6563083327800996
 21
176.9023921922953093
 31
0.0
  0
ARC
  5
BE28
  8
0
 10
4770.9318988839786471
 20
176.9023921922953093
 30
0.0
 40
0.2755905512000005
 50
180.0
 51
0.0
  0
LINE
  5
BE29
  8
0
 10
4771.381279998867285
 20
189.1109630208453041
 30
0.0
 11
4771.2074894351790135
 21
189.1109630208453041
 31
0.0
  0
LINE
  5
BE2A
  8
0
 10
4770.6563083327800996
 20
189.1109630208453041
 30
0.0
 11
4770.4825177689917837
 21
189.1109630208453041
 31
0.0
  0
LINE
  5
BE2B
  8
0
 10
4771.3801560242009145
 20
188.5991519972452863
 30
0.0
 11
4771.2074894351790135
 21
188.5991519972452863
 31
0.0
  0
LINE
  5
BE2C
  8
0
 10
4770.6563083327800996
 20
188.5991519972452863
 30
0.0
 11
4770.4825186527787082
 21
188.5991519972452863
 31
0.0
  0
ARC
  5
BE2D
  8
0
 10
4771.2271701555891923
 20
188.8550587948994064
 30
0.0
 40
0.7873970724628298
 50
161.0344113618172059
 51
198.9657865132149936
  0
ARC
  5
BE2E
  8
0
 10
4770.6425712431546344
 20
188.8566785336612099
 30
0.0
 40
0.7812497847604501
 50
340.7534342207950999
 51
18.9949146885483202
  0
ARC
  5
BE2F
  8
0
 10
4771.6552700123802424
 20
188.856544688481506
 30
0.0
 40
0.4290471943234973
 50
147.7875292856099918
 51
213.3903476116632874
  0
ARC
  5
BE30
  8
0
 10
4771.3258364454723051
 20
188.6519972504501084
 30
0.0
 40
0.0427330902997323
 50
227.6357124147253046
 51
319.0243313234900029
  0
ARC
  5
BE31
  8
0
 10
4770.9646356918474339
 20
188.8549810713666943
 30
0.0
 40
0.45626447504581
 50
329.5824803233252851
 51
30.38166250960467
  0
ARC
  5
BE32
  8
0
 10
4771.3254578210771797
 20
189.0578389321858879
 30
0.0
 40
0.0430513217916021
 50
40.3982317500308099
 51
140.4485224762848077
  0
ARC
  5
BE33
  8
0
 10
4770.2074046646011993
 20
188.856544688481506
 30
0.0
 40
0.4290471943234973
 50
326.6096523883367126
 51
32.2124707143899798
  0
ARC
  5
BE34
  8
0
 10
4770.5368382315082272
 20
188.6519972504501084
 30
0.0
 40
0.0427330902997323
 50
220.9756686765099971
 51
312.3642875852747238
  0
ARC
  5
BE35
  8
0
 10
4770.8980389851340078
 20
188.8549810713666943
 30
0.0
 40
0.45626447504581
 50
149.6183374903953052
 51
210.4175196766746865
  0
ARC
  5
BE36
  8
0
 10
4770.5372168559051715
 20
189.0578389321858879
 30
0.0
 40
0.0430513217916021
 50
39.5514775237152278
 51
139.6017682499692114
  0
ENDSEC
  0
EOF
