  0
SECTION
  2
HEADER
  9
$ACADVER
  1
AC1009
  9
$INSBASE
 10
4782.960388221186804
 20
210.8554795491525056
 30
0.0
  9
$EXTMIN
 10
4778.561793413237865
 20
208.2415211334736966
 30
0.0
  9
$EXTMAX
 10
4783.8855681837867451
 20
210.8554795491525056
 30
0.0
  9
$LIMMIN
 10
0.0
 20
0.0
  9
$LIMMAX
 10
11.6929133858000007
 20
8.2677165353999982
  9
$ORTHOMODE
 70
     0
  9
$REGENMODE
 70
     1
  9
$FILLMODE
 70
     1
  9
$QTEXTMODE
 70
     0
  9
$MIRRTEXT
 70
     0
  9
$DRAGMODE
 70
     2
  9
$LTSCALE
 40
0.6431102362
  9
$OSMODE
 70
  4095
  9
$ATTMODE
 70
     1
  9
$TEXTSIZE
 40
0.2
  9
$TRACEWID
 40
0.05
  9
$TEXTSTYLE
  7
STANDARD
  9
$CLAYER
  8
0
  9
$CELTYPE
  6
BYLAYER
  9
$CECOLOR
 62
   256
  9
$DIMSCALE
 40
1.0
  9
$DIMASZ
 40
0.1875
  9
$DIMEXO
 40
0.0625
  9
$DIMDLI
 40
0.4443307087
  9
$DIMRND
 40
0.0
  9
$DIMDLE
 40
0.0
  9
$DIMEXE
 40
0.125
  9
$DIMTP
 40
0.01
  9
$DIMTM
 40
0.01
  9
$DIMTXT
 40
2.0
  9
$DIMCEN
 40
0.1052362205
  9
$DIMTSZ
 40
0.0
  9
$DIMTOL
 70
     1
  9
$DIMLIM
 70
     0
  9
$DIMTIH
 70
     1
  9
$DIMTOH
 70
     1
  9
$DIMSE1
 70
     0
  9
$DIMSE2
 70
     0
  9
$DIMTAD
 70
     0
  9
$DIMZIN
 70
     0
  9
$DIMBLK
  1

  9
$DIMASO
 70
     1
  9
$DIMSHO
 70
     1
  9
$DIMPOST
  1
\X
  9
$DIMAPOST
  1

  9
$DIMALT
 70
     1
  9
$DIMALTD
 70
     2
  9
$DIMALTF
 40
25.3999999999999986
  9
$DIMLFAC
 40
1.0
  9
$DIMTOFL
 70
     0
  9
$DIMTVP
 40
0.0
  9
$DIMTIX
 70
     0
  9
$DIMSOXD
 70
     0
  9
$DIMSAH
 70
     0
  9
$DIMBLK1
  1

  9
$DIMBLK2
  1

  9
$DIMSTYLE
  2
STANDARD
  9
$DIMCLRD
 70
     0
  9
$DIMCLRE
 70
     0
  9
$DIMCLRT
 70
     0
  9
$DIMTFAC
 40
1.0
  9
$DIMGAP
 40
0.09
  9
$LUNITS
 70
     2
  9
$LUPREC
 70
     4
  9
$SKETCHINC
 40
0.1
  9
$FILLETRAD
 40
0.0
  9
$AUNITS
 70
     0
  9
$AUPREC
 70
     0
  9
$MENU
  1
.
  9
$ELEVATION
 40
0.0
  9
$PELEVATION
 40
0.0
  9
$THICKNESS
 40
0.0
  9
$LIMCHECK
 70
     0
  9
$BLIPMODE
 70
     0
  9
$CHAMFERA
 40
0.0
  9
$CHAMFERB
 40
0.0
  9
$SKPOLY
 70
     0
  9
$TDCREATE
 40
2458060.468368056230247
  9
$TDUPDATE
 40
2459660.4322222219780087
  9
$TDINDWG
 40
0.418722338
  9
$TDUSRTIMER
 40
0.418722338
  9
$USRTIMER
 70
     1
  9
$ANGBASE
 50
0.0
  9
$ANGDIR
 70
     0
  9
$PDMODE
 70
     0
  9
$PDSIZE
 40
0.3125
  9
$PLINEWID
 40
0.0
  9
$COORDS
 70
     1
  9
$SPLFRAME
 70
     0
  9
$SPLINETYPE
 70
     6
  9
$SPLINESEGS
 70
     8
  9
$ATTDIA
 70
     1
  9
$ATTREQ
 70
     1
  9
$HANDLING
 70
     1
  9
$HANDSEED
  5
C098
  9
$SURFTAB1
 70
     6
  9
$SURFTAB2
 70
     6
  9
$SURFTYPE
 70
     6
  9
$SURFU
 70
     6
  9
$SURFV
 70
     6
  9
$UCSNAME
  2

  9
$UCSORG
 10
0.0
 20
0.0
 30
0.0
  9
$UCSXDIR
 10
1.0
 20
0.0
 30
0.0
  9
$UCSYDIR
 10
0.0
 20
1.0
 30
0.0
  9
$PUCSNAME
  2

  9
$PUCSORG
 10
0.0
 20
0.0
 30
0.0
  9
$PUCSXDIR
 10
1.0
 20
0.0
 30
0.0
  9
$PUCSYDIR
 10
0.0
 20
1.0
 30
0.0
  9
$USERI1
 70
     0
  9
$USERI2
 70
     0
  9
$USERI3
 70
     0
  9
$USERI4
 70
     0
  9
$USERI5
 70
     0
  9
$USERR1
 40
0.0
  9
$USERR2
 40
0.0
  9
$USERR3
 40
0.0
  9
$USERR4
 40
0.0
  9
$USERR5
 40
0.0
  9
$WORLDVIEW
 70
     1
  9
$SHADEDGE
 70
     3
  9
$SHADEDIF
 70
    70
  9
$TILEMODE
 70
     1
  9
$MAXACTVP
 70
    64
  9
$PLIMCHECK
 70
     0
  9
$PEXTMIN
 10
1.0000000000000000E+20
 20
1.0000000000000000E+20
 30
1.0000000000000000E+20
  9
$PEXTMAX
 10
-1.0000000000000000E+20
 20
-1.0000000000000000E+20
 30
-1.0000000000000000E+20
  9
$PLIMMIN
 10
0.0
 20
0.0
  9
$PLIMMAX
 10
12.0
 20
9.0
  9
$UNITMODE
 70
     0
  9
$VISRETAIN
 70
     1
  9
$PLINEGEN
 70
     0
  9
$PSLTSCALE
 70
     1
  0
ENDSEC
  0
SECTION
  2
TABLES
  0
TABLE
  2
VPORT
 70
     1
  0
VPORT
  2
*ACTIVE
 70
     0
 10
0.0
 20
0.0
 11
1.0
 21
1.0
 12
977.6796134157001461
 22
83.5532381445631955
 13
0.0
 23
0.0
 14
1.0
 24
1.0
 15
0.0
 25
0.0
 16
0.0
 26
0.0
 36
17.1152628219792007
 17
3803.5440673828129547
 27
125.9952621967499056
 37
0.0
 40
2.6632441573596202
 41
2.005224660397074
 42
50.0
 43
0.0
 44
0.0
 50
0.0
 51
0.0
 71
     0
 72
   100
 73
     1
 74
     1
 75
     0
 76
     0
 77
     0
 78
     0
  0
ENDTAB
  0
TABLE
  2
LTYPE
 70
     2
  0
LTYPE
  2
CONTINUOUS
 70
     0
  3
Solid line
 72
    65
 73
     0
 40
0.0
  0
LTYPE
  2
PHANTOM2
 70
     0
  3
___ _ _ ___ _ _ ___ _ _ ___ _ _
 72
    65
 73
     6
 40
1.25
 49
0.625
 49
-0.125
 49
0.125
 49
-0.125
 49
0.125
 49
-0.125
  0
ENDTAB
  0
TABLE
  2
LAYER
 70
     2
  0
LAYER
  2
0
 70
     0
 62
   255
  6
CONTINUOUS
  0
LAYER
  2
DEFPOINTS
 70
     0
 62
     7
  6
CONTINUOUS
  0
ENDTAB
  0
TABLE
  2
STYLE
 70
     1
  0
STYLE
  2
STANDARD
 70
     0
 40
0.0
 41
0.8
 50
0.0
 71
     0
 42
0.2
  3
txt
  4

  0
ENDTAB
  0
TABLE
  2
VIEW
 70
     0
  0
ENDTAB
  0
TABLE
  2
UCS
 70
     0
  0
ENDTAB
  0
TABLE
  2
APPID
 70
     9
  0
APPID
  2
ACAD
 70
     0
  0
APPID
  2
ACAD_MLEADERVER
 70
     0
  0
APPID
  2
ACAD_EXEMPT_FROM_CAD_STANDARDS
 70
     0
  0
APPID
  2
ACAD_NAV_VCDISPLAY
 70
     0
  0
APPID
  2
ACAECLAYERSTANDARD
 70
     0
  0
APPID
  2
ACCMTRANSPARENCY
 70
     0
  0
APPID
  2
ACAD_DSTYLE_DIMJAG
 70
     0
  0
APPID
  2
ACAD_DSTYLE_DIMTALN
 70
     0
  0
APPID
  2
ACDBATTR
 70
     0
  0
ENDTAB
  0
TABLE
  2
DIMSTYLE
 70
     1
  0
DIMSTYLE
  2
STANDARD
 70
     0
  3

  4

  5

  6

  7

 40
1.0
 41
0.1875
 42
0.0625
 43
0.38
 44
0.125
 45
0.0
 46
0.0
 47
0.01
 48
0.01
140
0.15625
141
0.09
142
0.0
143
25.3999999999999986
144
1.0
145
0.0
146
1.0
147
0.09
 71
     1
 72
     0
 73
     1
 74
     1
 75
     0
 76
     0
 77
     0
 78
     4
170
     0
171
     2
172
     0
173
     0
174
     0
175
     0
176
     0
177
     0
178
     0
  0
ENDTAB
  0
ENDSEC
  0
SECTION
  2
BLOCKS
  0
BLOCK
  8
0
  2
$MODEL_SPACE
 70
     0
 10
0.0
 20
0.0
 30
0.0
  3
$MODEL_SPACE
  1

  0
ENDBLK
  5
21
  8
0
  0
BLOCK
 67
     1
  8
0
  2
$PAPER_SPACE
 70
     0
 10
0.0
 20
0.0
 30
0.0
  3
$PAPER_SPACE
  1

  0
ENDBLK
  5
1D
 67
     1
  8
0
  0
ENDSEC
  0
SECTION
  2
ENTITIES
  0
ATTDEF
  5
3930
  8
DEFPOINTS
 10
4782.9556678605404159
 20
210.8529710359900946
 30
0.0
 40
0.001
  1
K-97258IN
  3

  2
MODELNUMBER
 70
     0
1001
ACDBATTR
1070
     0
1070
     1
  0
ATTDEF
  5
3931
  8
DEFPOINTS
 10
4782.9556678605404159
 20
210.8513043693234863
 30
0.0
 40
0.001
  1

  3

  2
TRADENAME
 70
     0
1001
ACDBATTR
1070
     0
1070
     1
  0
ATTDEF
  5
3932
  8
DEFPOINTS
 10
4782.9556678605404159
 20
210.8496377026567927
 30
0.0
 40
0.001
  1
HYGIENE SPRAY
  3

  2
PRODUCT
 70
     0
1001
ACDBATTR
1070
     0
1070
     1
  0
LINE
  5
BF2B
  8
0
 10
4782.0352082585868629
 20
210.8554795491525056
 30
0.0
 11
4783.8855681837867451
 21
210.8554795491525056
 31
0.0
  0
LINE
  5
BF2C
  8
0
 10
4782.5743721252329124
 20
208.2415402489882013
 30
0.0
 11
4783.3466247637779816
 21
208.2415402489882013
 31
0.0
  0
LINE
  5
BF2D
  8
0
 10
4783.8461681837879951
 20
210.6586291554525019
 30
0.0
 11
4782.0746082585883414
 21
210.6586291554525019
 31
0.0
  0
LINE
  5
BF2E
  8
0
 10
4782.3484478651425889
 20
209.7760928722086078
 30
0.0
 11
4783.5723285772310192
 21
209.7760928722086078
 31
0.0
  0
ARC
  5
BF2F
  8
0
 10
4934.7513085356240481
 20
213.5073131741636132
 30
0.0
 40
152.5090867777543906
 50
181.4246753388281945
 51
181.9495843052756925
  0
ARC
  5
BF30
  8
0
 10
4782.3484478651425889
 20
209.716992872208607
 30
0.0
 40
0.0591
 50
90.0
 51
181.424675338751598
  0
LINE
  5
BF31
  8
0
 10
4782.3698790065200228
 20
208.2808792651732119
 30
0.0
 11
4783.5508974358554042
 21
208.2808792651732119
 31
0.0
  0
ARC
  5
BF32
  8
0
 10
4782.3698790065200228
 20
208.3202792651732125
 30
0.0
 40
0.0394
 50
181.9495843052366126
 51
270.0
  0
ARC
  5
BF33
  8
0
 10
4631.1694679067513789
 20
213.5073131741636132
 30
0.0
 40
152.5090867777543906
 50
358.0504156947242791
 51
358.5753246611718055
  0
ARC
  5
BF34
  8
0
 10
4783.5723285772310192
 20
209.716992872208607
 30
0.0
 40
0.0591
 50
358.5753246612483167
 51
90.0
  0
ARC
  5
BF35
  8
0
 10
4783.5508974358554042
 20
208.3202792651732125
 30
0.0
 40
0.0394
 50
270.0
 51
358.0504156947632737
  0
LINE
  5
BF36
  8
0
 10
4782.0352082585868629
 20
210.6980291554525024
 30
0.0
 11
4782.0352082585868629
 21
210.8554795491525056
 31
0.0
  0
LINE
  5
BF37
  8
0
 10
4783.8855681837867451
 20
210.6980291554525024
 30
0.0
 11
4783.8855681837867451
 21
210.8554795491525056
 31
0.0
  0
LINE
  5
BF38
  8
0
 10
4782.2633846347371218
 20
210.5208291554525033
 30
0.0
 11
4782.2633846347371218
 21
210.1179872416718126
 31
0.0
  0
LINE
  5
BF39
  8
0
 10
4783.6573918076383052
 20
210.5208291554525033
 30
0.0
 11
4783.6573918076383052
 21
210.0949054234164066
 31
0.0
  0
ARC
  5
BF3A
  8
0
 10
4782.1255846347366969
 20
210.5208291554525033
 30
0.0
 40
0.1378
 50
0.0
 51
90.0
  0
ARC
  5
BF3B
  8
0
 10
4783.7951918076369111
 20
210.5208291554525033
 30
0.0
 40
0.1378
 50
90.0
 51
180.0000000000015916
  0
ARC
  5
BF3C
  8
0
 10
4783.8461681837879951
 20
210.6980291554525024
 30
0.0
 40
0.0394
 50
270.0
 51
0.0
  0
ARC
  5
BF3D
  8
0
 10
4782.0746082585883414
 20
210.6980291554525024
 30
0.0
 40
0.0394
 50
179.9999999999951115
 51
270.0
  0
LINE
  5
BF3E
  8
0
 10
4782.2633846347371218
 20
210.1179872416718126
 30
0.0
 11
4782.2711757848373963
 21
208.6300007830153049
 31
0.0
  0
LINE
  5
BF3F
  8
0
 10
4783.6573918076383052
 20
210.0949054234164066
 30
0.0
 11
4783.6497215148383475
 21
208.6300007829923118
 31
0.0
  0
ARC
  5
BF40
  8
0
 10
4782.330230093454702
 20
208.6303099934787042
 30
0.0
 40
0.0590551181298363
 50
180.3000000261152138
 51
262.0908094563313284
  0
ARC
  5
BF41
  8
0
 10
4783.5906672062383223
 20
208.6303099934524994
 30
0.0
 40
0.0590551180999828
 50
277.7902938394479975
 51
359.6999999985058025
  0
LINE
  5
BF42
  8
0
 10
4779.4693859523376887
 20
208.9855499202496105
 30
0.0
 11
4779.4693859523376887
 21
209.3663749730554002
 31
0.0
  0
LINE
  5
BF43
  8
0
 10
4778.561793413237865
 20
208.9855499204880118
 30
0.0
 11
4778.561793413237865
 21
209.3663749728171126
 31
0.0
  0
LINE
  5
BF44
  8
0
 10
4778.6202048450695656
 20
209.4689791944452963
 30
0.0
 11
4778.952970170403205
 21
209.6640882307345919
 31
0.0
  0
LINE
  5
BF45
  8
0
 10
4779.4070092558677061
 20
209.4742554272471011
 30
0.0
 11
4779.0716572112332869
 21
209.6648841343316008
 31
0.0
  0
LINE
  5
BF46
  8
0
 10
4779.41097452068243
 20
208.8829456989633968
 30
0.0
 11
4779.0782091951441544
 21
208.6878366625541048
 31
0.0
  0
LINE
  5
BF47
  8
0
 10
4778.9595221543177104
 20
208.6870407589877914
 30
0.0
 11
4778.6241701098851991
 21
208.8776694659576947
 31
0.0
  0
ARC
  5
BF48
  8
0
 10
4779.0155896828373443
 20
209.1759624466525054
 30
0.0
 40
0.4921259842999998
 50
323.4581321814978878
 51
337.2371204698108045
  0
ARC
  5
BF49
  8
0
 10
4779.0155896828373443
 20
209.1759624466525054
 30
0.0
 40
0.4921259842999998
 50
22.762879530189231
 51
37.3102960115110633
  0
ARC
  5
BF4A
  8
0
 10
4779.0155896828373443
 20
209.1759624466525054
 30
0.0
 40
0.4921259842999998
 50
83.458132171666179
 51
97.3102960096790639
  0
ARC
  5
BF4B
  8
0
 10
4779.0155896828373443
 20
209.1759624466525054
 30
0.0
 40
0.4921259842999998
 50
143.4581321664923905
 51
157.2371204998929102
  0
ARC
  5
BF4C
  8
0
 10
4779.0155896828373443
 20
209.1759624466525054
 30
0.0
 40
0.4921259842999998
 50
202.7628795001070898
 51
217.310296026200092
  0
ARC
  5
BF4D
  8
0
 10
4779.0155896828373443
 20
209.1759624466525054
 30
0.0
 40
0.4921259842999998
 50
263.4581321569797865
 51
277.3102959946534156
  0
CIRCLE
  5
BF4E
  8
0
 10
4779.0155896828373443
 20
209.1759624466525054
 30
0.0
 40
0.4493804435999999
  0
ARC
  5
BF4F
  8
0
 10
4779.0155601370597651
 20
209.1760498764701879
 30
0.0
 40
0.4113878654329523
 50
56.333748685375312
 51
354.3396980902954851
  0
ARC
  5
BF50
  8
0
 10
4779.0524198033972425
 20
209.1935028973855992
 30
0.0
 40
0.377014819751493
 50
351.1461110470395965
 51
59.5387273438898177
  0
ARC
  5
BF51
  8
0
 10
4779.011356055952092
 20
209.2048617653962026
 30
0.0
 40
0.3902175327880619
 50
328.2615176880316881
 51
53.4847763082998924
  0
CIRCLE
  5
BF52
  8
0
 10
4779.0155896828373443
 20
209.1759624466525054
 30
0.0
 40
0.3720866141999999
  0
CIRCLE
  5
BF53
  8
0
 10
4779.0155896828373443
 20
209.1759624466525054
 30
0.0
 40
0.3582677164999998
  0
CIRCLE
  5
BF54
  8
0
 10
4779.0155896828373443
 20
209.1759624466525054
 30
0.0
 40
0.2755905511999997
  0
CIRCLE
  5
BF55
  8
0
 10
4779.0155896828373443
 20
209.1759624466525054
 30
0.0
 40
0.1476377953
  0
ARC
  5
BF56
  8
0
 10
4779.0039766051650076
 20
209.1865174909561063
 30
0.0
 40
0.3681401252071752
 50
61.1187238419512511
 51
135.6292441070808081
  0
ARC
  5
BF57
  8
0
 10
4779.0225123919872203
 20
209.1683844315828082
 30
0.0
 40
0.3940704787592681
 50
135.6292441070808081
 51
246.7731480585082977
  0
ARC
  5
BF58
  8
0
 10
4779.0266406052369348
 20
209.1780038216751905
 30
0.0
 40
0.4045382774957612
 50
246.7731480585082977
 51
317.7724285801137967
  0
LINE
  5
BF59
  8
0
 10
4782.2668741081761254
 20
209.4515529978525024
 30
0.0
 11
4779.4233124225920619
 21
209.4515529978525024
 31
0.0
  0
LINE
  5
BF5A
  8
0
 10
4782.2697601120626132
 20
208.9003718954525084
 30
0.0
 11
4779.4233124225920619
 21
208.9003718954525084
 31
0.0
  0
LINE
  5
BF5B
  8
0
 10
4782.5585119596462391
 20
208.2714987261425108
 30
0.0
 11
4782.5628228305085941
 21
208.2509207880189024
 31
0.0
  0
LINE
  5
BF5C
  8
0
 10
4782.576174378757969
 20
208.2714987261850865
 30
0.0
 11
4782.5804852497176398
 21
208.2509207879762982
 31
0.0
  0
LINE
  5
BF5D
  8
0
 10
4782.6600765805405899
 20
208.2714987261425108
 30
0.0
 11
4782.6643874514047639
 21
208.2509207880189024
 31
0.0
  0
LINE
  5
BF5E
  8
0
 10
4782.7598457867034085
 20
208.271497341796902
 30
0.0
 11
4782.7555380702124239
 21
208.2509221723645112
 31
0.0
  0
LINE
  5
BF5F
  8
0
 10
4782.7594219009843073
 20
208.2694727144815943
 30
0.0
 11
4782.7621760995871227
 21
208.251548152161206
 31
0.0
  0
LINE
  5
BF60
  8
0
 10
4782.7635451960550199
 20
208.2778891884352959
 30
0.0
 11
4782.7691948045730896
 21
208.2509207879649864
 31
0.0
  0
LINE
  5
BF61
  8
0
 10
4782.7936010677658487
 20
208.2714987261963131
 30
0.0
 11
4782.7979119387528044
 21
208.2509207879649864
 31
0.0
  0
LINE
  5
BF62
  8
0
 10
4782.8933670869246271
 20
208.271497341796902
 30
0.0
 11
4782.8890593704336425
 21
208.2509221723645112
 31
0.0
  0
LINE
  5
BF63
  8
0
 10
4782.9503022562312253
 20
208.271498726131199
 30
0.0
 11
4782.9546131270690239
 21
208.2509207880301005
 31
0.0
  0
LINE
  5
BF64
  8
0
 10
4782.9534238116621054
 20
208.2565979840618127
 30
0.0
 11
4782.9528830803719757
 21
208.2519706644492032
 31
0.0
  0
LINE
  5
BF65
  8
0
 10
4783.0500643763543849
 20
208.2714973418081001
 30
0.0
 11
4783.0457566598370249
 21
208.2509221723531994
 31
0.0
  0
LINE
  5
BF66
  8
0
 10
4783.0805702280804326
 20
208.2714973418619877
 30
0.0
 11
4783.0762625114412003
 21
208.2509221722993971
 31
0.0
  0
LINE
  5
BF67
  8
0
 10
4783.099144231576247
 20
208.2714987261850865
 30
0.0
 11
4783.1034551025350083
 21
208.2509207879762982
 31
0.0
  0
LINE
  5
BF68
  8
0
 10
4783.1989025132543247
 20
208.2714973418507043
 30
0.0
 11
4783.1945947966423773
 21
208.2509221723107089
 31
0.0
  0
LINE
  5
BF69
  8
0
 10
4783.210647659476308
 20
208.271498726131199
 30
0.0
 11
4783.2149585303141066
 21
208.2509207880301005
 31
0.0
  0
LINE
  5
BF6A
  8
0
 10
4783.310402923156289
 20
208.2714973418081001
 30
0.0
 11
4783.3060952066389291
 21
208.2509221723531994
 31
0.0
  0
LINE
  5
BF6B
  8
0
 10
4783.3624820649110916
 20
208.271497341796902
 30
0.0
 11
4783.358174348420107
 21
208.2509221723645112
 31
0.0
  0
ARC
  5
BF6C
  8
0
 10
4783.0921198127089156
 20
208.2690792651731897
 30
0.0
 40
0.0118
 50
101.0538806283689013
 51
168.1750813999948093
  0
ARC
  5
BF6D
  8
0
 10
4783.0616139609946913
 20
208.2690792651731897
 30
0.0
 40
0.0118
 50
90.0
 51
168.1750816669510016
  0
ARC
  5
BF6E
  8
0
 10
4782.904916671567662
 20
208.2690792651731897
 30
0.0
 40
0.0118
 50
90.0
 51
168.175081722859602
  0
ARC
  5
BF6F
  8
0
 10
4782.7713953713464434
 20
208.2690792651731897
 30
0.0
 40
0.0118
 50
90.0
 51
168.1750817228293045
  0
ARC
  5
BF70
  8
0
 10
4782.5469626649219208
 20
208.2690792651731897
 30
0.0
 40
0.0118
 50
11.8317858972182304
 51
90.0
  0
ARC
  5
BF71
  8
0
 10
4782.5646250840427456
 20
208.2690792651731897
 30
0.0
 40
0.0118
 50
11.83178610819248
 51
90.0
  0
ARC
  5
BF72
  8
0
 10
4782.6485272858171811
 20
208.2690792651731897
 30
0.0
 40
0.0118
 50
11.8317858972325691
 51
90.0
  0
ARC
  5
BF73
  8
0
 10
4782.7820517730533538
 20
208.2690792651731897
 30
0.0
 40
0.0118
 50
11.8317861640995101
 51
90.0
  0
ARC
  5
BF74
  8
0
 10
4782.938752961505088
 20
208.2690792651731897
 30
0.0
 40
0.0118
 50
11.8317858412331098
 51
90.0
  0
ARC
  5
BF75
  8
0
 10
4783.0875949368601141
 20
208.2690792651731897
 30
0.0
 40
0.0118
 50
11.8317861081590099
 51
90.0
  0
ARC
  5
BF76
  8
0
 10
4783.1990983647492612
 20
208.2690792651731897
 30
0.0
 40
0.0118
 50
11.8317858412522305
 51
61.2433588393401607
  0
ARC
  5
BF77
  8
0
 10
4783.3740316495559455
 20
208.2690792651731897
 30
0.0
 40
0.0118
 50
90.0
 51
168.1750817227564028
  0
ARC
  5
BF78
  8
0
 10
4783.3219525077984144
 20
208.2690792651731897
 30
0.0
 40
0.0118
 50
90.0000000000521254
 51
168.1750816668680955
  0
ARC
  5
BF79
  8
0
 10
4783.2104520978873552
 20
208.2690792651731897
 30
0.0
 40
0.0118
 50
90.0
 51
168.1750814558747038
  0
ARC
  5
BF7A
  8
0
 10
4783.3466247637779816
 20
208.2533402489881951
 30
0.0
 40
0.0118
 50
270.0
 51
348.1750817228166284
  0
ARC
  5
BF7B
  8
0
 10
4783.2945456219977132
 20
208.2533402489881951
 30
0.0
 40
0.0118
 50
270.0
 51
348.1750816668633206
  0
ARC
  5
BF7C
  8
0
 10
4783.1830452120093469
 20
208.2533402489881951
 30
0.0
 40
0.0118
 50
270.0
 51
348.1750814558715206
  0
ARC
  5
BF7D
  8
0
 10
4783.0647129268108984
 20
208.2533402489881951
 30
0.0
 40
0.0118
 50
270.0
 51
348.1750814000154719
  0
ARC
  5
BF7E
  8
0
 10
4783.0342070751948995
 20
208.2533402489881951
 30
0.0
 40
0.0118
 50
270.0
 51
348.1750816669335222
  0
ARC
  5
BF7F
  8
0
 10
4782.9411628313046094
 20
208.2533402489881951
 30
0.0
 40
0.0118
 50
270.0
 51
353.334857838648702
  0
ARC
  5
BF80
  8
0
 10
4782.8775097857896981
 20
208.2533402489881951
 30
0.0
 40
0.0118
 50
270.0
 51
348.1750817227799075
  0
ARC
  5
BF81
  8
0
 10
4782.74398848556757
 20
208.2533402489881951
 30
0.0
 40
0.0118
 50
270.0
 51
348.1750817228117967
  0
ARC
  5
BF82
  8
0
 10
4783.2265078250402439
 20
208.2533402489881951
 30
0.0
 40
0.0118
 50
191.8317858412841019
 51
270.0
  0
ARC
  5
BF83
  8
0
 10
4783.1150043972511412
 20
208.2533402489881951
 30
0.0
 40
0.0118
 50
191.8317861082227012
 51
270.0
  0
ARC
  5
BF84
  8
0
 10
4782.9661624217960707
 20
208.2533402489881951
 30
0.0
 40
0.0118
 50
191.8317858412953001
 51
270.0
  0
ARC
  5
BF85
  8
0
 10
4783.0791072298379731
 20
208.2533575647524913
 30
0.0
 40
0.0118110235999953
 50
232.4704012291657875
 51
269.8997060479313177
  0
ARC
  5
BF86
  8
0
 10
4782.8094612334652993
 20
208.2533402489881951
 30
0.0
 40
0.0118
 50
191.8317861641010893
 51
270.0
  0
ARC
  5
BF87
  8
0
 10
4782.7807440992855845
 20
208.2533402489881951
 30
0.0
 40
0.0118
 50
191.8317861641457114
 51
270.0
  0
ARC
  5
BF88
  8
0
 10
4782.773839220480113
 20
208.2533402489881951
 30
0.0
 40
0.0118
 50
188.7354628131224104
 51
270.0
  0
ARC
  5
BF89
  8
0
 10
4782.6759367461290822
 20
208.2533402489881951
 30
0.0
 40
0.0118
 50
191.8317858972181966
 51
270.0
  0
ARC
  5
BF8A
  8
0
 10
4782.5920345444337727
 20
208.2533402489881951
 30
0.0
 40
0.0118
 50
191.8317861082099967
 51
270.0
  0
ARC
  5
BF8B
  8
0
 10
4782.5743721252329124
 20
208.2533402489881951
 30
0.0
 40
0.0118
 50
191.8317858972037868
 51
270.0
  0
ARC
  5
BF8C
  8
0
 10
4782.6601388889375812
 20
208.2533321570525118
 30
0.0
 40
0.0118110235999841
 50
270.0034338420680911
 51
312.0557908220425247
  0
ARC
  5
BF8D
  8
0
 10
4782.9548875468381084
 20
208.253352020652386
 30
0.0
 40
0.0118110235999167
 50
270.0034338470185844
 51
298.5133423272080222
  0
ENDSEC
  0
EOF
