  0
SECTION
  2
HEADER
  9
$ACADVER
  1
AC1009
  9
$INSBASE
 10
5.8818857544373389
 20
-2.199041481757726
 30
0.0
  9
$EXTMIN
 10
-5.930274529606705
 20
-3.7856729959335951
 30
-0.0000000000000058
  9
$EXTMAX
 10
17.694160668568621
 20
-1.2456197542158589
 30
0.0000000000000104
  9
$LIMMIN
 10
0.0
 20
0.0
  9
$LIMMAX
 10
11.6929133858000007
 20
8.2677165353999982
  9
$ORTHOMODE
 70
     0
  9
$REGENMODE
 70
     1
  9
$FILLMODE
 70
     1
  9
$QTEXTMODE
 70
     0
  9
$MIRRTEXT
 70
     0
  9
$DRAGMODE
 70
     2
  9
$LTSCALE
 40
0.6431102362
  9
$OSMODE
 70
  3839
  9
$ATTMODE
 70
     1
  9
$TEXTSIZE
 40
0.2
  9
$TRACEWID
 40
0.05
  9
$TEXTSTYLE
  7
STANDARD
  9
$CLAYER
  8
0
  9
$CELTYPE
  6
BYLAYER
  9
$CECOLOR
 62
   256
  9
$DIMSCALE
 40
1.0
  9
$DIMASZ
 40
0.1875
  9
$DIMEXO
 40
0.0625
  9
$DIMDLI
 40
0.4443307087
  9
$DIMRND
 40
0.0
  9
$DIMDLE
 40
0.0
  9
$DIMEXE
 40
0.125
  9
$DIMTP
 40
0.01
  9
$DIMTM
 40
0.01
  9
$DIMTXT
 40
1.0
  9
$DIMCEN
 40
0.1052362205
  9
$DIMTSZ
 40
0.0
  9
$DIMTOL
 70
     1
  9
$DIMLIM
 70
     0
  9
$DIMTIH
 70
     1
  9
$DIMTOH
 70
     1
  9
$DIMSE1
 70
     0
  9
$DIMSE2
 70
     0
  9
$DIMTAD
 70
     0
  9
$DIMZIN
 70
     0
  9
$DIMBLK
  1

  9
$DIMASO
 70
     1
  9
$DIMSHO
 70
     1
  9
$DIMPOST
  1
\X
  9
$DIMAPOST
  1

  9
$DIMALT
 70
     1
  9
$DIMALTD
 70
     2
  9
$DIMALTF
 40
25.3999999999999986
  9
$DIMLFAC
 40
1.0
  9
$DIMTOFL
 70
     0
  9
$DIMTVP
 40
0.0
  9
$DIMTIX
 70
     0
  9
$DIMSOXD
 70
     0
  9
$DIMSAH
 70
     0
  9
$DIMBLK1
  1

  9
$DIMBLK2
  1

  9
$DIMSTYLE
  2
STANDARD
  9
$DIMCLRD
 70
     0
  9
$DIMCLRE
 70
     0
  9
$DIMCLRT
 70
     0
  9
$DIMTFAC
 40
1.0
  9
$DIMGAP
 40
0.09
  9
$LUNITS
 70
     2
  9
$LUPREC
 70
     4
  9
$SKETCHINC
 40
0.1
  9
$FILLETRAD
 40
0.0
  9
$AUNITS
 70
     0
  9
$AUPREC
 70
     0
  9
$MENU
  1
.
  9
$ELEVATION
 40
0.0
  9
$PELEVATION
 40
0.0
  9
$THICKNESS
 40
0.0
  9
$LIMCHECK
 70
     0
  9
$BLIPMODE
 70
     0
  9
$CHAMFERA
 40
0.0
  9
$CHAMFERB
 40
0.0
  9
$SKPOLY
 70
     0
  9
$TDCREATE
 40
2457893.7626041672192514
  9
$TDUPDATE
 40
2459200.6291203699074686
  9
$TDINDWG
 40
0.3062310069
  9
$TDUSRTIMER
 40
0.3062310069
  9
$USRTIMER
 70
     1
  9
$ANGBASE
 50
0.0
  9
$ANGDIR
 70
     0
  9
$PDMODE
 70
     0
  9
$PDSIZE
 40
0.3125
  9
$PLINEWID
 40
0.0
  9
$COORDS
 70
     1
  9
$SPLFRAME
 70
     0
  9
$SPLINETYPE
 70
     6
  9
$SPLINESEGS
 70
     8
  9
$ATTDIA
 70
     1
  9
$ATTREQ
 70
     1
  9
$HANDLING
 70
     1
  9
$HANDSEED
  5
2FC3
  9
$SURFTAB1
 70
     6
  9
$SURFTAB2
 70
     6
  9
$SURFTYPE
 70
     6
  9
$SURFU
 70
     6
  9
$SURFV
 70
     6
  9
$UCSNAME
  2

  9
$UCSORG
 10
0.0
 20
0.0
 30
0.0
  9
$UCSXDIR
 10
1.0
 20
0.0
 30
0.0
  9
$UCSYDIR
 10
0.0
 20
1.0
 30
0.0
  9
$PUCSNAME
  2

  9
$PUCSORG
 10
0.0
 20
0.0
 30
0.0
  9
$PUCSXDIR
 10
1.0
 20
0.0
 30
0.0
  9
$PUCSYDIR
 10
0.0
 20
1.0
 30
0.0
  9
$USERI1
 70
     0
  9
$USERI2
 70
     0
  9
$USERI3
 70
     0
  9
$USERI4
 70
     0
  9
$USERI5
 70
     0
  9
$USERR1
 40
0.0
  9
$USERR2
 40
0.0
  9
$USERR3
 40
0.0
  9
$USERR4
 40
0.0
  9
$USERR5
 40
0.0
  9
$WORLDVIEW
 70
     1
  9
$SHADEDGE
 70
     3
  9
$SHADEDIF
 70
    70
  9
$TILEMODE
 70
     1
  9
$MAXACTVP
 70
    48
  9
$PLIMCHECK
 70
     0
  9
$PEXTMIN
 10
1.0000000000000000E+20
 20
1.0000000000000000E+20
 30
1.0000000000000000E+20
  9
$PEXTMAX
 10
-1.0000000000000000E+20
 20
-1.0000000000000000E+20
 30
-1.0000000000000000E+20
  9
$PLIMMIN
 10
0.0
 20
0.0
  9
$PLIMMAX
 10
12.0
 20
9.0
  9
$UNITMODE
 70
     0
  9
$VISRETAIN
 70
     1
  9
$PLINEGEN
 70
     0
  9
$PSLTSCALE
 70
     1
  0
ENDSEC
  0
SECTION
  2
TABLES
  0
TABLE
  2
VPORT
 70
     1
  0
VPORT
  2
*ACTIVE
 70
     0
 10
0.0
 20
0.0
 11
1.0
 21
1.0
 12
0.0623332778544796
 22
-3.6020982190951898
 13
0.0
 23
0.0
 14
1.0
 24
1.0
 15
0.0
 25
0.0
 16
0.0
 26
0.0
 36
0.0358426669215338
 17
5.8196097916264806
 27
1.0864518440204629
 37
0.0
 40
7.6029590731945031
 41
3.1182994454713491
 42
50.0
 43
0.0
 44
0.0
 50
0.0
 51
0.0
 71
     0
 72
   100
 73
     1
 74
     1
 75
     0
 76
     0
 77
     0
 78
     0
  0
ENDTAB
  0
TABLE
  2
LTYPE
 70
     2
  0
LTYPE
  2
CONTINUOUS
 70
     0
  3
Solid line
 72
    65
 73
     0
 40
0.0
  0
LTYPE
  2
PHANTOM2
 70
     0
  3
___ _ _ ___ _ _ ___ _ _ ___ _ _
 72
    65
 73
     6
 40
1.25
 49
0.625
 49
-0.125
 49
0.125
 49
-0.125
 49
0.125
 49
-0.125
  0
ENDTAB
  0
TABLE
  2
LAYER
 70
     2
  0
LAYER
  2
0
 70
     0
 62
     7
  6
CONTINUOUS
  0
LAYER
  2
DEFPOINTS
 70
     0
 62
     7
  6
CONTINUOUS
  0
ENDTAB
  0
TABLE
  2
STYLE
 70
     1
  0
STYLE
  2
STANDARD
 70
     0
 40
0.0
 41
0.8
 50
0.0
 71
     0
 42
0.2
  3
txt
  4

  0
ENDTAB
  0
TABLE
  2
VIEW
 70
     0
  0
ENDTAB
  0
TABLE
  2
UCS
 70
     0
  0
ENDTAB
  0
TABLE
  2
APPID
 70
     9
  0
APPID
  2
ACAD
 70
     0
  0
APPID
  2
ACAD_MLEADERVER
 70
     0
  0
APPID
  2
ACAD_NAV_VCDISPLAY
 70
     0
  0
APPID
  2
ACAD_EXEMPT_FROM_CAD_STANDARDS
 70
     0
  0
APPID
  2
ACAD_DSTYLE_DIMJAG
 70
     0
  0
APPID
  2
ACAD_DSTYLE_DIMTALN
 70
     0
  0
APPID
  2
ACDBATTR
 70
     0
  0
APPID
  2
ACAD_PSEXT
 70
     0
  0
APPID
  2
ACADANNOTATIVE
 70
     0
  0
ENDTAB
  0
TABLE
  2
DIMSTYLE
 70
     3
  0
DIMSTYLE
  2
STANDARD
 70
     0
  3

  4

  5

  6

  7

 40
1.0
 41
0.1875
 42
0.0625
 43
0.38
 44
0.125
 45
0.0
 46
0.0
 47
0.01
 48
0.01
140
0.15625
141
0.09
142
0.0
143
25.3999999999999986
144
1.0
145
0.0
146
1.0
147
0.09
 71
     1
 72
     0
 73
     1
 74
     1
 75
     0
 76
     0
 77
     0
 78
     4
170
     0
171
     2
172
     0
173
     0
174
     0
175
     0
176
     0
177
     0
178
     0
  0
DIMSTYLE
  2
ANNOTATIVE
 70
     0
  3

  4

  5

  6

  7

 40
0.0
 41
2.5
 42
0.625
 43
3.75
 44
1.25
 45
0.0
 46
0.0
 47
0.0
 48
0.0
140
2.5
141
2.5
142
0.0
143
0.03937007874016
144
1.0
145
0.0
146
1.0
147
0.625
 71
     0
 72
     0
 73
     0
 74
     0
 75
     0
 76
     0
 77
     1
 78
     8
170
     0
171
     3
172
     1
173
     0
174
     0
175
     0
176
     0
177
     0
178
     0
  0
DIMSTYLE
  2
ISO-25
 70
     0
  3

  4

  5

  6

  7

 40
1.0
 41
2.5
 42
0.625
 43
3.75
 44
1.25
 45
0.0
 46
0.0
 47
0.0
 48
0.0
140
2.5
141
2.5
142
0.0
143
0.03937007874016
144
1.0
145
0.0
146
1.0
147
0.625
 71
     0
 72
     0
 73
     0
 74
     0
 75
     0
 76
     0
 77
     1
 78
     8
170
     0
171
     3
172
     1
173
     0
174
     0
175
     0
176
     0
177
     0
178
     0
  0
ENDTAB
  0
ENDSEC
  0
SECTION
  2
BLOCKS
  0
BLOCK
  8
0
  2
$MODEL_SPACE
 70
     0
 10
0.0
 20
0.0
 30
0.0
  3
$MODEL_SPACE
  1

  0
ENDBLK
  5
21
  8
0
  0
BLOCK
 67
     1
  8
0
  2
$PAPER_SPACE
 70
     0
 10
0.0
 20
0.0
 30
0.0
  3
$PAPER_SPACE
  1

  0
ENDBLK
  5
1D
 67
     1
  8
0
  0
BLOCK
  8
0
  2
_FILLED
 70
     0
 10
0.0
 20
0.0
 30
0.0
  3
_FILLED
  1

  0
SOLID
  5
1F2C
  8
0
  6
BYBLOCK
 62
     0
 10
0.0
 20
0.0
 30
0.0
 11
-1.0
 21
0.1666666667
 31
0.0
 12
-1.0
 22
-0.1666666667
 32
0.0
 13
-1.0
 23
-0.1666666667
 33
0.0
  0
ENDBLK
  5
1F2D
  8
0
  6
BYBLOCK
 62
     0
  0
ENDSEC
  0
SECTION
  2
ENTITIES
  0
ATTDEF
  5
1B48
  8
DEFPOINTS
 10
5.8705400166147452
 20
-2.2006480752171158
 30
0.0
 40
0.001
  1
K-97168IN
  3

  2
MODELNUMBER
 70
     0
1001
ACDBATTR
1070
     0
1070
     1
  0
ATTDEF
  5
1B49
  8
DEFPOINTS
 10
5.8705400166147452
 20
-2.202314741883781
 30
0.0
 40
0.001
  1
LOURE
  3

  2
TRADENAME
 70
     0
1001
ACDBATTR
1070
     0
1070
     1
  0
ATTDEF
  5
1B4A
  8
DEFPOINTS
 10
5.8705400166147452
 20
-2.2039814085504461
 30
0.0
 40
0.001
  1
SHOWERHEAD
  3

  2
PRODUCT
 70
     0
1001
ACDBATTR
1070
     0
1070
     1
  0
LINE
  5
2D48
  8
0
 10
-4.9448858990626627
 20
-3.2147895132577271
 30
0.0
 11
16.7086574079373413
 21
-3.2147895132577271
 31
0.0
  0
LINE
  5
2D49
  8
0
 10
1.5511770930373361
 20
-1.246285576257727
 30
0.0
 11
10.2125944158373407
 21
-1.246285576257727
 31
0.0
  0
LINE
  5
2D4A
  8
0
 10
1.5511770930373361
 20
-2.4273879384577279
 30
0.0
 11
10.2125944158373301
 21
-2.427387938457727
 31
0.0
  0
LINE
  5
2D4B
  8
0
 10
-4.9448858990626627
 20
-3.273844631357727
 30
0.0
 11
16.7086574079373413
 21
-3.273844631357727
 31
0.0
  0
LINE
  5
2D4C
  8
0
 10
-5.9291378675626643
 20
-3.5888052612577268
 30
0.0
 11
17.6929093764373491
 21
-3.5888052612577268
 31
0.0
  0
LINE
  5
2D4D
  8
0
 10
-5.9291378675626643
 20
-3.5297501431577269
 30
0.0
 11
17.6929093764373491
 21
-3.5297501431577269
 31
0.0
  0
LINE
  5
2D4E
  8
0
 10
-3.7755945605626642
 20
-3.4706950250577271
 30
0.0
 11
-3.7755835125913189
 21
-3.4706950250577271
 31
0.0
  0
LINE
  5
2D4F
  8
0
 10
-2.570861355260182
 20
-3.4706950250577271
 30
0.0
 11
14.3346328641348606
 21
-3.4706950250577271
 31
0.0
  0
LINE
  5
2D50
  8
0
 10
-5.9291378675626643
 20
-3.5888052612577268
 30
0.0
 11
-5.9291378675626643
 21
-3.5297501431577269
 31
0.0
  0
LINE
  5
2D51
  8
0
 10
-4.9448858990626627
 20
-3.273844631357727
 30
0.0
 11
-4.9448858990626627
 21
-3.2147895132577271
 31
0.0
  0
LINE
  5
2D52
  8
0
 10
-2.570861355260182
 20
-3.4706950250577271
 30
0.0
 11
-2.5708591030913199
 21
-3.4706950250577271
 31
0.0
  0
LINE
  5
2D53
  8
0
 10
-3.7755835125913189
 20
-3.5297501431577269
 30
0.0
 11
-3.7755835125913189
 21
-3.359866227657728
 31
0.0
  0
LINE
  5
2D54
  8
0
 10
-3.7755835125913189
 20
-3.359866227657728
 30
0.0
 11
-2.5708730123913179
 21
-3.359866227657728
 31
0.0
  0
LINE
  5
2D55
  8
0
 10
-2.5708730123913179
 20
-3.359866227657728
 30
0.0
 11
-2.5708551437585512
 21
-3.5297501431577269
 31
0.0
  0
LINE
  5
2D56
  8
0
 10
-2.5708591030913199
 20
-3.273844631357727
 30
0.0
 11
-2.5708591030913199
 21
-3.2811260701577281
 31
0.0
  0
LINE
  5
2D57
  8
0
 10
-2.5708591030913199
 20
-3.2811260701577281
 30
0.0
 11
-3.7755696919913202
 21
-3.2811260701577281
 31
0.0
  0
LINE
  5
2D58
  8
0
 10
-3.7755696919913202
 20
-3.2811260701577281
 30
0.0
 11
-3.7755835125913189
 21
-3.273844631357727
 31
0.0
  0
LINE
  5
2D59
  8
0
 10
-3.732276425991321
 20
-3.359866227657728
 30
0.0
 11
-3.732276425991321
 21
-3.2811260701577281
 31
0.0
  0
LINE
  5
2D5A
  8
0
 10
-3.766330875291318
 20
-3.2147895132577271
 30
0.0
 11
-3.7362134337913222
 21
-3.1846720717577268
 31
0.0
  0
LINE
  5
2D5B
  8
0
 10
-3.7362134337913222
 20
-3.1846720717577268
 30
0.0
 11
-2.6102407914913188
 21
-3.1846720717577268
 31
0.0
  0
LINE
  5
2D5C
  8
0
 10
-2.6102407914913188
 20
-3.1846720717577268
 30
0.0
 11
-2.5801117403913181
 21
-3.2147895132577271
 31
0.0
  0
LINE
  5
2D5D
  8
0
 10
-2.6141661896913191
 20
-3.359866227657728
 30
0.0
 11
-2.6141661896913191
 21
-3.2811260701577281
 31
0.0
  0
LINE
  5
2D5E
  8
0
 10
1.5511770930373361
 20
-1.246285576257727
 30
0.0
 11
1.5511770930373361
 21
-3.2147895132577271
 31
0.0
  0
LINE
  5
2D5F
  8
0
 10
1.5511770930373361
 20
-3.5888052612577268
 30
0.0
 11
1.5511770930373361
 21
-3.7741244258577269
 31
0.0
  0
LINE
  5
2D60
  8
0
 10
1.5511770930373361
 20
-3.7741244258577269
 30
0.0
 11
10.2125944158373407
 21
-3.7741244258577269
 31
0.0
  0
ARC
  5
2D61
  8
0
 10
1.056138164813587
 20
-3.494317072357719
 30
0.0
 40
0.023622047199992
 50
90.0
 51
173.4999998994831003
  0
LINE
  5
2D62
  8
0
 10
1.0326679635468969
 20
-3.4916429806577272
 30
0.0
 11
1.0283262007390921
 21
-3.5297501431577269
 31
0.0
  0
LINE
  5
2D63
  8
0
 10
1.0215977198300881
 20
-3.5888052612577268
 30
0.0
 11
1.014716901790889
 21
-3.6491974251689681
 31
0.0
  0
ARC
  5
2D64
  8
0
 10
1.0029818011141221
 20
-3.6478603793140252
 30
0.0
 40
0.0118110236437044
 50
270.000001452736285
 51
353.4999998994896941
  0
LINE
  5
2D65
  8
0
 10
1.0029818014135881
 20
-3.6596714029577271
 30
0.0
 11
0.913584254713589
 21
-3.659671405224405
 31
0.0
  0
ARC
  5
2D66
  8
0
 10
0.9135842544141237
 20
-3.6478603822492812
 30
0.0
 40
0.0118110229751243
 50
186.4999865722290053
 51
270.0000014527358871
  0
LINE
  5
2D67
  8
0
 10
0.9018491540859425
 20
-3.6491974252577268
 30
0.0
 11
0.894968350481113
 21
-3.5888052612577268
 31
0.0
  0
LINE
  5
2D68
  8
0
 10
0.8882398836968175
 20
-3.5297501431577269
 30
0.0
 11
0.8838981295242599
 21
-3.491642976452292
 31
0.0
  0
ARC
  5
2D69
  8
0
 10
0.8604279385467901
 20
-3.4943170613664161
 30
0.0
 40
0.0236220362087366
 50
6.4999865722294281
 51
90.0001148077454616
  0
LINE
  5
2D6A
  8
0
 10
0.5475396485704902
 20
-2.1990414817577268
 30
0.0
 11
1.3737121752840811
 21
-2.1990414817577268
 31
0.0
  0
LINE
  5
2D6B
  8
0
 10
1.3737121752840811
 20
-2.1990414817577268
 30
0.0
 11
1.373712175284074
 21
-2.9155769148577271
 31
0.0
  0
LINE
  5
2D6C
  8
0
 10
1.216531423677286
 20
-2.5965390434456581
 30
0.0
 11
0.704720400177278
 21
-2.5965390434456581
 31
0.0
  0
LINE
  5
2D6D
  8
0
 10
1.216531423677286
 20
-2.5965390434456581
 30
0.0
 11
1.216531423677286
 21
-2.9155769148577271
 31
0.0
  0
LINE
  5
2D6E
  8
0
 10
0.5475396485704973
 20
-2.915576914857728
 30
0.0
 11
1.373712175284074
 21
-2.9155769148577271
 31
0.0
  0
LINE
  5
2D6F
  8
0
 10
1.314956620577282
 20
-2.9155769148577271
 30
0.0
 11
1.3346416599772839
 21
-2.9352619541577272
 31
0.0
  0
LINE
  5
2D70
  8
0
 10
1.3346416599772839
 20
-2.9352619541577272
 30
0.0
 11
1.3346416599772839
 21
-3.2147895132577271
 31
0.0
  0
LINE
  5
2D71
  8
0
 10
1.1968463843772861
 20
-3.5297501431577269
 30
0.0
 11
1.1968463843772861
 21
-3.4706950250577271
 31
0.0
  0
LINE
  5
2D72
  8
0
 10
1.354326699244834
 20
-3.5888052612577268
 30
0.0
 11
1.3543266993772869
 21
-3.7659706156430111
 31
0.0
  0
ARC
  5
2D73
  8
0
 10
1.3346416600772859
 20
-3.7659706156577268
 30
0.0
 40
0.0196850393000006
 50
269.9999997089374233
 51
0.00000004283683
  0
LINE
  5
2D74
  8
0
 10
1.3346416599772839
 20
-3.7856556549577269
 30
0.0
 11
0.5866101638772871
 21
-3.7856556511577271
 31
0.0
  0
ARC
  5
2D75
  8
0
 10
0.586610163977289
 20
-3.7659706116577261
 30
0.0
 40
0.0196850395000006
 50
180.0000116425044894
 51
269.9999997089364001
  0
LINE
  5
2D76
  8
0
 10
0.5669251244772849
 20
-3.7659706156577268
 30
0.0
 11
0.5669250884772818
 21
-3.5888052612577268
 31
0.0
  0
LINE
  5
2D77
  8
0
 10
0.7244054394772858
 20
-3.5297501431577269
 30
0.0
 11
0.7244054394772858
 21
-3.4706950250577271
 31
0.0
  0
LINE
  5
2D78
  8
0
 10
0.7047204001772851
 20
-2.5965390434456581
 30
0.0
 11
0.7047204001772851
 21
-2.9155769148577271
 31
0.0
  0
LINE
  5
2D79
  8
0
 10
0.6062952032772895
 20
-2.9155769148577271
 30
0.0
 11
0.5866101638772871
 21
-2.9352619541577272
 31
0.0
  0
LINE
  5
2D7A
  8
0
 10
0.5866101638772871
 20
-2.9352619541577272
 30
0.0
 11
0.5866101638772871
 21
-3.2147895132577271
 31
0.0
  0
LINE
  5
2D7B
  8
0
 10
0.5475396485704902
 20
-2.1990414817577268
 30
0.0
 11
0.5475396485704973
 21
-2.9155769148577271
 31
0.0
  0
ARC
  5
2D7C
  8
0
 10
0.0753116437760593
 20
-3.494317072357719
 30
0.0
 40
0.023622047199992
 50
90.0
 51
173.4999998994831003
  0
LINE
  5
2D7D
  8
0
 10
0.0518414425093692
 20
-3.4916429806577272
 30
0.0
 11
0.0474996797015646
 21
-3.5297501431577269
 31
0.0
  0
LINE
  5
2D7E
  8
0
 10
0.0407711987925605
 20
-3.5888052612577268
 30
0.0
 11
0.0338903807533608
 21
-3.6491974251689681
 31
0.0
  0
ARC
  5
2D7F
  8
0
 10
0.0221552800765945
 20
-3.6478603793140252
 30
0.0
 40
0.0118110236437044
 50
270.000001452736285
 51
353.4999998994896941
  0
LINE
  5
2D80
  8
0
 10
0.0221552803760599
 20
-3.6596714029577271
 30
0.0
 11
-0.0672422663239392
 21
-3.659671405224405
 31
0.0
  0
ARC
  5
2D81
  8
0
 10
-0.0672422666234045
 20
-3.6478603822492812
 30
0.0
 40
0.0118110229751243
 50
186.4999865722290053
 51
270.0000014527358871
  0
LINE
  5
2D82
  8
0
 10
-0.0789773669515856
 20
-3.6491974252577268
 30
0.0
 11
-0.0858581705564152
 21
-3.5888052612577268
 31
0.0
  0
LINE
  5
2D83
  8
0
 10
-0.0925866373407107
 20
-3.5297501431577269
 30
0.0
 11
-0.0969283915132682
 21
-3.491642976452292
 31
0.0
  0
ARC
  5
2D84
  8
0
 10
-0.1203985824907381
 20
-3.4943170613664161
 30
0.0
 40
0.0236220362087366
 50
6.4999865722294281
 51
90.0001148077454616
  0
ARC
  5
2D85
  8
0
 10
-0.9107409393323724
 20
-3.494317072357719
 30
0.0
 40
0.023622047199992
 50
90.0
 51
173.4999998994831003
  0
LINE
  5
2D86
  8
0
 10
-0.9342111405990625
 20
-3.4916429806577272
 30
0.0
 11
-0.9385529034068671
 21
-3.5297501431577269
 31
0.0
  0
LINE
  5
2D87
  8
0
 10
-0.9452813843158711
 20
-3.5888052612577268
 30
0.0
 11
-0.9521622023550708
 21
-3.6491974251689681
 31
0.0
  0
ARC
  5
2D88
  8
0
 10
-0.9638973030318371
 20
-3.6478603793140252
 30
0.0
 40
0.0118110236437044
 50
270.000001452736285
 51
353.4999998994896941
  0
LINE
  5
2D89
  8
0
 10
-0.9638973027323718
 20
-3.6596714029577271
 30
0.0
 11
-1.05329484943237
 21
-3.659671405224405
 31
0.0
  0
ARC
  5
2D8A
  8
0
 10
-1.053294849731836
 20
-3.6478603822492812
 30
0.0
 40
0.0118110229751243
 50
186.4999865722290053
 51
270.0000014527358871
  0
LINE
  5
2D8B
  8
0
 10
-1.0650299500600171
 20
-3.6491974252577268
 30
0.0
 11
-1.071910753664846
 21
-3.5888052612577268
 31
0.0
  0
LINE
  5
2D8C
  8
0
 10
-1.078639220449142
 20
-3.5297501431577269
 30
0.0
 11
-1.082980974621699
 21
-3.491642976452292
 31
0.0
  0
ARC
  5
2D8D
  8
0
 10
-1.1064511655991689
 20
-3.4943170613664161
 30
0.0
 40
0.0236220362087366
 50
6.4999865722294281
 51
90.0001148077454616
  0
ARC
  5
2D8E
  8
0
 10
-1.113884058633503
 20
-3.494317072357719
 30
0.0
 40
0.023622047199992
 50
90.0
 51
173.4999998994831003
  0
LINE
  5
2D8F
  8
0
 10
-1.137354259900194
 20
-3.4916429806577272
 30
0.0
 11
-1.141696022707998
 21
-3.5297501431577269
 31
0.0
  0
LINE
  5
2D90
  8
0
 10
-1.148424503617002
 20
-3.5888052612577268
 30
0.0
 11
-1.1553053216562019
 21
-3.6491974251689681
 31
0.0
  0
ARC
  5
2D91
  8
0
 10
-1.167040422332968
 20
-3.6478603793140252
 30
0.0
 40
0.0118110236437044
 50
270.000001452736285
 51
353.4999998994896941
  0
LINE
  5
2D92
  8
0
 10
-1.1670404220335031
 20
-3.6596714029577271
 30
0.0
 11
-1.2564379687335021
 21
-3.659671405224405
 31
0.0
  0
ARC
  5
2D93
  8
0
 10
-1.256437969032967
 20
-3.6478603822492812
 30
0.0
 40
0.0118110229751243
 50
186.4999865722290053
 51
270.0000014527358871
  0
LINE
  5
2D94
  8
0
 10
-1.2681730693611479
 20
-3.6491974252577268
 30
0.0
 11
-1.2750538729659779
 21
-3.5888052612577268
 31
0.0
  0
LINE
  5
2D95
  8
0
 10
-1.281782339750273
 20
-3.5297501431577269
 30
0.0
 11
-1.2861240939228309
 21
-3.491642976452292
 31
0.0
  0
ARC
  5
2D96
  8
0
 10
-1.3095942849003011
 20
-3.4943170613664161
 30
0.0
 40
0.0236220362087366
 50
6.4999865722294281
 51
90.0001148077454616
  0
ARC
  5
2D97
  8
0
 10
-1.501373143462005
 20
-3.494317072357719
 30
0.0
 40
0.023622047199992
 50
90.0
 51
173.4999998994831003
  0
LINE
  5
2D98
  8
0
 10
-1.5248433447286951
 20
-3.4916429806577272
 30
0.0
 11
-1.5291851075364999
 21
-3.5297501431577269
 31
0.0
  0
LINE
  5
2D99
  8
0
 10
-1.535913588445504
 20
-3.5888052612577268
 30
0.0
 11
-1.5427944064847039
 21
-3.6491974251689681
 31
0.0
  0
ARC
  5
2D9A
  8
0
 10
-1.55452950716147
 20
-3.6478603793140252
 30
0.0
 40
0.0118110236437044
 50
270.000001452736285
 51
353.4999998994896941
  0
LINE
  5
2D9B
  8
0
 10
-1.5545295068620051
 20
-3.6596714029577271
 30
0.0
 11
-1.6439270535620041
 21
-3.659671405224405
 31
0.0
  0
ARC
  5
2D9C
  8
0
 10
-1.643927053861469
 20
-3.6478603822492812
 30
0.0
 40
0.0118110229751243
 50
186.4999865722290053
 51
270.0000014527358871
  0
LINE
  5
2D9D
  8
0
 10
-1.6556621541896499
 20
-3.6491974252577268
 30
0.0
 11
-1.6625429577944799
 21
-3.5888052612577268
 31
0.0
  0
LINE
  5
2D9E
  8
0
 10
-1.669271424578775
 20
-3.5297501431577269
 30
0.0
 11
-1.6736131787513331
 21
-3.491642976452292
 31
0.0
  0
ARC
  5
2D9F
  8
0
 10
-1.697083369728803
 20
-3.4943170613664161
 30
0.0
 40
0.0236220362087366
 50
6.4999865722294281
 51
90.0001148077454616
  0
ARC
  5
2DA0
  8
0
 10
-1.8975508404358701
 20
-3.494317072357719
 30
0.0
 40
0.023622047199992
 50
90.0
 51
173.4999998994831003
  0
LINE
  5
2DA1
  8
0
 10
-1.921021041702561
 20
-3.4916429806577272
 30
0.0
 11
-1.925362804510365
 21
-3.5297501431577269
 31
0.0
  0
LINE
  5
2DA2
  8
0
 10
-1.932091285419369
 20
-3.5888052612577268
 30
0.0
 11
-1.938972103458569
 21
-3.6491974251689681
 31
0.0
  0
ARC
  5
2DA3
  8
0
 10
-1.950707204135335
 20
-3.6478603793140252
 30
0.0
 40
0.0118110236437044
 50
270.000001452736285
 51
353.4999998994896941
  0
LINE
  5
2DA4
  8
0
 10
-1.9507072038358699
 20
-3.6596714029577271
 30
0.0
 11
-2.0401047505358689
 21
-3.659671405224405
 31
0.0
  0
ARC
  5
2DA5
  8
0
 10
-2.0401047508353338
 20
-3.6478603822492812
 30
0.0
 40
0.0118110229751243
 50
186.4999865722290053
 51
270.0000014527358871
  0
LINE
  5
2DA6
  8
0
 10
-2.051839851163515
 20
-3.6491974252577268
 30
0.0
 11
-2.058720654768345
 21
-3.5888052612577268
 31
0.0
  0
LINE
  5
2DA7
  8
0
 10
-2.06544912155264
 20
-3.5297501431577269
 30
0.0
 11
-2.0697908757251979
 21
-3.491642976452292
 31
0.0
  0
ARC
  5
2DA8
  8
0
 10
-2.0932610667026679
 20
-3.4943170613664161
 30
0.0
 40
0.0236220362087366
 50
6.4999865722294281
 51
90.0001148077454616
  0
ARC
  5
2DA9
  8
0
 10
-2.2132739398642669
 20
-3.494317072357719
 30
0.0
 40
0.023622047199992
 50
90.0
 51
173.4999998994831003
  0
LINE
  5
2DAA
  8
0
 10
-2.236744141130957
 20
-3.4916429806577272
 30
0.0
 11
-2.2410859039387621
 21
-3.5297501431577269
 31
0.0
  0
LINE
  5
2DAB
  8
0
 10
-2.2478143848477661
 20
-3.5888052612577268
 30
0.0
 11
-2.2546952028869649
 21
-3.6491974251689681
 31
0.0
  0
ARC
  5
2DAC
  8
0
 10
-2.2664303035637321
 20
-3.6478603793140252
 30
0.0
 40
0.0118110236437044
 50
270.000001452736285
 51
353.4999998994896941
  0
LINE
  5
2DAD
  8
0
 10
-2.2664303032642659
 20
-3.6596714029577271
 30
0.0
 11
-2.3558278499642649
 21
-3.659671405224405
 31
0.0
  0
ARC
  5
2DAE
  8
0
 10
-2.3558278502637311
 20
-3.6478603822492812
 30
0.0
 40
0.0118110229751243
 50
186.4999865722290053
 51
270.0000014527358871
  0
LINE
  5
2DAF
  8
0
 10
-2.3675629505919118
 20
-3.6491974252577268
 30
0.0
 11
-2.3744437541967409
 21
-3.5888052612577268
 31
0.0
  0
LINE
  5
2DB0
  8
0
 10
-2.3811722209810369
 20
-3.5297501431577269
 30
0.0
 11
-2.3855139751535939
 21
-3.491642976452292
 31
0.0
  0
ARC
  5
2DB1
  8
0
 10
-2.4089841661310638
 20
-3.4943170613664161
 30
0.0
 40
0.0236220362087366
 50
6.4999865722294281
 51
90.0001148077454616
  0
ARC
  5
2DB2
  8
0
 10
2.0419569046945991
 20
-3.494317072357719
 30
0.0
 40
0.023622047199992
 50
90.0
 51
173.4999998994831003
  0
LINE
  5
2DB3
  8
0
 10
2.018486703427909
 20
-3.4916429806577272
 30
0.0
 11
2.014144940620104
 21
-3.5297501431577269
 31
0.0
  0
LINE
  5
2DB4
  8
0
 10
2.0074164597110999
 20
-3.5888052612577268
 30
0.0
 11
2.0005356416718998
 21
-3.6491974251689681
 31
0.0
  0
ARC
  5
2DB5
  8
0
 10
1.9888005409951339
 20
-3.6478603793140252
 30
0.0
 40
0.0118110236437044
 50
270.000001452736285
 51
353.4999998994896941
  0
LINE
  5
2DB6
  8
0
 10
1.988800541294599
 20
-3.6596714029577271
 30
0.0
 11
1.8994029945946
 21
-3.659671405224405
 31
0.0
  0
ARC
  5
2DB7
  8
0
 10
1.8994029942951349
 20
-3.6478603822492812
 30
0.0
 40
0.0118110229751243
 50
186.4999865722290053
 51
270.0000014527358871
  0
LINE
  5
2DB8
  8
0
 10
1.887667893966954
 20
-3.6491974252577268
 30
0.0
 11
1.880787090362124
 21
-3.5888052612577268
 31
0.0
  0
LINE
  5
2DB9
  8
0
 10
1.8740586235778289
 20
-3.5297501431577269
 30
0.0
 11
1.869716869405271
 21
-3.491642976452292
 31
0.0
  0
ARC
  5
2DBA
  8
0
 10
1.8462466784278011
 20
-3.4943170613664161
 30
0.0
 40
0.0236220362087366
 50
6.4999865722294281
 51
90.0001148077454616
  0
ARC
  5
2DBB
  8
0
 10
3.0299796169939959
 20
-3.494317072357719
 30
0.0
 40
0.023622047199992
 50
90.0
 51
173.4999998994831003
  0
LINE
  5
2DBC
  8
0
 10
3.0065094157273058
 20
-3.4916429806577272
 30
0.0
 11
3.0021676529195012
 21
-3.5297501431577269
 31
0.0
  0
LINE
  5
2DBD
  8
0
 10
2.9954391720104971
 20
-3.5888052612577268
 30
0.0
 11
2.988558353971297
 21
-3.6491974251689681
 31
0.0
  0
ARC
  5
2DBE
  8
0
 10
2.9768232532945311
 20
-3.6478603793140252
 30
0.0
 40
0.0118110236437044
 50
270.000001452736285
 51
353.4999998994896941
  0
LINE
  5
2DBF
  8
0
 10
2.976823253593996
 20
-3.6596714029577271
 30
0.0
 11
2.887425706893997
 21
-3.659671405224405
 31
0.0
  0
ARC
  5
2DC0
  8
0
 10
2.8874257065945321
 20
-3.6478603822492812
 30
0.0
 40
0.0118110229751243
 50
186.4999865722290053
 51
270.0000014527358871
  0
LINE
  5
2DC1
  8
0
 10
2.875690606266351
 20
-3.6491974252577268
 30
0.0
 11
2.868809802661521
 21
-3.5888052612577268
 31
0.0
  0
LINE
  5
2DC2
  8
0
 10
2.8620813358772259
 20
-3.5297501431577269
 30
0.0
 11
2.857739581704668
 21
-3.491642976452292
 31
0.0
  0
ARC
  5
2DC3
  8
0
 10
2.8342693907271981
 20
-3.4943170613664161
 30
0.0
 40
0.0236220362087366
 50
6.4999865722294281
 51
90.0001148077454616
  0
ARC
  5
2DC4
  8
0
 10
4.0079712899917697
 20
-3.494317072357719
 30
0.0
 40
0.023622047199992
 50
90.0
 51
173.4999998994831003
  0
LINE
  5
2DC5
  8
0
 10
3.98450108872508
 20
-3.4916429806577272
 30
0.0
 11
3.9801593259172749
 21
-3.5297501431577269
 31
0.0
  0
LINE
  5
2DC6
  8
0
 10
3.9734308450082709
 20
-3.5888052612577268
 30
0.0
 11
3.9665500269690721
 21
-3.6491974251689681
 31
0.0
  0
ARC
  5
2DC7
  8
0
 10
3.9548149262923049
 20
-3.6478603793140252
 30
0.0
 40
0.0118110236437044
 50
270.000001452736285
 51
353.4999998994896941
  0
LINE
  5
2DC8
  8
0
 10
3.9548149265917711
 20
-3.6596714029577271
 30
0.0
 11
3.8654173798917721
 21
-3.659671405224405
 31
0.0
  0
ARC
  5
2DC9
  8
0
 10
3.8654173795923059
 20
-3.6478603822492812
 30
0.0
 40
0.0118110229751243
 50
186.4999865722290053
 51
270.0000014527358871
  0
LINE
  5
2DCA
  8
0
 10
3.8536822792641252
 20
-3.6491974252577268
 30
0.0
 11
3.8468014756592961
 21
-3.5888052612577268
 31
0.0
  0
LINE
  5
2DCB
  8
0
 10
3.8400730088750001
 20
-3.5297501431577269
 30
0.0
 11
3.8357312547024431
 21
-3.491642976452292
 31
0.0
  0
ARC
  5
2DCC
  8
0
 10
3.8122610637249732
 20
-3.4943170613664161
 30
0.0
 40
0.0236220362087366
 50
6.4999865722294281
 51
90.0001148077454616
  0
ARC
  5
2DCD
  8
0
 10
4.998542893469943
 20
-3.494317072357719
 30
0.0
 40
0.023622047199992
 50
90.0
 51
173.4999998994831003
  0
LINE
  5
2DCE
  8
0
 10
4.9750726922032529
 20
-3.4916429806577272
 30
0.0
 11
4.9707309293954491
 21
-3.5297501431577269
 31
0.0
  0
LINE
  5
2DCF
  8
0
 10
4.9640024484864451
 20
-3.5888052612577268
 30
0.0
 11
4.9571216304472454
 21
-3.6491974251689681
 31
0.0
  0
ARC
  5
2DD0
  8
0
 10
4.9453865297704791
 20
-3.6478603793140252
 30
0.0
 40
0.0118110236437044
 50
270.000001452736285
 51
353.4999998994896941
  0
LINE
  5
2DD1
  8
0
 10
4.9453865300699444
 20
-3.6596714029577271
 30
0.0
 11
4.8559889833699446
 21
-3.659671405224405
 31
0.0
  0
ARC
  5
2DD2
  8
0
 10
4.8559889830704801
 20
-3.6478603822492812
 30
0.0
 40
0.0118110229751243
 50
186.4999865722290053
 51
270.0000014527358871
  0
LINE
  5
2DD3
  8
0
 10
4.8442538827422981
 20
-3.6491974252577268
 30
0.0
 11
4.8373730791374694
 21
-3.5888052612577268
 31
0.0
  0
LINE
  5
2DD4
  8
0
 10
4.830644612353173
 20
-3.5297501431577269
 30
0.0
 11
4.8263028581806164
 21
-3.491642976452292
 31
0.0
  0
ARC
  5
2DD5
  8
0
 10
4.8028326672031456
 20
-3.4943170613664161
 30
0.0
 40
0.0236220362087366
 50
6.4999865722294281
 51
90.0001148077454616
  0
ARC
  5
2DD6
  8
0
 10
5.9796361628175818
 20
-3.494317072357719
 30
0.0
 40
0.023622047199992
 50
90.0
 51
173.4999998994831003
  0
LINE
  5
2DD7
  8
0
 10
5.9561659615508917
 20
-3.4916429806577272
 30
0.0
 11
5.9518241987430871
 21
-3.5297501431577269
 31
0.0
  0
LINE
  5
2DD8
  8
0
 10
5.9450957178340831
 20
-3.5888052612577268
 30
0.0
 11
5.9382148997948843
 21
-3.6491974251689681
 31
0.0
  0
ARC
  5
2DD9
  8
0
 10
5.9264797991181171
 20
-3.6478603793140252
 30
0.0
 40
0.0118110236437044
 50
270.000001452736285
 51
353.4999998994896941
  0
LINE
  5
2DDA
  8
0
 10
5.9264797994175833
 20
-3.6596714029577271
 30
0.0
 11
5.8370822527175843
 21
-3.659671405224405
 31
0.0
  0
ARC
  5
2DDB
  8
0
 10
5.8370822524181181
 20
-3.6478603822492812
 30
0.0
 40
0.0118110229751243
 50
186.4999865722290053
 51
270.0000014527358871
  0
LINE
  5
2DDC
  8
0
 10
5.8253471520899369
 20
-3.6491974252577268
 30
0.0
 11
5.8184663484851082
 21
-3.5888052612577268
 31
0.0
  0
LINE
  5
2DDD
  8
0
 10
5.8117378817008118
 20
-3.5297501431577269
 30
0.0
 11
5.8073961275282553
 21
-3.491642976452292
 31
0.0
  0
ARC
  5
2DDE
  8
0
 10
5.7839259365507854
 20
-3.4943170613664161
 30
0.0
 40
0.0236220362087366
 50
6.4999865722294281
 51
90.0001148077454616
  0
ARC
  5
2DDF
  8
0
 10
0.960625911937333
 20
-3.1616399069577281
 30
0.0
 40
0.1377952755999973
 50
337.311908850415989
 51
202.6880911495838973
  0
LINE
  5
2DE0
  8
0
 10
0.8245426211179474
 20
-3.183293450257727
 30
0.0
 11
1.096709202756718
 21
-3.183293450257727
 31
0.0
  0
LINE
  5
2DE1
  8
0
 10
1.5511770930373361
 20
-3.6607905811577282
 30
0.0
 11
10.2125944158373301
 21
-3.6607905811577268
 31
0.0
  0
LINE
  5
2DE2
  8
0
 10
15.5393660694373406
 20
-3.4706950250577271
 30
0.0
 11
15.5393550214659992
 21
-3.4706950250577271
 31
0.0
  0
LINE
  5
2DE3
  8
0
 10
17.6929093764373491
 20
-3.5888052612577268
 30
0.0
 11
17.6929093764373491
 21
-3.5297501431577269
 31
0.0
  0
LINE
  5
2DE4
  8
0
 10
16.7086574079373413
 20
-3.273844631357727
 30
0.0
 11
16.7086574079373413
 21
-3.2147895132577271
 31
0.0
  0
LINE
  5
2DE5
  8
0
 10
14.3346328641348606
 20
-3.4706950250577271
 30
0.0
 11
14.3346306119659896
 21
-3.4706950250577271
 31
0.0
  0
LINE
  5
2DE6
  8
0
 10
15.5393550214659992
 20
-3.5297501431577269
 30
0.0
 11
15.5393550214659992
 21
-3.359866227657728
 31
0.0
  0
LINE
  5
2DE7
  8
0
 10
15.5393550214659992
 20
-3.359866227657728
 30
0.0
 11
14.3346445212660001
 21
-3.359866227657728
 31
0.0
  0
LINE
  5
2DE8
  8
0
 10
14.3346445212660001
 20
-3.359866227657728
 30
0.0
 11
14.3346266526332293
 21
-3.5297501431577269
 31
0.0
  0
LINE
  5
2DE9
  8
0
 10
14.3346306119659896
 20
-3.273844631357727
 30
0.0
 11
14.3346306119659896
 21
-3.2811260701577281
 31
0.0
  0
LINE
  5
2DEA
  8
0
 10
14.3346306119659896
 20
-3.2811260701577281
 30
0.0
 11
15.5393412008659908
 21
-3.2811260701577281
 31
0.0
  0
LINE
  5
2DEB
  8
0
 10
15.5393412008659908
 20
-3.2811260701577281
 30
0.0
 11
15.5393550214659992
 21
-3.273844631357727
 31
0.0
  0
LINE
  5
2DEC
  8
0
 10
15.4960479348660005
 20
-3.359866227657728
 30
0.0
 11
15.4960479348660005
 21
-3.2811260701577281
 31
0.0
  0
LINE
  5
2DED
  8
0
 10
15.5301023841659909
 20
-3.2147895132577271
 30
0.0
 11
15.4999849426659999
 21
-3.1846720717577268
 31
0.0
  0
LINE
  5
2DEE
  8
0
 10
15.4999849426659999
 20
-3.1846720717577268
 30
0.0
 11
14.3740123003659903
 21
-3.1846720717577268
 31
0.0
  0
LINE
  5
2DEF
  8
0
 10
14.3740123003659903
 20
-3.1846720717577268
 30
0.0
 11
14.3438832492659998
 21
-3.2147895132577271
 31
0.0
  0
LINE
  5
2DF0
  8
0
 10
14.3779376985660008
 20
-3.359866227657728
 30
0.0
 11
14.3779376985660008
 21
-3.2811260701577281
 31
0.0
  0
LINE
  5
2DF1
  8
0
 10
10.2125944158373407
 20
-1.246285576257727
 30
0.0
 11
10.2125944158373407
 21
-3.2147895132577271
 31
0.0
  0
LINE
  5
2DF2
  8
0
 10
10.2125944158373407
 20
-3.5888052612577268
 30
0.0
 11
10.2125944158373407
 21
-3.7741244258577269
 31
0.0
  0
ARC
  5
2DF3
  8
0
 10
10.7076333440610902
 20
-3.494317072357719
 30
0.0
 40
0.023622047199992
 50
6.5000001005168873
 51
90.0
  0
LINE
  5
2DF4
  8
0
 10
10.7311035453277803
 20
-3.4916429806577272
 30
0.0
 11
10.7354453081355796
 21
-3.5297501431577269
 31
0.0
  0
LINE
  5
2DF5
  8
0
 10
10.7421737890445907
 20
-3.5888052612577268
 30
0.0
 11
10.7490546070837905
 21
-3.6491974251689681
 31
0.0
  0
ARC
  5
2DF6
  8
0
 10
10.7607897077605497
 20
-3.6478603793140252
 30
0.0
 40
0.0118110236437044
 50
186.5000001005103059
 51
269.9999985472634876
  0
LINE
  5
2DF7
  8
0
 10
10.7607897074610896
 20
-3.6596714029577271
 30
0.0
 11
10.8501872541610904
 21
-3.659671405224405
 31
0.0
  0
ARC
  5
2DF8
  8
0
 10
10.8501872544605504
 20
-3.6478603822492812
 30
0.0
 40
0.0118110229751243
 50
269.9999985472642834
 51
353.5000134277709094
  0
LINE
  5
2DF9
  8
0
 10
10.8619223547887405
 20
-3.6491974252577268
 30
0.0
 11
10.8688031583935594
 21
-3.5888052612577268
 31
0.0
  0
LINE
  5
2DFA
  8
0
 10
10.8755316251778602
 20
-3.5297501431577269
 30
0.0
 11
10.8798733793504194
 21
-3.491642976452292
 31
0.0
  0
ARC
  5
2DFB
  8
0
 10
10.9033435703278894
 20
-3.4943170613664161
 30
0.0
 40
0.0236220362087366
 50
89.9998851922547232
 51
173.5000134277705968
  0
LINE
  5
2DFC
  8
0
 10
11.2162318603041893
 20
-2.1990414817577268
 30
0.0
 11
10.3900593335905906
 21
-2.1990414817577268
 31
0.0
  0
LINE
  5
2DFD
  8
0
 10
10.3900593335905906
 20
-2.1990414817577268
 30
0.0
 11
10.3900593335905995
 21
-2.9155769148577271
 31
0.0
  0
LINE
  5
2DFE
  8
0
 10
10.5472400851973909
 20
-2.5965390434456581
 30
0.0
 11
11.0590511086973997
 21
-2.5965390434456581
 31
0.0
  0
LINE
  5
2DFF
  8
0
 10
10.5472400851973909
 20
-2.5965390434456581
 30
0.0
 11
10.5472400851973909
 21
-2.9155769148577271
 31
0.0
  0
LINE
  5
2E00
  8
0
 10
11.2162318603041804
 20
-2.915576914857728
 30
0.0
 11
10.3900593335905995
 21
-2.9155769148577271
 31
0.0
  0
LINE
  5
2E01
  8
0
 10
10.4488148882973899
 20
-2.9155769148577271
 30
0.0
 11
10.4291298488973894
 21
-2.9352619541577272
 31
0.0
  0
LINE
  5
2E02
  8
0
 10
10.4291298488973894
 20
-2.9352619541577272
 30
0.0
 11
10.4291298488973894
 21
-3.2147895132577271
 31
0.0
  0
LINE
  5
2E03
  8
0
 10
10.5669251244973896
 20
-3.5297501431577269
 30
0.0
 11
10.5669251244973896
 21
-3.4706950250577271
 31
0.0
  0
LINE
  5
2E04
  8
0
 10
10.4094448096298393
 20
-3.5888052612577268
 30
0.0
 11
10.4094448094973906
 21
-3.7659706156430111
 31
0.0
  0
ARC
  5
2E05
  8
0
 10
10.4291298487973894
 20
-3.7659706156577268
 30
0.0
 40
0.0196850393000006
 50
179.9999999571631975
 51
270.0000002910624062
  0
LINE
  5
2E06
  8
0
 10
10.4291298488973894
 20
-3.7856556549577269
 30
0.0
 11
11.1771613449973906
 21
-3.7856556511577271
 31
0.0
  0
ARC
  5
2E07
  8
0
 10
11.1771613448973905
 20
-3.7659706116577261
 30
0.0
 40
0.0196850395000006
 50
270.0000002910639978
 51
359.9999883574953969
  0
LINE
  5
2E08
  8
0
 10
11.1968463843973893
 20
-3.7659706156577268
 30
0.0
 11
11.1968464203973905
 21
-3.5888052612577268
 31
0.0
  0
LINE
  5
2E09
  8
0
 10
11.0393660693973903
 20
-3.5297501431577269
 30
0.0
 11
11.0393660693973903
 21
-3.4706950250577271
 31
0.0
  0
LINE
  5
2E0A
  8
0
 10
11.0590511086973908
 20
-2.5965390434456581
 30
0.0
 11
11.0590511086973908
 21
-2.9155769148577271
 31
0.0
  0
LINE
  5
2E0B
  8
0
 10
11.15747630559739
 20
-2.9155769148577271
 30
0.0
 11
11.1771613449973906
 21
-2.9352619541577272
 31
0.0
  0
LINE
  5
2E0C
  8
0
 10
11.1771613449973906
 20
-2.9352619541577272
 30
0.0
 11
11.1771613449973906
 21
-3.2147895132577271
 31
0.0
  0
LINE
  5
2E0D
  8
0
 10
11.2162318603041893
 20
-2.1990414817577268
 30
0.0
 11
11.2162318603041804
 21
-2.9155769148577271
 31
0.0
  0
ARC
  5
2E0E
  8
0
 10
11.6884598650986202
 20
-3.494317072357719
 30
0.0
 40
0.023622047199992
 50
6.5000001005168873
 51
90.0
  0
LINE
  5
2E0F
  8
0
 10
11.7119300663653103
 20
-3.4916429806577272
 30
0.0
 11
11.7162718291731096
 21
-3.5297501431577269
 31
0.0
  0
LINE
  5
2E10
  8
0
 10
11.7230003100821207
 20
-3.5888052612577268
 30
0.0
 11
11.7298811281213204
 21
-3.6491974251689681
 31
0.0
  0
ARC
  5
2E11
  8
0
 10
11.7416162287980796
 20
-3.6478603793140252
 30
0.0
 40
0.0118110236437044
 50
186.5000001005103059
 51
269.9999985472634876
  0
LINE
  5
2E12
  8
0
 10
11.7416162284986196
 20
-3.6596714029577271
 30
0.0
 11
11.8310137751986204
 21
-3.659671405224405
 31
0.0
  0
ARC
  5
2E13
  8
0
 10
11.8310137754980804
 20
-3.6478603822492812
 30
0.0
 40
0.0118110229751243
 50
269.9999985472642834
 51
353.5000134277709094
  0
LINE
  5
2E14
  8
0
 10
11.8427488758262598
 20
-3.6491974252577268
 30
0.0
 11
11.8496296794310894
 21
-3.5888052612577268
 31
0.0
  0
LINE
  5
2E15
  8
0
 10
11.8563581462153902
 20
-3.5297501431577269
 30
0.0
 11
11.8606999003879405
 21
-3.491642976452292
 31
0.0
  0
ARC
  5
2E16
  8
0
 10
11.8841700913654194
 20
-3.4943170613664161
 30
0.0
 40
0.0236220362087366
 50
89.9998851922547232
 51
173.5000134277705968
  0
ARC
  5
2E17
  8
0
 10
12.6745124482070501
 20
-3.494317072357719
 30
0.0
 40
0.023622047199992
 50
6.5000001005168873
 51
90.0
  0
LINE
  5
2E18
  8
0
 10
12.6979826494737402
 20
-3.4916429806577272
 30
0.0
 11
12.7023244122815395
 21
-3.5297501431577269
 31
0.0
  0
LINE
  5
2E19
  8
0
 10
12.7090528931905506
 20
-3.5888052612577268
 30
0.0
 11
12.7159337112297504
 21
-3.6491974251689681
 31
0.0
  0
ARC
  5
2E1A
  8
0
 10
12.7276688119065202
 20
-3.6478603793140252
 30
0.0
 40
0.0118110236437044
 50
186.5000001005103059
 51
269.9999985472634876
  0
LINE
  5
2E1B
  8
0
 10
12.7276688116070495
 20
-3.6596714029577271
 30
0.0
 11
12.8170663583070503
 21
-3.659671405224405
 31
0.0
  0
ARC
  5
2E1C
  8
0
 10
12.8170663586065103
 20
-3.6478603822492812
 30
0.0
 40
0.0118110229751243
 50
269.9999985472642834
 51
353.5000134277709094
  0
LINE
  5
2E1D
  8
0
 10
12.8288014589347004
 20
-3.6491974252577268
 30
0.0
 11
12.8356822625395193
 21
-3.5888052612577268
 31
0.0
  0
LINE
  5
2E1E
  8
0
 10
12.8424107293238201
 20
-3.5297501431577269
 30
0.0
 11
12.8467524834963793
 21
-3.491642976452292
 31
0.0
  0
ARC
  5
2E1F
  8
0
 10
12.8702226744738493
 20
-3.4943170613664161
 30
0.0
 40
0.0236220362087366
 50
89.9998851922547232
 51
173.5000134277705968
  0
ARC
  5
2E20
  8
0
 10
12.8776555675081799
 20
-3.494317072357719
 30
0.0
 40
0.023622047199992
 50
6.5000001005168873
 51
90.0
  0
LINE
  5
2E21
  8
0
 10
12.9011257687748699
 20
-3.4916429806577272
 30
0.0
 11
12.9054675315826799
 21
-3.5297501431577269
 31
0.0
  0
LINE
  5
2E22
  8
0
 10
12.9121960124916804
 20
-3.5888052612577268
 30
0.0
 11
12.9190768305308801
 21
-3.6491974251689681
 31
0.0
  0
ARC
  5
2E23
  8
0
 10
12.9308119312076499
 20
-3.6478603793140252
 30
0.0
 40
0.0118110236437044
 50
186.5000001005103059
 51
269.9999985472634876
  0
LINE
  5
2E24
  8
0
 10
12.9308119309081793
 20
-3.6596714029577271
 30
0.0
 11
13.02020947760818
 21
-3.659671405224405
 31
0.0
  0
ARC
  5
2E25
  8
0
 10
13.02020947790764
 20
-3.6478603822492812
 30
0.0
 40
0.0118110229751243
 50
269.9999985472642834
 51
353.5000134277709094
  0
LINE
  5
2E26
  8
0
 10
13.0319445782358301
 20
-3.6491974252577268
 30
0.0
 11
13.0388253818406596
 21
-3.5888052612577268
 31
0.0
  0
LINE
  5
2E27
  8
0
 10
13.0455538486249498
 20
-3.5297501431577269
 30
0.0
 11
13.0498956027975108
 21
-3.491642976452292
 31
0.0
  0
ARC
  5
2E28
  8
0
 10
13.0733657937749808
 20
-3.4943170613664161
 30
0.0
 40
0.0236220362087366
 50
89.9998851922547232
 51
173.5000134277705968
  0
ARC
  5
2E29
  8
0
 10
13.2651446523366801
 20
-3.494317072357719
 30
0.0
 40
0.023622047199992
 50
6.5000001005168873
 51
90.0
  0
LINE
  5
2E2A
  8
0
 10
13.2886148536033701
 20
-3.4916429806577272
 30
0.0
 11
13.2929566164111801
 21
-3.5297501431577269
 31
0.0
  0
LINE
  5
2E2B
  8
0
 10
13.2996850973201806
 20
-3.5888052612577268
 30
0.0
 11
13.3065659153593803
 21
-3.6491974251689681
 31
0.0
  0
ARC
  5
2E2C
  8
0
 10
13.3183010160361501
 20
-3.6478603793140252
 30
0.0
 40
0.0118110236437044
 50
186.5000001005103059
 51
269.9999985472634876
  0
LINE
  5
2E2D
  8
0
 10
13.3183010157366795
 20
-3.6596714029577271
 30
0.0
 11
13.4076985624366802
 21
-3.659671405224405
 31
0.0
  0
ARC
  5
2E2E
  8
0
 10
13.4076985627361491
 20
-3.6478603822492812
 30
0.0
 40
0.0118110229751243
 50
269.9999985472642834
 51
353.5000134277709094
  0
LINE
  5
2E2F
  8
0
 10
13.4194336630643303
 20
-3.6491974252577268
 30
0.0
 11
13.4263144666691598
 21
-3.5888052612577268
 31
0.0
  0
LINE
  5
2E30
  8
0
 10
13.43304293345345
 20
-3.5297501431577269
 30
0.0
 11
13.4373846876260092
 21
-3.491642976452292
 31
0.0
  0
ARC
  5
2E31
  8
0
 10
13.4608548786034792
 20
-3.4943170613664161
 30
0.0
 40
0.0236220362087366
 50
89.9998851922547232
 51
173.5000134277705968
  0
ARC
  5
2E32
  8
0
 10
13.6613223493105505
 20
-3.494317072357719
 30
0.0
 40
0.023622047199992
 50
6.5000001005168873
 51
90.0
  0
LINE
  5
2E33
  8
0
 10
13.6847925505772405
 20
-3.4916429806577272
 30
0.0
 11
13.6891343133850398
 21
-3.5297501431577269
 31
0.0
  0
LINE
  5
2E34
  8
0
 10
13.6958627942940492
 20
-3.5888052612577268
 30
0.0
 11
13.7027436123332507
 21
-3.6491974251689681
 31
0.0
  0
ARC
  5
2E35
  8
0
 10
13.7144787130100099
 20
-3.6478603793140252
 30
0.0
 40
0.0118110236437044
 50
186.5000001005103059
 51
269.9999985472634876
  0
LINE
  5
2E36
  8
0
 10
13.7144787127105499
 20
-3.6596714029577271
 30
0.0
 11
13.8038762594105506
 21
-3.659671405224405
 31
0.0
  0
ARC
  5
2E37
  8
0
 10
13.8038762597100106
 20
-3.6478603822492812
 30
0.0
 40
0.0118110229751243
 50
269.9999985472642834
 51
353.5000134277709094
  0
LINE
  5
2E38
  8
0
 10
13.81561136003819
 20
-3.6491974252577268
 30
0.0
 11
13.8224921636430196
 21
-3.5888052612577268
 31
0.0
  0
LINE
  5
2E39
  8
0
 10
13.8292206304273204
 20
-3.5297501431577269
 30
0.0
 11
13.8335623845998708
 21
-3.491642976452292
 31
0.0
  0
ARC
  5
2E3A
  8
0
 10
13.8570325755773496
 20
-3.4943170613664161
 30
0.0
 40
0.0236220362087366
 50
89.9998851922547232
 51
173.5000134277705968
  0
ARC
  5
2E3B
  8
0
 10
13.9770454487389397
 20
-3.494317072357719
 30
0.0
 40
0.023622047199992
 50
6.5000001005168873
 51
90.0
  0
LINE
  5
2E3C
  8
0
 10
14.0005156500056405
 20
-3.4916429806577272
 30
0.0
 11
14.0048574128134398
 21
-3.5297501431577269
 31
0.0
  0
LINE
  5
2E3D
  8
0
 10
14.0115858937224402
 20
-3.5888052612577268
 30
0.0
 11
14.0184667117616399
 21
-3.6491974251689681
 31
0.0
  0
ARC
  5
2E3E
  8
0
 10
14.0302018124384098
 20
-3.6478603793140252
 30
0.0
 40
0.0118110236437044
 50
186.5000001005103059
 51
269.9999985472634876
  0
LINE
  5
2E3F
  8
0
 10
14.0302018121389391
 20
-3.6596714029577271
 30
0.0
 11
14.1195993588389399
 21
-3.659671405224405
 31
0.0
  0
ARC
  5
2E40
  8
0
 10
14.1195993591384106
 20
-3.6478603822492812
 30
0.0
 40
0.0118110229751243
 50
269.9999985472642834
 51
353.5000134277709094
  0
LINE
  5
2E41
  8
0
 10
14.1313344594665899
 20
-3.6491974252577268
 30
0.0
 11
14.1382152630714195
 21
-3.5888052612577268
 31
0.0
  0
LINE
  5
2E42
  8
0
 10
14.1449437298557097
 20
-3.5297501431577269
 30
0.0
 11
14.1492854840282707
 21
-3.491642976452292
 31
0.0
  0
ARC
  5
2E43
  8
0
 10
14.1727556750057406
 20
-3.4943170613664161
 30
0.0
 40
0.0236220362087366
 50
89.9998851922547232
 51
173.5000134277705968
  0
ARC
  5
2E44
  8
0
 10
9.7218146041800804
 20
-3.494317072357719
 30
0.0
 40
0.023622047199992
 50
6.5000001005168873
 51
90.0
  0
LINE
  5
2E45
  8
0
 10
9.7452848054467704
 20
-3.4916429806577272
 30
0.0
 11
9.7496265682545751
 21
-3.5297501431577269
 31
0.0
  0
LINE
  5
2E46
  8
0
 10
9.7563550491635791
 20
-3.5888052612577268
 30
0.0
 11
9.7632358672027788
 21
-3.6491974251689681
 31
0.0
  0
ARC
  5
2E47
  8
0
 10
9.7749709678795451
 20
-3.6478603793140252
 30
0.0
 40
0.0118110236437044
 50
186.5000001005103059
 51
269.9999985472634876
  0
LINE
  5
2E48
  8
0
 10
9.7749709675800798
 20
-3.6596714029577271
 30
0.0
 11
9.8643685142800788
 21
-3.659671405224405
 31
0.0
  0
ARC
  5
2E49
  8
0
 10
9.8643685145795441
 20
-3.6478603822492812
 30
0.0
 40
0.0118110229751243
 50
269.9999985472642834
 51
353.5000134277709094
  0
LINE
  5
2E4A
  8
0
 10
9.8761036149077253
 20
-3.6491974252577268
 30
0.0
 11
9.8829844185125548
 21
-3.5888052612577268
 31
0.0
  0
LINE
  5
2E4B
  8
0
 10
9.8897128852968503
 20
-3.5297501431577269
 30
0.0
 11
9.8940546394694078
 21
-3.491642976452292
 31
0.0
  0
ARC
  5
2E4C
  8
0
 10
9.9175248304468777
 20
-3.4943170613664161
 30
0.0
 40
0.0236220362087366
 50
89.9998851922547232
 51
173.5000134277705968
  0
ARC
  5
2E4D
  8
0
 10
8.7337918918806832
 20
-3.494317072357719
 30
0.0
 40
0.023622047199992
 50
6.5000001005168873
 51
90.0
  0
LINE
  5
2E4E
  8
0
 10
8.7572620931473732
 20
-3.4916429806577272
 30
0.0
 11
8.7616038559551779
 21
-3.5297501431577269
 31
0.0
  0
LINE
  5
2E4F
  8
0
 10
8.7683323368641801
 20
-3.5888052612577268
 30
0.0
 11
8.7752131549033816
 21
-3.6491974251689681
 31
0.0
  0
ARC
  5
2E50
  8
0
 10
8.7869482555801461
 20
-3.6478603793140252
 30
0.0
 40
0.0118110236437044
 50
186.5000001005103059
 51
269.9999985472634876
  0
LINE
  5
2E51
  8
0
 10
8.7869482552806826
 20
-3.6596714029577271
 30
0.0
 11
8.8763458019806816
 21
-3.659671405224405
 31
0.0
  0
ARC
  5
2E52
  8
0
 10
8.8763458022801451
 20
-3.6478603822492812
 30
0.0
 40
0.0118110229751243
 50
269.9999985472642834
 51
353.5000134277709094
  0
LINE
  5
2E53
  8
0
 10
8.8880809026083281
 20
-3.6491974252577268
 30
0.0
 11
8.8949617062131576
 21
-3.5888052612577268
 31
0.0
  0
LINE
  5
2E54
  8
0
 10
8.9016901729974531
 20
-3.5297501431577269
 30
0.0
 11
8.9060319271700106
 21
-3.491642976452292
 31
0.0
  0
ARC
  5
2E55
  8
0
 10
8.9295021181474805
 20
-3.4943170613664161
 30
0.0
 40
0.0236220362087366
 50
89.9998851922547232
 51
173.5000134277705968
  0
ARC
  5
2E56
  8
0
 10
7.755800218882908
 20
-3.494317072357719
 30
0.0
 40
0.023622047199992
 50
6.5000001005168873
 51
90.0
  0
LINE
  5
2E57
  8
0
 10
7.779270420149599
 20
-3.4916429806577272
 30
0.0
 11
7.7836121829574028
 21
-3.5297501431577269
 31
0.0
  0
LINE
  5
2E58
  8
0
 10
7.7903406638664068
 20
-3.5888052612577268
 30
0.0
 11
7.7972214819056074
 21
-3.6491974251689681
 31
0.0
  0
ARC
  5
2E59
  8
0
 10
7.8089565825823728
 20
-3.6478603793140252
 30
0.0
 40
0.0118110236437044
 50
186.5000001005103059
 51
269.9999985472634876
  0
LINE
  5
2E5A
  8
0
 10
7.8089565822829083
 20
-3.6596714029577271
 30
0.0
 11
7.8983541289829073
 21
-3.659671405224405
 31
0.0
  0
ARC
  5
2E5B
  8
0
 10
7.8983541292823718
 20
-3.6478603822492812
 30
0.0
 40
0.0118110229751243
 50
269.9999985472642834
 51
353.5000134277709094
  0
LINE
  5
2E5C
  8
0
 10
7.9100892296105529
 20
-3.6491974252577268
 30
0.0
 11
7.9169700332153834
 21
-3.5888052612577268
 31
0.0
  0
LINE
  5
2E5D
  8
0
 10
7.923698499999678
 20
-3.5297501431577269
 30
0.0
 11
7.9280402541722363
 21
-3.491642976452292
 31
0.0
  0
ARC
  5
2E5E
  8
0
 10
7.9515104451497063
 20
-3.4943170613664161
 30
0.0
 40
0.0236220362087366
 50
89.9998851922547232
 51
173.5000134277705968
  0
ARC
  5
2E5F
  8
0
 10
6.7652286154047347
 20
-3.494317072357719
 30
0.0
 40
0.023622047199992
 50
6.5000001005168873
 51
90.0
  0
LINE
  5
2E60
  8
0
 10
6.7886988166714248
 20
-3.4916429806577272
 30
0.0
 11
6.7930405794792303
 21
-3.5297501431577269
 31
0.0
  0
LINE
  5
2E61
  8
0
 10
6.7997690603882344
 20
-3.5888052612577268
 30
0.0
 11
6.8066498784274341
 21
-3.6491974251689681
 31
0.0
  0
ARC
  5
2E62
  8
0
 10
6.8183849791042004
 20
-3.6478603793140252
 30
0.0
 40
0.0118110236437044
 50
186.5000001005103059
 51
269.9999985472634876
  0
LINE
  5
2E63
  8
0
 10
6.818384978804735
 20
-3.6596714029577271
 30
0.0
 11
6.907782525504734
 21
-3.659671405224405
 31
0.0
  0
ARC
  5
2E64
  8
0
 10
6.9077825258041994
 20
-3.6478603822492812
 30
0.0
 40
0.0118110229751243
 50
269.9999985472642834
 51
353.5000134277709094
  0
LINE
  5
2E65
  8
0
 10
6.9195176261323796
 20
-3.6491974252577268
 30
0.0
 11
6.9263984297372101
 21
-3.5888052612577268
 31
0.0
  0
LINE
  5
2E66
  8
0
 10
6.9331268965215047
 20
-3.5297501431577269
 30
0.0
 11
6.937468650694063
 21
-3.491642976452292
 31
0.0
  0
ARC
  5
2E67
  8
0
 10
6.9609388416715321
 20
-3.4943170613664161
 30
0.0
 40
0.0236220362087366
 50
89.9998851922547232
 51
173.5000134277705968
  0
ARC
  5
2E68
  8
0
 10
10.8031455969373393
 20
-3.1616399069577281
 30
0.0
 40
0.1377952755999973
 50
337.3119088504158753
 51
202.688091149584011
  0
LINE
  5
2E69
  8
0
 10
10.9392288877567303
 20
-3.183293450257727
 30
0.0
 11
10.6670623061179608
 21
-3.183293450257727
 31
0.0
  0
ENDSEC
  0
EOF
