  0
SECTION
  2
HEADER
  9
$ACADVER
  1
AC1009
  9
$INSBASE
 10
5.8140980659971708
 20
1.088858291355441
 30
0.0
  9
$EXTMIN
 10
-9.9358681692557056
 20
-0.4980687944127809
 30
-0.0000000000000058
  9
$EXTMAX
 10
21.5633787738673384
 20
2.0418662558742779
 30
0.0000000000000104
  9
$LIMMIN
 10
0.0
 20
0.0
  9
$LIMMAX
 10
11.6929133858000007
 20
8.2677165353999982
  9
$ORTHOMODE
 70
     0
  9
$REGENMODE
 70
     1
  9
$FILLMODE
 70
     1
  9
$QTEXTMODE
 70
     0
  9
$MIRRTEXT
 70
     0
  9
$DRAGMODE
 70
     2
  9
$LTSCALE
 40
0.6431102362
  9
$OSMODE
 70
  3839
  9
$ATTMODE
 70
     1
  9
$TEXTSIZE
 40
0.2
  9
$TRACEWID
 40
0.05
  9
$TEXTSTYLE
  7
STANDARD
  9
$CLAYER
  8
0
  9
$CELTYPE
  6
BYLAYER
  9
$CECOLOR
 62
   256
  9
$DIMSCALE
 40
1.0
  9
$DIMASZ
 40
0.1875
  9
$DIMEXO
 40
0.0625
  9
$DIMDLI
 40
0.4443307087
  9
$DIMRND
 40
0.0
  9
$DIMDLE
 40
0.0
  9
$DIMEXE
 40
0.125
  9
$DIMTP
 40
0.01
  9
$DIMTM
 40
0.01
  9
$DIMTXT
 40
1.0
  9
$DIMCEN
 40
0.1052362205
  9
$DIMTSZ
 40
0.0
  9
$DIMTOL
 70
     1
  9
$DIMLIM
 70
     0
  9
$DIMTIH
 70
     1
  9
$DIMTOH
 70
     1
  9
$DIMSE1
 70
     0
  9
$DIMSE2
 70
     0
  9
$DIMTAD
 70
     0
  9
$DIMZIN
 70
     0
  9
$DIMBLK
  1

  9
$DIMASO
 70
     1
  9
$DIMSHO
 70
     1
  9
$DIMPOST
  1
\X
  9
$DIMAPOST
  1

  9
$DIMALT
 70
     1
  9
$DIMALTD
 70
     2
  9
$DIMALTF
 40
25.3999999999999986
  9
$DIMLFAC
 40
1.0
  9
$DIMTOFL
 70
     0
  9
$DIMTVP
 40
0.0
  9
$DIMTIX
 70
     0
  9
$DIMSOXD
 70
     0
  9
$DIMSAH
 70
     0
  9
$DIMBLK1
  1

  9
$DIMBLK2
  1

  9
$DIMSTYLE
  2
STANDARD
  9
$DIMCLRD
 70
     0
  9
$DIMCLRE
 70
     0
  9
$DIMCLRT
 70
     0
  9
$DIMTFAC
 40
1.0
  9
$DIMGAP
 40
0.09
  9
$LUNITS
 70
     2
  9
$LUPREC
 70
     4
  9
$SKETCHINC
 40
0.1
  9
$FILLETRAD
 40
0.0
  9
$AUNITS
 70
     0
  9
$AUPREC
 70
     0
  9
$MENU
  1
.
  9
$ELEVATION
 40
0.0
  9
$PELEVATION
 40
0.0
  9
$THICKNESS
 40
0.0
  9
$LIMCHECK
 70
     0
  9
$BLIPMODE
 70
     0
  9
$CHAMFERA
 40
0.0
  9
$CHAMFERB
 40
0.0
  9
$SKPOLY
 70
     0
  9
$TDCREATE
 40
2457893.7626041672192514
  9
$TDUPDATE
 40
2459200.6296990741975605
  9
$TDINDWG
 40
0.3049462847
  9
$TDUSRTIMER
 40
0.3049462847
  9
$USRTIMER
 70
     1
  9
$ANGBASE
 50
0.0
  9
$ANGDIR
 70
     0
  9
$PDMODE
 70
     0
  9
$PDSIZE
 40
0.3125
  9
$PLINEWID
 40
0.0
  9
$COORDS
 70
     1
  9
$SPLFRAME
 70
     0
  9
$SPLINETYPE
 70
     6
  9
$SPLINESEGS
 70
     8
  9
$ATTDIA
 70
     1
  9
$ATTREQ
 70
     1
  9
$HANDLING
 70
     1
  9
$HANDSEED
  5
2DBB
  9
$SURFTAB1
 70
     6
  9
$SURFTAB2
 70
     6
  9
$SURFTYPE
 70
     6
  9
$SURFU
 70
     6
  9
$SURFV
 70
     6
  9
$UCSNAME
  2

  9
$UCSORG
 10
0.0
 20
0.0
 30
0.0
  9
$UCSXDIR
 10
1.0
 20
0.0
 30
0.0
  9
$UCSYDIR
 10
0.0
 20
1.0
 30
0.0
  9
$PUCSNAME
  2

  9
$PUCSORG
 10
0.0
 20
0.0
 30
0.0
  9
$PUCSXDIR
 10
1.0
 20
0.0
 30
0.0
  9
$PUCSYDIR
 10
0.0
 20
1.0
 30
0.0
  9
$USERI1
 70
     0
  9
$USERI2
 70
     0
  9
$USERI3
 70
     0
  9
$USERI4
 70
     0
  9
$USERI5
 70
     0
  9
$USERR1
 40
0.0
  9
$USERR2
 40
0.0
  9
$USERR3
 40
0.0
  9
$USERR4
 40
0.0
  9
$USERR5
 40
0.0
  9
$WORLDVIEW
 70
     1
  9
$SHADEDGE
 70
     3
  9
$SHADEDIF
 70
    70
  9
$TILEMODE
 70
     1
  9
$MAXACTVP
 70
    48
  9
$PLIMCHECK
 70
     0
  9
$PEXTMIN
 10
1.0000000000000000E+20
 20
1.0000000000000000E+20
 30
1.0000000000000000E+20
  9
$PEXTMAX
 10
-1.0000000000000000E+20
 20
-1.0000000000000000E+20
 30
-1.0000000000000000E+20
  9
$PLIMMIN
 10
0.0
 20
0.0
  9
$PLIMMAX
 10
12.0
 20
9.0
  9
$UNITMODE
 70
     0
  9
$VISRETAIN
 70
     1
  9
$PLINEGEN
 70
     0
  9
$PSLTSCALE
 70
     1
  0
ENDSEC
  0
SECTION
  2
TABLES
  0
TABLE
  2
VPORT
 70
     1
  0
VPORT
  2
*ACTIVE
 70
     0
 10
0.0
 20
0.0
 11
1.0
 21
1.0
 12
-0.0058544893206616
 22
-0.314553113289715
 13
0.0
 23
0.0
 14
1.0
 24
1.0
 15
0.0
 25
0.0
 16
0.0
 26
0.0
 36
0.0358426669215338
 17
5.8196097916264806
 27
1.0864518440204629
 37
0.0
 40
10.1372787681928909
 41
3.1182994454713491
 42
50.0
 43
0.0
 44
0.0
 50
0.0
 51
0.0
 71
     0
 72
   100
 73
     1
 74
     1
 75
     0
 76
     0
 77
     0
 78
     0
  0
ENDTAB
  0
TABLE
  2
LTYPE
 70
     2
  0
LTYPE
  2
CONTINUOUS
 70
     0
  3
Solid line
 72
    65
 73
     0
 40
0.0
  0
LTYPE
  2
PHANTOM2
 70
     0
  3
___ _ _ ___ _ _ ___ _ _ ___ _ _
 72
    65
 73
     6
 40
1.25
 49
0.625
 49
-0.125
 49
0.125
 49
-0.125
 49
0.125
 49
-0.125
  0
ENDTAB
  0
TABLE
  2
LAYER
 70
     2
  0
LAYER
  2
0
 70
     0
 62
     7
  6
CONTINUOUS
  0
LAYER
  2
DEFPOINTS
 70
     0
 62
     7
  6
CONTINUOUS
  0
ENDTAB
  0
TABLE
  2
STYLE
 70
     1
  0
STYLE
  2
STANDARD
 70
     0
 40
0.0
 41
0.8
 50
0.0
 71
     0
 42
0.2
  3
txt
  4

  0
ENDTAB
  0
TABLE
  2
VIEW
 70
     0
  0
ENDTAB
  0
TABLE
  2
UCS
 70
     0
  0
ENDTAB
  0
TABLE
  2
APPID
 70
     9
  0
APPID
  2
ACAD
 70
     0
  0
APPID
  2
ACAD_MLEADERVER
 70
     0
  0
APPID
  2
ACAD_NAV_VCDISPLAY
 70
     0
  0
APPID
  2
ACAD_EXEMPT_FROM_CAD_STANDARDS
 70
     0
  0
APPID
  2
ACAD_DSTYLE_DIMJAG
 70
     0
  0
APPID
  2
ACAD_DSTYLE_DIMTALN
 70
     0
  0
APPID
  2
ACDBATTR
 70
     0
  0
APPID
  2
ACAD_PSEXT
 70
     0
  0
APPID
  2
ACADANNOTATIVE
 70
     0
  0
ENDTAB
  0
TABLE
  2
DIMSTYLE
 70
     3
  0
DIMSTYLE
  2
STANDARD
 70
     0
  3

  4

  5

  6

  7

 40
1.0
 41
0.1875
 42
0.0625
 43
0.38
 44
0.125
 45
0.0
 46
0.0
 47
0.01
 48
0.01
140
0.15625
141
0.09
142
0.0
143
25.3999999999999986
144
1.0
145
0.0
146
1.0
147
0.09
 71
     1
 72
     0
 73
     1
 74
     1
 75
     0
 76
     0
 77
     0
 78
     4
170
     0
171
     2
172
     0
173
     0
174
     0
175
     0
176
     0
177
     0
178
     0
  0
DIMSTYLE
  2
ANNOTATIVE
 70
     0
  3

  4

  5

  6

  7

 40
0.0
 41
2.5
 42
0.625
 43
3.75
 44
1.25
 45
0.0
 46
0.0
 47
0.0
 48
0.0
140
2.5
141
2.5
142
0.0
143
0.03937007874016
144
1.0
145
0.0
146
1.0
147
0.625
 71
     0
 72
     0
 73
     0
 74
     0
 75
     0
 76
     0
 77
     1
 78
     8
170
     0
171
     3
172
     1
173
     0
174
     0
175
     0
176
     0
177
     0
178
     0
  0
DIMSTYLE
  2
ISO-25
 70
     0
  3

  4

  5

  6

  7

 40
1.0
 41
2.5
 42
0.625
 43
3.75
 44
1.25
 45
0.0
 46
0.0
 47
0.0
 48
0.0
140
2.5
141
2.5
142
0.0
143
0.03937007874016
144
1.0
145
0.0
146
1.0
147
0.625
 71
     0
 72
     0
 73
     0
 74
     0
 75
     0
 76
     0
 77
     1
 78
     8
170
     0
171
     3
172
     1
173
     0
174
     0
175
     0
176
     0
177
     0
178
     0
  0
ENDTAB
  0
ENDSEC
  0
SECTION
  2
BLOCKS
  0
BLOCK
  8
0
  2
$MODEL_SPACE
 70
     0
 10
0.0
 20
0.0
 30
0.0
  3
$MODEL_SPACE
  1

  0
ENDBLK
  5
21
  8
0
  0
BLOCK
 67
     1
  8
0
  2
$PAPER_SPACE
 70
     0
 10
0.0
 20
0.0
 30
0.0
  3
$PAPER_SPACE
  1

  0
ENDBLK
  5
1D
 67
     1
  8
0
  0
BLOCK
  8
0
  2
_FILLED
 70
     0
 10
0.0
 20
0.0
 30
0.0
  3
_FILLED
  1

  0
SOLID
  5
1F2C
  8
0
  6
BYBLOCK
 62
     0
 10
0.0
 20
0.0
 30
0.0
 11
-1.0
 21
0.1666666667
 31
0.0
 12
-1.0
 22
-0.1666666667
 32
0.0
 13
-1.0
 23
-0.1666666667
 33
0.0
  0
ENDBLK
  5
1F2D
  8
0
  6
BYBLOCK
 62
     0
  0
ENDSEC
  0
SECTION
  2
ENTITIES
  0
ATTDEF
  5
1B48
  8
DEFPOINTS
 10
5.8142764581342021
 20
1.087618510687129
 30
0.0
 40
0.001
  1
K-97168IN
  3

  2
MODELNUMBER
 70
     0
1001
ACDBATTR
1070
     0
1070
     1
  0
ATTDEF
  5
1B49
  8
DEFPOINTS
 10
5.8142764581342021
 20
1.085951844020463
 30
0.0
 40
0.001
  1
LOURE
  3

  2
TRADENAME
 70
     0
1001
ACDBATTR
1070
     0
1070
     1
  0
ATTDEF
  5
1B4A
  8
DEFPOINTS
 10
5.8142764581342021
 20
1.084285177353798
 30
0.0
 40
0.001
  1
SHOWERHEAD
  3

  2
PRODUCT
 70
     0
1001
ACDBATTR
1070
     0
1070
     1
  0
LINE
  5
297B
  8
0
 10
20.5778775935971687
 20
0.0731102598554387
 30
0.0
 11
-8.9496814616028288
 21
0.0731102598554387
 31
0.0
  0
LINE
  5
297C
  8
0
 10
20.5778775935971687
 20
0.0731102598554383
 30
0.0
 11
20.5778775935971687
 21
0.0140551417554389
 31
0.0
  0
LINE
  5
297D
  8
0
 10
21.5621295620971694
 20
-0.2418503700445607
 30
0.0
 11
21.5621295620971694
 21
-0.300905488144561
 31
0.0
  0
LINE
  5
297E
  8
0
 10
14.9256714310983405
 20
2.0416141968554391
 30
0.0
 11
14.9256714310984098
 21
0.8998819133554407
 31
0.0
  0
LINE
  5
297F
  8
0
 10
14.0201596200971697
 20
2.0022441181554389
 30
0.0
 11
14.0201596200971697
 21
0.0731102598554387
 31
0.0
  0
LINE
  5
2980
  8
0
 10
14.0201596200971697
 20
-0.1827952519445608
 30
0.0
 11
14.0201596200971697
 21
-0.2418503700445611
 31
0.0
  0
LINE
  5
2981
  8
0
 10
14.0595296987971707
 20
2.0416141968554391
 30
0.0
 11
14.9256714310971699
 21
2.0416141968554391
 31
0.0
  0
ARC
  5
2982
  8
0
 10
14.0595296987971707
 20
2.0022441181554398
 30
0.0
 40
0.0393700786999975
 50
89.9999999999974563
 51
180.0000000000013074
  0
LINE
  5
2983
  8
0
 10
14.0792147381971695
 20
0.0731102598554387
 30
0.0
 11
14.0792147381971695
 21
1.9825590787554379
 31
0.0
  0
LINE
  5
2984
  8
0
 10
14.0792147381971695
 20
1.9825590787554379
 30
0.0
 11
14.86661631299717
 21
1.9825590787554379
 31
0.0
  0
LINE
  5
2985
  8
0
 10
14.86661631299717
 20
2.0416141968554391
 30
0.0
 11
14.86661631299717
 21
0.919566952755439
 31
0.0
  0
LINE
  5
2986
  8
0
 10
14.86661631299717
 20
0.919566952755439
 30
0.0
 11
14.1579548956971699
 21
0.9195669527554386
 31
0.0
  0
LINE
  5
2987
  8
0
 10
14.1185848168971706
 20
0.919566952755439
 30
0.0
 11
14.0792147381971695
 21
0.919566952755439
 31
0.0
  0
LINE
  5
2988
  8
0
 10
14.1776399350971705
 20
0.0731102598554387
 30
0.0
 11
14.1776399350971705
 21
0.8605118346554387
 31
0.0
  0
LINE
  5
2989
  8
0
 10
14.1776399350971705
 20
0.8605118346554387
 30
0.0
 11
14.8863013523971706
 21
0.8605118346554387
 31
0.0
  0
ARC
  5
298A
  8
0
 10
14.8863013523971706
 20
0.8998819133554363
 30
0.0
 40
0.0393700786999975
 50
269.9999999999973284
 51
0.0000000000038676
  0
LINE
  5
298B
  8
0
 10
14.1185848168971706
 20
0.0731102598554387
 30
0.0
 11
14.1185848168971706
 21
0.919566952755439
 31
0.0
  0
ARC
  5
298C
  8
0
 10
14.1579548956971699
 20
0.880196874055442
 30
0.0
 40
0.0393700786999975
 50
89.9999999999974563
 51
180.0000000000044054
  0
LINE
  5
298D
  8
0
 10
14.1776399350971705
 20
-0.1827952519445608
 30
0.0
 11
14.1776399350971705
 21
-0.2418503700445611
 31
0.0
  0
LINE
  5
298E
  8
0
 10
14.1776399350971705
 20
-0.300905488144561
 30
0.0
 11
14.1776399350971705
 21
-0.3450519584445613
 31
0.0
  0
ARC
  5
298F
  8
0
 10
14.1382698565160396
 20
-0.345051958444559
 30
0.0
 40
0.0393700785811344
 50
314.9999998776771122
 51
359.9999999999960778
  0
LINE
  5
2990
  8
0
 10
14.1661087059971695
 20
-0.372890808044561
 30
0.0
 11
14.0527748610052097
 21
-0.4862246525526
 31
0.0
  0
LINE
  5
2991
  8
0
 10
14.0527748610052097
 20
-0.4862246525526
 30
0.0
 11
13.9416571210971707
 21
-0.3751069126445605
 31
0.0
  0
LINE
  5
2992
  8
0
 10
13.9416571210971707
 20
-0.3751069126445605
 30
0.0
 11
14.0153768063457402
 21
-0.300905488144561
 31
0.0
  0
LINE
  5
2993
  8
0
 10
20.5778775935971687
 20
0.0140551417554389
 30
0.0
 11
-8.9496814616028288
 21
0.0140551417554389
 31
0.0
  0
LINE
  5
2994
  8
0
 10
21.5621295620971694
 20
-0.300905488144561
 30
0.0
 11
-9.9339334301028295
 21
-0.300905488144561
 31
0.0
  0
LINE
  5
2995
  8
0
 10
21.5621295620971694
 20
-0.2418503700445611
 30
0.0
 11
-9.9339334301028295
 21
-0.2418503700445611
 31
0.0
  0
LINE
  5
2996
  8
0
 10
18.203861845497169
 20
-0.1827952519445608
 30
0.0
 11
-6.5756657135028256
 21
-0.1827952519445608
 31
0.0
  0
LINE
  5
2997
  8
0
 10
19.4085840028283094
 20
-0.1827952519445608
 30
0.0
 11
19.4085862549971715
 21
-0.1827952519445608
 31
0.0
  0
LINE
  5
2998
  8
0
 10
17.0739405856971693
 20
0.0140551417554389
 30
0.0
 11
17.0739405856971693
 21
-0.1827952519445608
 31
0.0
  0
LINE
  5
2999
  8
0
 10
18.203861845497169
 20
-0.2418503700445611
 30
0.0
 11
18.203861845497169
 21
-0.0719664545445613
 31
0.0
  0
LINE
  5
299A
  8
0
 10
18.203861845497169
 20
-0.0719664545445613
 30
0.0
 11
19.4085723456971699
 21
-0.0719664545445613
 31
0.0
  0
LINE
  5
299B
  8
0
 10
19.4085723456971699
 20
-0.0719664545445613
 30
0.0
 11
19.4085902143299407
 21
-0.2418503700445607
 31
0.0
  0
LINE
  5
299C
  8
0
 10
19.4085862549971715
 20
0.0140551417554389
 30
0.0
 11
19.4085862549971715
 21
0.0067737029554387
 31
0.0
  0
LINE
  5
299D
  8
0
 10
19.4085862549971715
 20
0.0067737029554387
 30
0.0
 11
18.2038756660971686
 21
0.0067737029554387
 31
0.0
  0
LINE
  5
299E
  8
0
 10
18.2038756660971686
 20
0.0067737029554387
 30
0.0
 11
18.203861845497169
 21
0.0140551417554389
 31
0.0
  0
LINE
  5
299F
  8
0
 10
18.2471689320971713
 20
-0.0719664545445613
 30
0.0
 11
18.2471689320971713
 21
0.0067737029554387
 31
0.0
  0
LINE
  5
29A0
  8
0
 10
18.2131144827971703
 20
0.0731102598554387
 30
0.0
 11
18.2432319242971701
 21
0.103227701355439
 31
0.0
  0
LINE
  5
29A1
  8
0
 10
18.2432319242971701
 20
0.103227701355439
 30
0.0
 11
19.369204566597169
 21
0.103227701355439
 31
0.0
  0
LINE
  5
29A2
  8
0
 10
19.369204566597169
 20
0.103227701355439
 30
0.0
 11
19.3993336176971702
 21
0.0731102598554387
 31
0.0
  0
LINE
  5
29A3
  8
0
 10
19.3652791683971692
 20
-0.0719664545445613
 30
0.0
 11
19.3652791683971692
 21
0.0067737029554387
 31
0.0
  0
ARC
  5
29A4
  8
0
 10
16.3450240688971711
 20
-0.2064172992445528
 30
0.0
 40
0.023622047199992
 50
90.0
 51
173.4999998994831003
  0
LINE
  5
29A5
  8
0
 10
16.321553867630481
 20
-0.2037432075445609
 30
0.0
 11
16.3172121048226693
 21
-0.2418503700445611
 31
0.0
  0
LINE
  5
29A6
  8
0
 10
16.3104836239136688
 20
-0.300905488144561
 30
0.0
 11
16.3036028058744691
 21
-0.3612976520558013
 31
0.0
  0
ARC
  5
29A7
  8
0
 10
16.2918677051976992
 20
-0.3599606062008585
 30
0.0
 40
0.0118110236437044
 50
270.000001452736285
 51
353.4999998994896941
  0
LINE
  5
29A8
  8
0
 10
16.2918677054971717
 20
-0.3717716298445612
 30
0.0
 11
16.2024701587971691
 21
-0.3717716321112388
 31
0.0
  0
ARC
  5
29A9
  8
0
 10
16.2024701584977002
 20
-0.3599606091361145
 30
0.0
 40
0.0118110229751243
 50
186.4999865722290053
 51
270.0000014527360008
  0
LINE
  5
29AA
  8
0
 10
16.1907350581695191
 20
-0.361297652144561
 30
0.0
 11
16.1838542545647002
 21
-0.300905488144561
 31
0.0
  0
LINE
  5
29AB
  8
0
 10
16.1771257877803905
 20
-0.2418503700445611
 30
0.0
 11
16.1727840336078401
 21
-0.2037432033391253
 31
0.0
  0
ARC
  5
29AC
  8
0
 10
16.1493138426303702
 20
-0.2064172882532502
 30
0.0
 40
0.0236220362087366
 50
6.4999865722294281
 51
90.0001148077454616
  0
ARC
  5
29AD
  8
0
 10
15.5554806397590806
 20
-0.2064172992445528
 30
0.0
 40
0.023622047199992
 50
90.0
 51
173.4999998994831003
  0
LINE
  5
29AE
  8
0
 10
15.5320104384923905
 20
-0.2037432075445609
 30
0.0
 11
15.5276686756845805
 21
-0.2418503700445611
 31
0.0
  0
LINE
  5
29AF
  8
0
 10
15.5209401947755801
 20
-0.300905488144561
 30
0.0
 11
15.5140593767363804
 21
-0.3612976520558013
 31
0.0
  0
ARC
  5
29B0
  8
0
 10
15.5023242760596105
 20
-0.3599606062008585
 30
0.0
 40
0.0118110236437044
 50
270.000001452736285
 51
353.4999998994896941
  0
LINE
  5
29B1
  8
0
 10
15.5023242763590794
 20
-0.3717716298445612
 30
0.0
 11
15.4129267296590804
 21
-0.3717716321112388
 31
0.0
  0
ARC
  5
29B2
  8
0
 10
15.4129267293596097
 20
-0.3599606091361145
 30
0.0
 40
0.0118110229751243
 50
186.4999865722290053
 51
270.0000014527360008
  0
LINE
  5
29B3
  8
0
 10
15.4011916290314304
 20
-0.361297652144561
 30
0.0
 11
15.3943108254266008
 21
-0.300905488144561
 31
0.0
  0
LINE
  5
29B4
  8
0
 10
15.3875823586423
 20
-0.2418503700445611
 30
0.0
 11
15.3832406044697496
 21
-0.2037432033391253
 31
0.0
  0
ARC
  5
29B5
  8
0
 10
15.3597704134922797
 20
-0.2064172882532502
 30
0.0
 40
0.0236220362087366
 50
6.4999865722294281
 51
90.0001148077454616
  0
ARC
  5
29B6
  8
0
 10
14.9655793627459808
 20
-0.2064172992445528
 30
0.0
 40
0.023622047199992
 50
90.0
 51
173.4999998994831003
  0
LINE
  5
29B7
  8
0
 10
14.9421091614792907
 20
-0.2037432075445609
 30
0.0
 11
14.9377673986714807
 21
-0.2418503700445611
 31
0.0
  0
LINE
  5
29B8
  8
0
 10
14.9310389177624803
 20
-0.300905488144561
 30
0.0
 11
14.9241580997232806
 21
-0.3612976520558013
 31
0.0
  0
ARC
  5
29B9
  8
0
 10
14.9124229990465107
 20
-0.3599606062008585
 30
0.0
 40
0.0118110236437044
 50
270.000001452736285
 51
353.4999998994896941
  0
LINE
  5
29BA
  8
0
 10
14.9124229993459796
 20
-0.3717716298445612
 30
0.0
 11
14.8230254526459806
 21
-0.3717716321112388
 31
0.0
  0
ARC
  5
29BB
  8
0
 10
14.8230254523465099
 20
-0.3599606091361145
 30
0.0
 40
0.0118110229751243
 50
186.4999865722290053
 51
270.0000014527360008
  0
LINE
  5
29BC
  8
0
 10
14.8112903520183306
 20
-0.361297652144561
 30
0.0
 11
14.8044095484134992
 21
-0.300905488144561
 31
0.0
  0
LINE
  5
29BD
  8
0
 10
14.7976810816292108
 20
-0.2418503700445611
 30
0.0
 11
14.7933393274566498
 21
-0.2037432033391253
 31
0.0
  0
ARC
  5
29BE
  8
0
 10
14.7698691364791799
 20
-0.2064172882532502
 30
0.0
 40
0.0236220362087366
 50
6.4999865722294281
 51
90.0001148077454616
  0
ARC
  5
29BF
  8
0
 10
14.5717360893051993
 20
-0.2064172992445528
 30
0.0
 40
0.023622047199992
 50
90.0
 51
173.4999998994831003
  0
LINE
  5
29C0
  8
0
 10
14.5482658880385092
 20
-0.2037432075445609
 30
0.0
 11
14.5439241252306992
 21
-0.2418503700445611
 31
0.0
  0
LINE
  5
29C1
  8
0
 10
14.5371956443217005
 20
-0.300905488144561
 30
0.0
 11
14.5303148262825008
 21
-0.3612976520558013
 31
0.0
  0
ARC
  5
29C2
  8
0
 10
14.5185797256057292
 20
-0.3599606062008585
 30
0.0
 40
0.0118110236437044
 50
270.000001452736285
 51
353.4999998994896941
  0
LINE
  5
29C3
  8
0
 10
14.5185797259051999
 20
-0.3717716298445612
 30
0.0
 11
14.4291821792052009
 21
-0.3717716321112388
 31
0.0
  0
ARC
  5
29C4
  8
0
 10
14.4291821789057302
 20
-0.3599606091361145
 30
0.0
 40
0.0118110229751243
 50
186.4999865722290053
 51
270.0000014527360008
  0
LINE
  5
29C5
  8
0
 10
14.4174470785775508
 20
-0.361297652144561
 30
0.0
 11
14.4105662749727195
 21
-0.300905488144561
 31
0.0
  0
LINE
  5
29C6
  8
0
 10
14.4038378081884293
 20
-0.2418503700445611
 30
0.0
 11
14.3994960540158701
 21
-0.2037432033391253
 31
0.0
  0
ARC
  5
29C7
  8
0
 10
14.3760258630384001
 20
-0.2064172882532502
 30
0.0
 40
0.0236220362087366
 50
6.4999865722294281
 51
90.0001148077454616
  0
ARC
  5
29C8
  8
0
 10
13.7857282027346706
 20
-0.2064172992445528
 30
0.0
 40
0.023622047199992
 50
90.0
 51
173.4999998994831003
  0
LINE
  5
29C9
  8
0
 10
13.7622580014679805
 20
-0.2037432075445609
 30
0.0
 11
13.7579162386601705
 21
-0.2418503700445611
 31
0.0
  0
LINE
  5
29CA
  8
0
 10
13.7511877577511701
 20
-0.300905488144561
 30
0.0
 11
13.7443069397119704
 21
-0.3612976520558013
 31
0.0
  0
ARC
  5
29CB
  8
0
 10
13.7325718390352005
 20
-0.3599606062008585
 30
0.0
 40
0.0118110236437044
 50
270.000001452736285
 51
353.4999998994896941
  0
LINE
  5
29CC
  8
0
 10
13.7325718393346694
 20
-0.3717716298445612
 30
0.0
 11
13.6431742926346704
 21
-0.3717716321112388
 31
0.0
  0
ARC
  5
29CD
  8
0
 10
13.6431742923351997
 20
-0.3599606091361145
 30
0.0
 40
0.0118110229751243
 50
186.4999865722290053
 51
270.0000014527360008
  0
LINE
  5
29CE
  8
0
 10
13.6314391920070204
 20
-0.361297652144561
 30
0.0
 11
13.6245583884021908
 21
-0.300905488144561
 31
0.0
  0
LINE
  5
29CF
  8
0
 10
13.6178299216179006
 20
-0.2418503700445611
 30
0.0
 11
13.6134881674453396
 21
-0.2037432033391253
 31
0.0
  0
ARC
  5
29D0
  8
0
 10
13.5900179764678697
 20
-0.2064172882532502
 30
0.0
 40
0.0236220362087366
 50
6.4999865722294281
 51
90.0001148077453763
  0
ARC
  5
29D1
  8
0
 10
12.99600404618797
 20
-0.2064172992445528
 30
0.0
 40
0.023622047199992
 50
90.0
 51
173.4999998994831003
  0
LINE
  5
29D2
  8
0
 10
12.9725338449212799
 20
-0.2037432075445609
 30
0.0
 11
12.96819208211347
 21
-0.2418503700445611
 31
0.0
  0
LINE
  5
29D3
  8
0
 10
12.9614636012044802
 20
-0.300905488144561
 30
0.0
 11
12.9545827831652698
 21
-0.3612976520558013
 31
0.0
  0
ARC
  5
29D4
  8
0
 10
12.9428476824884999
 20
-0.3599606062008585
 30
0.0
 40
0.0118110236437044
 50
270.000001452736285
 51
353.4999998994896941
  0
LINE
  5
29D5
  8
0
 10
12.9428476827879706
 20
-0.3717716298445612
 30
0.0
 11
12.8534501360879698
 21
-0.3717716321112388
 31
0.0
  0
ARC
  5
29D6
  8
0
 10
12.8534501357884992
 20
-0.3599606091361145
 30
0.0
 40
0.0118110229751243
 50
186.4999865722290053
 51
270.0000014527360008
  0
LINE
  5
29D7
  8
0
 10
12.8417150354603198
 20
-0.361297652144561
 30
0.0
 11
12.8348342318555009
 21
-0.300905488144561
 31
0.0
  0
LINE
  5
29D8
  8
0
 10
12.8281057650712
 20
-0.2418503700445611
 30
0.0
 11
12.8237640108986408
 21
-0.2037432033391253
 31
0.0
  0
ARC
  5
29D9
  8
0
 10
12.8002938199211798
 20
-0.2064172882532502
 30
0.0
 40
0.0236220362087366
 50
6.4999865722294281
 51
90.0001148077453763
  0
ARC
  5
29DA
  8
0
 10
12.2104022116787601
 20
-0.2064172992445528
 30
0.0
 40
0.023622047199992
 50
90.0
 51
173.4999998994831003
  0
LINE
  5
29DB
  8
0
 10
12.18693201041207
 20
-0.2037432075445609
 30
0.0
 11
12.1825902476042707
 21
-0.2418503700445611
 31
0.0
  0
LINE
  5
29DC
  8
0
 10
12.1758617666952702
 20
-0.300905488144561
 30
0.0
 11
12.1689809486560598
 21
-0.3612976520558013
 31
0.0
  0
ARC
  5
29DD
  8
0
 10
12.1572458479793006
 20
-0.3599606062008585
 30
0.0
 40
0.0118110236437044
 50
270.000001452736285
 51
353.4999998994896941
  0
LINE
  5
29DE
  8
0
 10
12.1572458482787606
 20
-0.3717716298445612
 30
0.0
 11
12.0678483015787599
 21
-0.3717716321112388
 31
0.0
  0
ARC
  5
29DF
  8
0
 10
12.0678483012792999
 20
-0.3599606091361145
 30
0.0
 40
0.0118110229751243
 50
186.4999865722290053
 51
270.0000014527360008
  0
LINE
  5
29E0
  8
0
 10
12.0561132009511098
 20
-0.361297652144561
 30
0.0
 11
12.0492323973462891
 21
-0.300905488144561
 31
0.0
  0
LINE
  5
29E1
  8
0
 10
12.0425039305619901
 20
-0.2418503700445611
 30
0.0
 11
12.0381621763894398
 21
-0.2037432033391253
 31
0.0
  0
ARC
  5
29E2
  8
0
 10
12.0146919854119698
 20
-0.2064172882532502
 30
0.0
 40
0.0236220362087366
 50
6.4999865722294281
 51
90.0001148077453763
  0
ARC
  5
29E3
  8
0
 10
11.4214213425334705
 20
-0.2064172992445528
 30
0.0
 40
0.023622047199992
 50
90.0
 51
173.4999998994831003
  0
LINE
  5
29E4
  8
0
 10
11.3979511412667804
 20
-0.2037432075445609
 30
0.0
 11
11.3936093784589705
 21
-0.2418503700445611
 31
0.0
  0
LINE
  5
29E5
  8
0
 10
11.3868808975499807
 20
-0.300905488144561
 30
0.0
 11
11.3800000795107703
 21
-0.3612976520558013
 31
0.0
  0
ARC
  5
29E6
  8
0
 10
11.3682649788340004
 20
-0.3599606062008585
 30
0.0
 40
0.0118110236437044
 50
270.000001452736285
 51
353.4999998994896941
  0
LINE
  5
29E7
  8
0
 10
11.3682649791334693
 20
-0.3717716298445612
 30
0.0
 11
11.2788674324334703
 21
-0.3717716321112388
 31
0.0
  0
ARC
  5
29E8
  8
0
 10
11.2788674321339997
 20
-0.3599606091361145
 30
0.0
 40
0.0118110229751243
 50
186.4999865722290053
 51
270.0000014527360008
  0
LINE
  5
29E9
  8
0
 10
11.2671323318058203
 20
-0.361297652144561
 30
0.0
 11
11.2602515282009996
 21
-0.300905488144561
 31
0.0
  0
LINE
  5
29EA
  8
0
 10
11.2535230614167006
 20
-0.2418503700445611
 30
0.0
 11
11.2491813072441396
 21
-0.2037432033391253
 31
0.0
  0
ARC
  5
29EB
  8
0
 10
11.2257111162666696
 20
-0.2064172882532502
 30
0.0
 40
0.0236220362087366
 50
6.4999865722294281
 51
90.0001148077453763
  0
ARC
  5
29EC
  8
0
 10
10.6364857941915094
 20
-0.2064172992445528
 30
0.0
 40
0.023622047199992
 50
90.0
 51
173.4999998994831003
  0
LINE
  5
29ED
  8
0
 10
10.6130155929248193
 20
-0.2037432075445609
 30
0.0
 11
10.6086738301170094
 21
-0.2418503700445611
 31
0.0
  0
LINE
  5
29EE
  8
0
 10
10.6019453492080107
 20
-0.300905488144561
 30
0.0
 11
10.5950645311688092
 21
-0.3612976520558013
 31
0.0
  0
ARC
  5
29EF
  8
0
 10
10.5833294304920393
 20
-0.3599606062008585
 30
0.0
 40
0.0118110236437044
 50
270.000001452736285
 51
353.4999998994896941
  0
LINE
  5
29F0
  8
0
 10
10.58332943079151
 20
-0.3717716298445612
 30
0.0
 11
10.4939318840915092
 21
-0.3717716321112388
 31
0.0
  0
ARC
  5
29F1
  8
0
 10
10.4939318837920403
 20
-0.3599606091361145
 30
0.0
 40
0.0118110229751243
 50
186.4999865722290053
 51
270.0000014527360008
  0
LINE
  5
29F2
  8
0
 10
10.4821967834638592
 20
-0.361297652144561
 30
0.0
 11
10.4753159798590296
 21
-0.300905488144561
 31
0.0
  0
LINE
  5
29F3
  8
0
 10
10.4685875130747394
 20
-0.2418503700445611
 30
0.0
 11
10.4642457589021802
 21
-0.2037432033391253
 31
0.0
  0
ARC
  5
29F4
  8
0
 10
10.4407755679247103
 20
-0.2064172882532502
 30
0.0
 40
0.0236220362087366
 50
6.4999865722294281
 51
90.0001148077453763
  0
ARC
  5
29F5
  8
0
 10
9.8563998203243237
 20
-0.2064172992445528
 30
0.0
 40
0.023622047199992
 50
90.0
 51
173.4999998994831003
  0
LINE
  5
29F6
  8
0
 10
9.8329296190576336
 20
-0.2037432075445609
 30
0.0
 11
9.8285878562498254
 21
-0.2418503700445611
 31
0.0
  0
LINE
  5
29F7
  8
0
 10
9.8218593753408285
 20
-0.300905488144561
 30
0.0
 11
9.8149785573016253
 21
-0.3612976520558013
 31
0.0
  0
ARC
  5
29F8
  8
0
 10
9.8032434566248554
 20
-0.3599606062008585
 30
0.0
 40
0.0118110236437044
 50
270.000001452736285
 51
353.4999998994896941
  0
LINE
  5
29F9
  8
0
 10
9.8032434569243243
 20
-0.3717716298445612
 30
0.0
 11
9.7138459102243253
 21
-0.3717716321112388
 31
0.0
  0
ARC
  5
29FA
  8
0
 10
9.7138459099248564
 20
-0.3599606091361145
 30
0.0
 40
0.0118110229751243
 50
186.4999865722290053
 51
270.0000014527360008
  0
LINE
  5
29FB
  8
0
 10
9.7021108095966753
 20
-0.361297652144561
 30
0.0
 11
9.6952300059918493
 21
-0.300905488144561
 31
0.0
  0
LINE
  5
29FC
  8
0
 10
9.6885015392075502
 20
-0.2418503700445611
 30
0.0
 11
9.6841597850349963
 21
-0.2037432033391253
 31
0.0
  0
ARC
  5
29FD
  8
0
 10
9.6606895940575264
 20
-0.2064172882532502
 30
0.0
 40
0.0236220362087366
 50
6.4999865722294281
 51
90.0001148077453763
  0
ARC
  5
29FE
  8
0
 10
9.0681548892218551
 20
-0.2064172992445528
 30
0.0
 40
0.023622047199992
 50
90.0
 51
173.4999998994831003
  0
LINE
  5
29FF
  8
0
 10
9.044684687955165
 20
-0.2037432075445609
 30
0.0
 11
9.0403429251473568
 21
-0.2418503700445611
 31
0.0
  0
LINE
  5
2A00
  8
0
 10
9.0336144442383581
 20
-0.300905488144561
 30
0.0
 11
9.0267336261991566
 21
-0.3612976520558013
 31
0.0
  0
ARC
  5
2A01
  8
0
 10
9.0149985255223868
 20
-0.3599606062008585
 30
0.0
 40
0.0118110236437044
 50
270.000001452736285
 51
353.4999998994896941
  0
LINE
  5
2A02
  8
0
 10
9.0149985258218557
 20
-0.3717716298445612
 30
0.0
 11
8.9256009791218567
 21
-0.3717716321112388
 31
0.0
  0
ARC
  5
2A03
  8
0
 10
8.9256009788223878
 20
-0.3599606091361145
 30
0.0
 40
0.0118110229751243
 50
186.4999865722290053
 51
270.0000014527360008
  0
LINE
  5
2A04
  8
0
 10
8.9138658784942066
 20
-0.361297652144561
 30
0.0
 11
8.9069850748893806
 21
-0.300905488144561
 31
0.0
  0
LINE
  5
2A05
  8
0
 10
8.9002566081050816
 20
-0.2418503700445611
 30
0.0
 11
8.8959148539325277
 21
-0.2037432033391253
 31
0.0
  0
ARC
  5
2A06
  8
0
 10
8.8724446629550577
 20
-0.2064172882532502
 30
0.0
 40
0.0236220362087366
 50
6.4999865722294281
 51
90.0001148077453763
  0
ARC
  5
2A07
  8
0
 10
8.2663194908348565
 20
-0.2064172992445528
 30
0.0
 40
0.023622047199992
 50
90.0
 51
173.4999998994831003
  0
LINE
  5
2A08
  8
0
 10
8.2428492895681664
 20
-0.2037432075445609
 30
0.0
 11
8.2385075267603582
 21
-0.2418503700445611
 31
0.0
  0
LINE
  5
2A09
  8
0
 10
8.2317790458513613
 20
-0.300905488144561
 30
0.0
 11
8.2248982278121581
 21
-0.3612976520558013
 31
0.0
  0
ARC
  5
2A0A
  8
0
 10
8.2131631271353882
 20
-0.3599606062008585
 30
0.0
 40
0.0118110236437044
 50
270.000001452736285
 51
353.4999998994896941
  0
LINE
  5
2A0B
  8
0
 10
8.2131631274348571
 20
-0.3717716298445612
 30
0.0
 11
8.1237655807348581
 21
-0.3717716321112388
 31
0.0
  0
ARC
  5
2A0C
  8
0
 10
8.1237655804353892
 20
-0.3599606091361145
 30
0.0
 40
0.0118110229751243
 50
186.4999865722290053
 51
270.0000014527360008
  0
LINE
  5
2A0D
  8
0
 10
8.1120304801072081
 20
-0.361297652144561
 30
0.0
 11
8.1051496765023821
 21
-0.300905488144561
 31
0.0
  0
LINE
  5
2A0E
  8
0
 10
8.0984212097180812
 20
-0.2418503700445611
 30
0.0
 11
8.0940794555455291
 21
-0.2037432033391253
 31
0.0
  0
ARC
  5
2A0F
  8
0
 10
8.0706092645680592
 20
-0.2064172882532502
 30
0.0
 40
0.0236220362087366
 50
6.4999865722294281
 51
90.0001148077454616
  0
ARC
  5
2A10
  8
0
 10
7.4770722074411777
 20
-0.2064172992445528
 30
0.0
 40
0.023622047199992
 50
90.0
 51
173.4999998994831003
  0
LINE
  5
2A11
  8
0
 10
7.4536020061744876
 20
-0.2037432075445609
 30
0.0
 11
7.4492602433666804
 21
-0.2418503700445611
 31
0.0
  0
LINE
  5
2A12
  8
0
 10
7.4425317624576834
 20
-0.300905488144561
 30
0.0
 11
7.4356509444184802
 21
-0.3612976520558013
 31
0.0
  0
ARC
  5
2A13
  8
0
 10
7.4239158437417103
 20
-0.3599606062008585
 30
0.0
 40
0.0118110236437044
 50
270.000001452736285
 51
353.4999998994896941
  0
LINE
  5
2A14
  8
0
 10
7.4239158440411792
 20
-0.3717716298445612
 30
0.0
 11
7.3345182973411802
 21
-0.3717716321112388
 31
0.0
  0
ARC
  5
2A15
  8
0
 10
7.3345182970417113
 20
-0.3599606091361145
 30
0.0
 40
0.0118110229751243
 50
186.4999865722290053
 51
270.0000014527360008
  0
LINE
  5
2A16
  8
0
 10
7.3227831967135302
 20
-0.361297652144561
 30
0.0
 11
7.3159023931087042
 21
-0.300905488144561
 31
0.0
  0
LINE
  5
2A17
  8
0
 10
7.3091739263244051
 20
-0.2418503700445611
 30
0.0
 11
7.3048321721518512
 21
-0.2037432033391253
 31
0.0
  0
ARC
  5
2A18
  8
0
 10
7.2813619811743813
 20
-0.2064172882532502
 30
0.0
 40
0.0236220362087366
 50
6.4999865722294281
 51
90.0001148077454616
  0
ARC
  5
2A19
  8
0
 10
6.6912149827214717
 20
-0.2064172992445528
 30
0.0
 40
0.023622047199992
 50
90.0
 51
173.4999998994831003
  0
LINE
  5
2A1A
  8
0
 10
6.6677447814547817
 20
-0.2037432075445609
 30
0.0
 11
6.6634030186469744
 21
-0.2418503700445611
 31
0.0
  0
LINE
  5
2A1B
  8
0
 10
6.6566745377379766
 20
-0.300905488144561
 30
0.0
 11
6.6497937196987742
 21
-0.3612976520558013
 31
0.0
  0
ARC
  5
2A1C
  8
0
 10
6.6380586190220043
 20
-0.3599606062008585
 30
0.0
 40
0.0118110236437044
 50
270.000001452736285
 51
353.4999998994896941
  0
LINE
  5
2A1D
  8
0
 10
6.6380586193214732
 20
-0.3717716298445612
 30
0.0
 11
6.5486610726214742
 21
-0.3717716321112388
 31
0.0
  0
ARC
  5
2A1E
  8
0
 10
6.5486610723220053
 20
-0.3599606091361145
 30
0.0
 40
0.0118110229751243
 50
186.4999865722290053
 51
270.0000014527360008
  0
LINE
  5
2A1F
  8
0
 10
6.5369259719938242
 20
-0.361297652144561
 30
0.0
 11
6.5300451683889982
 21
-0.300905488144561
 31
0.0
  0
LINE
  5
2A20
  8
0
 10
6.5233167016046991
 20
-0.2418503700445611
 30
0.0
 11
6.5189749474321452
 21
-0.2037432033391253
 31
0.0
  0
ARC
  5
2A21
  8
0
 10
6.4955047564546753
 20
-0.2064172882532502
 30
0.0
 40
0.0236220362087366
 50
6.4999865722294281
 51
90.0001148077454616
  0
ARC
  5
2A22
  8
0
 10
5.9117142850463402
 20
-0.2064172992445528
 30
0.0
 40
0.023622047199992
 50
90.0
 51
173.4999998994831003
  0
LINE
  5
2A23
  8
0
 10
5.8882440837796501
 20
-0.2037432075445609
 30
0.0
 11
5.8839023209718411
 21
-0.2418503700445611
 31
0.0
  0
LINE
  5
2A24
  8
0
 10
5.877173840062845
 20
-0.300905488144561
 30
0.0
 11
5.8702930220236409
 21
-0.3612976520558013
 31
0.0
  0
ARC
  5
2A25
  8
0
 10
5.858557921346871
 20
-0.3599606062008585
 30
0.0
 40
0.0118110236437044
 50
270.000001452736285
 51
353.4999998994896941
  0
LINE
  5
2A26
  8
0
 10
5.8585579216463399
 20
-0.3717716298445612
 30
0.0
 11
5.7691603749463409
 21
-0.3717716321112388
 31
0.0
  0
ARC
  5
2A27
  8
0
 10
5.769160374646872
 20
-0.3599606091361145
 30
0.0
 40
0.0118110229751243
 50
186.4999865722290053
 51
270.0000014527360008
  0
LINE
  5
2A28
  8
0
 10
5.7574252743186909
 20
-0.361297652144561
 30
0.0
 11
5.7505444707138649
 21
-0.300905488144561
 31
0.0
  0
LINE
  5
2A29
  8
0
 10
5.7438160039295658
 20
-0.2418503700445611
 30
0.0
 11
5.7394742497570119
 21
-0.2037432033391253
 31
0.0
  0
ARC
  5
2A2A
  8
0
 10
5.716004058779542
 20
-0.2064172882532502
 30
0.0
 40
0.0236220362087366
 50
6.4999865722294281
 51
90.0001148077454616
  0
LINE
  5
2A2B
  8
0
 10
10.9128228262903804
 20
1.088858291355439
 30
0.0
 11
11.7389953530039701
 21
1.088858291355439
 31
0.0
  0
LINE
  5
2A2C
  8
0
 10
11.7389953530039701
 20
1.088858291355439
 30
0.0
 11
11.7389953530039701
 21
0.6913607296675082
 31
0.0
  0
LINE
  5
2A2D
  8
0
 10
11.7389953530039701
 20
0.6913607296675082
 30
0.0
 11
10.9128228262903697
 21
0.6913607296675082
 31
0.0
  0
LINE
  5
2A2E
  8
0
 10
11.5818146013971699
 20
0.6913607296675082
 30
0.0
 11
11.5818146013971699
 21
0.3723228582554388
 31
0.0
  0
LINE
  5
2A2F
  8
0
 10
10.9715783809971708
 20
0.3723228582554379
 30
0.0
 11
11.6802397982971709
 21
0.3723228582554392
 31
0.0
  0
LINE
  5
2A30
  8
0
 10
11.6802397982971709
 20
0.3723228582554392
 30
0.0
 11
11.6999248376971696
 21
0.3526378189554391
 31
0.0
  0
LINE
  5
2A31
  8
0
 10
11.6999248376971696
 20
0.3526378189554391
 30
0.0
 11
11.6999248376971696
 21
0.2640551417554389
 31
0.0
  0
ARC
  5
2A32
  8
0
 10
12.0528862481334293
 20
0.1258426809988355
 30
0.0
 40
0.37905730644
 50
158.615706196538099
 51
187.9966175935444141
  0
LINE
  5
2A33
  8
0
 10
11.5621295620971694
 20
-0.2418503700445611
 30
0.0
 11
11.5621295620971694
 21
-0.1827952519445608
 31
0.0
  0
LINE
  5
2A34
  8
0
 10
11.7196098769647197
 20
-0.300905488144561
 30
0.0
 11
11.7196098770971702
 21
-0.4780708425298444
 31
0.0
  0
ARC
  5
2A35
  8
0
 10
11.6999248377971696
 20
-0.478070842544561
 30
0.0
 40
0.0196850393000006
 50
269.9999997089374233
 51
0.00000004283683
  0
LINE
  5
2A36
  8
0
 10
11.6999248376971696
 20
-0.4977558818445611
 30
0.0
 11
10.9518933415971702
 21
-0.4977558780445608
 31
0.0
  0
ARC
  5
2A37
  8
0
 10
10.9518933416971702
 20
-0.4780708385445603
 30
0.0
 40
0.0196850395000006
 50
180.0000116425046031
 51
269.9999997089362864
  0
LINE
  5
2A38
  8
0
 10
10.9322083021971697
 20
-0.478070842544561
 30
0.0
 11
10.9322082661971596
 21
-0.300905488144561
 31
0.0
  0
LINE
  5
2A39
  8
0
 10
11.0896886171971705
 20
-0.2418503700445607
 30
0.0
 11
11.0896886171971705
 21
-0.1827952519445608
 31
0.0
  0
LINE
  5
2A3A
  8
0
 10
10.9128228262903804
 20
1.088858291355439
 30
0.0
 11
10.9128228262903804
 21
0.6913607296675082
 31
0.0
  0
LINE
  5
2A3B
  8
0
 10
11.0700035778971699
 20
0.6913607296675082
 30
0.0
 11
11.0700035778971699
 21
0.3723228582554388
 31
0.0
  0
LINE
  5
2A3C
  8
0
 10
10.9715783809971708
 20
0.3723228582554392
 30
0.0
 11
10.9518933415971702
 21
0.3526378189554391
 31
0.0
  0
LINE
  5
2A3D
  8
0
 10
10.9518933415971702
 20
0.3526378189554391
 30
0.0
 11
10.9518933415971702
 21
0.2640551417554389
 31
0.0
  0
ARC
  5
2A3E
  8
0
 10
10.5989319311609105
 20
0.1258426809988355
 30
0.0
 40
0.37905730644
 50
352.0033824064555006
 51
21.3842938034618513
  0
LINE
  5
2A3F
  8
0
 10
5.4010118026403751
 20
1.088858291355441
 30
0.0
 11
6.2271843293539666
 21
1.088858291355441
 31
0.0
  0
LINE
  5
2A40
  8
0
 10
6.2271843293539666
 20
1.088858291355441
 30
0.0
 11
6.2271843293539666
 21
0.6913607296675095
 31
0.0
  0
LINE
  5
2A41
  8
0
 10
6.2271843293539666
 20
0.6913607296675095
 30
0.0
 11
5.4010118026403751
 21
0.6913607296675095
 31
0.0
  0
LINE
  5
2A42
  8
0
 10
6.0700035777471717
 20
0.6913607296675095
 30
0.0
 11
6.0700035777471717
 21
0.3723228582554401
 31
0.0
  0
LINE
  5
2A43
  8
0
 10
5.4597673573471708
 20
0.3723228582554392
 30
0.0
 11
6.1684287746471709
 21
0.3723228582554405
 31
0.0
  0
LINE
  5
2A44
  8
0
 10
6.1684287746471709
 20
0.3723228582554405
 30
0.0
 11
6.1881138140471741
 21
0.3526378189554404
 31
0.0
  0
LINE
  5
2A45
  8
0
 10
6.1881138140471741
 20
0.3526378189554404
 30
0.0
 11
6.1881138140471741
 21
0.2640551417554402
 31
0.0
  0
ARC
  5
2A46
  8
0
 10
6.541075224483432
 20
0.1258426809988369
 30
0.0
 40
0.37905730644
 50
158.615706196538099
 51
187.9966175935444141
  0
LINE
  5
2A47
  8
0
 10
6.050318538447172
 20
-0.2418503700445598
 30
0.0
 11
6.050318538447172
 21
-0.1827952519445595
 31
0.0
  0
LINE
  5
2A48
  8
0
 10
6.2077988533147241
 20
-0.3009054881445596
 30
0.0
 11
6.207798853447172
 21
-0.478070842529843
 31
0.0
  0
ARC
  5
2A49
  8
0
 10
6.1881138141471723
 20
-0.4780708425445597
 30
0.0
 40
0.0196850393000006
 50
269.9999997089374233
 51
0.00000004283683
  0
LINE
  5
2A4A
  8
0
 10
6.1881138140471741
 20
-0.4977558818445598
 30
0.0
 11
5.440082317947172
 21
-0.4977558780445595
 31
0.0
  0
ARC
  5
2A4B
  8
0
 10
5.4400823180471711
 20
-0.4780708385445589
 30
0.0
 40
0.0196850395000006
 50
180.0000116425044894
 51
269.9999997089362864
  0
LINE
  5
2A4C
  8
0
 10
5.4203972785471697
 20
-0.4780708425445597
 30
0.0
 11
5.420397242547164
 21
-0.3009054881445596
 31
0.0
  0
LINE
  5
2A4D
  8
0
 10
5.5778775935471714
 20
-0.2418503700445593
 30
0.0
 11
5.5778775935471714
 21
-0.1827952519445595
 31
0.0
  0
LINE
  5
2A4E
  8
0
 10
5.4010118026403751
 20
1.088858291355441
 30
0.0
 11
5.4010118026403751
 21
0.6913607296675095
 31
0.0
  0
LINE
  5
2A4F
  8
0
 10
5.5581925542471744
 20
0.6913607296675095
 30
0.0
 11
5.5581925542471744
 21
0.3723228582554401
 31
0.0
  0
LINE
  5
2A50
  8
0
 10
5.4597673573471708
 20
0.3723228582554405
 30
0.0
 11
5.440082317947172
 21
0.3526378189554404
 31
0.0
  0
LINE
  5
2A51
  8
0
 10
5.440082317947172
 20
0.3526378189554404
 30
0.0
 11
5.440082317947172
 21
0.2640551417554402
 31
0.0
  0
ARC
  5
2A52
  8
0
 10
5.0871209075109141
 20
0.1258426809988369
 30
0.0
 40
0.37905730644
 50
352.0033824064555006
 51
21.3842938034618513
  0
LINE
  5
2A53
  8
0
 10
-8.9496814616028271
 20
0.0731102598554383
 30
0.0
 11
-8.9496814616028271
 21
0.0140551417554389
 31
0.0
  0
LINE
  5
2A54
  8
0
 10
-9.9339334301028277
 20
-0.2418503700445607
 30
0.0
 11
-9.9339334301028277
 21
-0.300905488144561
 31
0.0
  0
LINE
  5
2A55
  8
0
 10
-3.2974752991040002
 20
2.0416141968554391
 30
0.0
 11
-3.2974752991040659
 21
0.8998819133554407
 31
0.0
  0
LINE
  5
2A56
  8
0
 10
-2.3919634881028271
 20
2.0022441181554389
 30
0.0
 11
-2.3919634881028271
 21
0.0731102598554387
 31
0.0
  0
LINE
  5
2A57
  8
0
 10
-2.3919634881028271
 20
-0.1827952519445608
 30
0.0
 11
-2.3919634881028271
 21
-0.2418503700445611
 31
0.0
  0
LINE
  5
2A58
  8
0
 10
-2.4313335668028251
 20
2.0416141968554391
 30
0.0
 11
-3.297475299102826
 21
2.0416141968554391
 31
0.0
  0
ARC
  5
2A59
  8
0
 10
-2.4313335668028229
 20
2.0022441181554398
 30
0.0
 40
0.0393700786999975
 50
359.9999999999986926
 51
90.0000000000025437
  0
LINE
  5
2A5A
  8
0
 10
-2.4510186062028261
 20
0.0731102598554387
 30
0.0
 11
-2.451018606202827
 21
1.9825590787554379
 31
0.0
  0
LINE
  5
2A5B
  8
0
 10
-2.451018606202827
 20
1.9825590787554379
 30
0.0
 11
-3.2384201810028239
 21
1.9825590787554379
 31
0.0
  0
LINE
  5
2A5C
  8
0
 10
-3.2384201810028239
 20
2.0416141968554391
 30
0.0
 11
-3.2384201810028239
 21
0.919566952755439
 31
0.0
  0
LINE
  5
2A5D
  8
0
 10
-3.2384201810028239
 20
0.919566952755439
 30
0.0
 11
-2.5297587637028238
 21
0.9195669527554386
 31
0.0
  0
LINE
  5
2A5E
  8
0
 10
-2.4903886849028272
 20
0.919566952755439
 30
0.0
 11
-2.451018606202827
 21
0.919566952755439
 31
0.0
  0
LINE
  5
2A5F
  8
0
 10
-2.5494438031028248
 20
0.0731102598554387
 30
0.0
 11
-2.5494438031028248
 21
0.8605118346554387
 31
0.0
  0
LINE
  5
2A60
  8
0
 10
-2.5494438031028248
 20
0.8605118346554387
 30
0.0
 11
-3.2581052204028271
 21
0.8605118346554387
 31
0.0
  0
ARC
  5
2A61
  8
0
 10
-3.258105220402828
 20
0.8998819133554363
 30
0.0
 40
0.0393700786999975
 50
179.9999999999961062
 51
270.0000000000026716
  0
LINE
  5
2A62
  8
0
 10
-2.4903886849028249
 20
0.0731102598554387
 30
0.0
 11
-2.4903886849028249
 21
0.919566952755439
 31
0.0
  0
ARC
  5
2A63
  8
0
 10
-2.5297587637028238
 20
0.880196874055442
 30
0.0
 40
0.0393700786999975
 50
359.9999999999955094
 51
90.0000000000025437
  0
LINE
  5
2A64
  8
0
 10
-2.5494438031028319
 20
-0.1827952519445608
 30
0.0
 11
-2.5494438031028301
 21
-0.2418503700445611
 31
0.0
  0
LINE
  5
2A65
  8
0
 10
-2.5494438031028279
 20
-0.300905488144561
 30
0.0
 11
-2.549443803102827
 21
-0.3450519584445613
 31
0.0
  0
ARC
  5
2A66
  8
0
 10
-2.5100737245216922
 20
-0.345051958444559
 30
0.0
 40
0.0393700785811344
 50
180.0000000000038085
 51
225.0000001223228878
  0
LINE
  5
2A67
  8
0
 10
-2.5379125740028261
 20
-0.372890808044561
 30
0.0
 11
-2.4245787290108658
 21
-0.4862246525526
 31
0.0
  0
LINE
  5
2A68
  8
0
 10
-2.4245787290108658
 20
-0.4862246525526
 30
0.0
 11
-2.3134609891028268
 21
-0.3751069126445605
 31
0.0
  0
LINE
  5
2A69
  8
0
 10
-2.3134609891028268
 20
-0.3751069126445605
 30
0.0
 11
-2.3861978735432898
 21
-0.3018947113040982
 31
0.0
  0
LINE
  5
2A6A
  8
0
 10
-7.7803878708339642
 20
-0.1827952519445608
 30
0.0
 11
-7.7803901230028263
 21
-0.1827952519445608
 31
0.0
  0
LINE
  5
2A6B
  8
0
 10
-5.4457444537028268
 20
0.0140551417554389
 30
0.0
 11
-5.4457444537028268
 21
-0.1827952519445608
 31
0.0
  0
LINE
  5
2A6C
  8
0
 10
-6.5756657135028274
 20
-0.2418503700445611
 30
0.0
 11
-6.5756657135028274
 21
-0.0719664545445613
 31
0.0
  0
LINE
  5
2A6D
  8
0
 10
-6.5756657135028274
 20
-0.0719664545445613
 30
0.0
 11
-7.7803762137028283
 21
-0.0719664545445613
 31
0.0
  0
LINE
  5
2A6E
  8
0
 10
-7.7803762137028283
 20
-0.0719664545445613
 30
0.0
 11
-7.7803940823355946
 21
-0.2418503700445607
 31
0.0
  0
LINE
  5
2A6F
  8
0
 10
-7.7803901230028263
 20
0.0140551417554389
 30
0.0
 11
-7.7803901230028263
 21
0.0067737029554387
 31
0.0
  0
LINE
  5
2A70
  8
0
 10
-7.7803901230028263
 20
0.0067737029554387
 30
0.0
 11
-6.575679534102826
 21
0.0067737029554387
 31
0.0
  0
LINE
  5
2A71
  8
0
 10
-6.575679534102826
 20
0.0067737029554387
 30
0.0
 11
-6.5756657135028274
 21
0.0140551417554389
 31
0.0
  0
LINE
  5
2A72
  8
0
 10
-6.6189728001028261
 20
-0.0719664545445613
 30
0.0
 11
-6.6189728001028261
 21
0.0067737029554387
 31
0.0
  0
LINE
  5
2A73
  8
0
 10
-6.5849183508028277
 20
0.0731102598554387
 30
0.0
 11
-6.615035792302824
 21
0.103227701355439
 31
0.0
  0
LINE
  5
2A74
  8
0
 10
-6.615035792302824
 20
0.103227701355439
 30
0.0
 11
-7.7410084346028274
 21
0.103227701355439
 31
0.0
  0
LINE
  5
2A75
  8
0
 10
-7.7410084346028274
 20
0.103227701355439
 30
0.0
 11
-7.7711374857028277
 21
0.0731102598554387
 31
0.0
  0
LINE
  5
2A76
  8
0
 10
-7.7370830364028267
 20
-0.0719664545445613
 30
0.0
 11
-7.7370830364028267
 21
0.0067737029554387
 31
0.0
  0
ARC
  5
2A77
  8
0
 10
-4.716827936902825
 20
-0.2064172992445528
 30
0.0
 40
0.023622047199992
 50
6.5000001005169334
 51
90.0
  0
LINE
  5
2A78
  8
0
 10
-4.6933577356361349
 20
-0.2037432075445609
 30
0.0
 11
-4.6890159728283267
 21
-0.2418503700445611
 31
0.0
  0
LINE
  5
2A79
  8
0
 10
-4.6822874919193298
 20
-0.300905488144561
 30
0.0
 11
-4.6754066738801274
 21
-0.3612976520558013
 31
0.0
  0
ARC
  5
2A7A
  8
0
 10
-4.6636715732033567
 20
-0.3599606062008585
 30
0.0
 40
0.0118110236437044
 50
186.5000001005103059
 51
269.9999985472636013
  0
LINE
  5
2A7B
  8
0
 10
-4.6636715735028256
 20
-0.3717716298445612
 30
0.0
 11
-4.5742740268028266
 21
-0.3717716321112388
 31
0.0
  0
ARC
  5
2A7C
  8
0
 10
-4.5742740265033577
 20
-0.3599606091361145
 30
0.0
 40
0.0118110229751243
 50
269.9999985472639992
 51
353.5000134277709094
  0
LINE
  5
2A7D
  8
0
 10
-4.5625389261751774
 20
-0.361297652144561
 30
0.0
 11
-4.5556581225703514
 21
-0.300905488144561
 31
0.0
  0
LINE
  5
2A7E
  8
0
 10
-4.5489296557860524
 20
-0.2418503700445611
 30
0.0
 11
-4.5445879016134976
 21
-0.2037432033391253
 31
0.0
  0
ARC
  5
2A7F
  8
0
 10
-4.5211177106360276
 20
-0.2064172882532502
 30
0.0
 40
0.0236220362087366
 50
89.9998851922545242
 51
173.5000134277705115
  0
ARC
  5
2A80
  8
0
 10
-3.9272845077647331
 20
-0.2064172992445528
 30
0.0
 40
0.023622047199992
 50
6.5000001005169334
 51
90.0
  0
LINE
  5
2A81
  8
0
 10
-3.9038143064980431
 20
-0.2037432075445609
 30
0.0
 11
-3.8994725436902349
 21
-0.2418503700445611
 31
0.0
  0
LINE
  5
2A82
  8
0
 10
-3.892744062781238
 20
-0.300905488144561
 30
0.0
 11
-3.8858632447420351
 21
-0.3612976520558013
 31
0.0
  0
ARC
  5
2A83
  8
0
 10
-3.8741281440652648
 20
-0.3599606062008585
 30
0.0
 40
0.0118110236437044
 50
186.5000001005103059
 51
269.9999985472636013
  0
LINE
  5
2A84
  8
0
 10
-3.8741281443647342
 20
-0.3717716298445612
 30
0.0
 11
-3.7847305976647352
 21
-0.3717716321112388
 31
0.0
  0
ARC
  5
2A85
  8
0
 10
-3.7847305973652658
 20
-0.3599606091361145
 30
0.0
 40
0.0118110229751243
 50
269.9999985472639992
 51
353.5000134277709094
  0
LINE
  5
2A86
  8
0
 10
-3.7729954970370851
 20
-0.361297652144561
 30
0.0
 11
-3.7661146934322591
 21
-0.300905488144561
 31
0.0
  0
LINE
  5
2A87
  8
0
 10
-3.7593862266479601
 20
-0.2418503700445611
 30
0.0
 11
-3.7550444724754062
 21
-0.2037432033391253
 31
0.0
  0
ARC
  5
2A88
  8
0
 10
-3.7315742814979358
 20
-0.2064172882532502
 30
0.0
 40
0.0236220362087366
 50
89.9998851922545242
 51
173.5000134277705115
  0
ARC
  5
2A89
  8
0
 10
-3.3373832307516351
 20
-0.2064172992445528
 30
0.0
 40
0.023622047199992
 50
6.5000001005169334
 51
90.0
  0
LINE
  5
2A8A
  8
0
 10
-3.313913029484945
 20
-0.2037432075445609
 30
0.0
 11
-3.3095712666771369
 21
-0.2418503700445611
 31
0.0
  0
LINE
  5
2A8B
  8
0
 10
-3.3028427857681399
 20
-0.300905488144561
 30
0.0
 11
-3.2959619677289371
 21
-0.3612976520558013
 31
0.0
  0
ARC
  5
2A8C
  8
0
 10
-3.2842268670521668
 20
-0.3599606062008585
 30
0.0
 40
0.0118110236437044
 50
186.5000001005103059
 51
269.9999985472636013
  0
LINE
  5
2A8D
  8
0
 10
-3.2842268673516362
 20
-0.3717716298445612
 30
0.0
 11
-3.1948293206516372
 21
-0.3717716321112388
 31
0.0
  0
ARC
  5
2A8E
  8
0
 10
-3.1948293203521678
 20
-0.3599606091361145
 30
0.0
 40
0.0118110229751243
 50
269.9999985472639992
 51
353.5000134277709094
  0
LINE
  5
2A8F
  8
0
 10
-3.1830942200239871
 20
-0.361297652144561
 30
0.0
 11
-3.1762134164191611
 21
-0.300905488144561
 31
0.0
  0
LINE
  5
2A90
  8
0
 10
-3.169484949634862
 20
-0.2418503700445611
 30
0.0
 11
-3.1651431954623082
 21
-0.2037432033391253
 31
0.0
  0
ARC
  5
2A91
  8
0
 10
-3.1416730044848382
 20
-0.2064172882532502
 30
0.0
 40
0.0236220362087366
 50
89.9998851922545242
 51
173.5000134277705115
  0
ARC
  5
2A92
  8
0
 10
-2.9435399573108549
 20
-0.2064172992445528
 30
0.0
 40
0.023622047199992
 50
6.5000001005169334
 51
90.0
  0
LINE
  5
2A93
  8
0
 10
-2.9200697560441649
 20
-0.2037432075445609
 30
0.0
 11
-2.9157279932363571
 21
-0.2418503700445611
 31
0.0
  0
LINE
  5
2A94
  8
0
 10
-2.9089995123273602
 20
-0.300905488144561
 30
0.0
 11
-2.9021186942881569
 21
-0.3612976520558013
 31
0.0
  0
ARC
  5
2A95
  8
0
 10
-2.8903835936113871
 20
-0.3599606062008585
 30
0.0
 40
0.0118110236437044
 50
186.5000001005103059
 51
269.9999985472636013
  0
LINE
  5
2A96
  8
0
 10
-2.890383593910856
 20
-0.3717716298445612
 30
0.0
 11
-2.800986047210857
 21
-0.3717716321112388
 31
0.0
  0
ARC
  5
2A97
  8
0
 10
-2.8009860469113881
 20
-0.3599606091361145
 30
0.0
 40
0.0118110229751243
 50
269.9999985472639992
 51
353.5000134277709094
  0
LINE
  5
2A98
  8
0
 10
-2.7892509465832069
 20
-0.361297652144561
 30
0.0
 11
-2.7823701429783809
 21
-0.300905488144561
 31
0.0
  0
LINE
  5
2A99
  8
0
 10
-2.7756416761940819
 20
-0.2418503700445611
 30
0.0
 11
-2.771299922021528
 21
-0.2037432033391253
 31
0.0
  0
ARC
  5
2A9A
  8
0
 10
-2.747829731044058
 20
-0.2064172882532502
 30
0.0
 40
0.0236220362087366
 50
89.9998851922545242
 51
173.5000134277705115
  0
ARC
  5
2A9B
  8
0
 10
-2.1575320707403249
 20
-0.2064172992445528
 30
0.0
 40
0.023622047199992
 50
6.5000001005169334
 51
90.0
  0
LINE
  5
2A9C
  8
0
 10
-2.1340618694736349
 20
-0.2037432075445609
 30
0.0
 11
-2.1297201066658271
 21
-0.2418503700445611
 31
0.0
  0
LINE
  5
2A9D
  8
0
 10
-2.1229916257568302
 20
-0.300905488144561
 30
0.0
 11
-2.1161108077176261
 21
-0.3612976520558013
 31
0.0
  0
ARC
  5
2A9E
  8
0
 10
-2.1043757070408571
 20
-0.3599606062008585
 30
0.0
 40
0.0118110236437044
 50
186.5000001005103059
 51
269.9999985472636013
  0
LINE
  5
2A9F
  8
0
 10
-2.1043757073403251
 20
-0.3717716298445612
 30
0.0
 11
-2.0149781606403261
 21
-0.3717716321112388
 31
0.0
  0
ARC
  5
2AA0
  8
0
 10
-2.0149781603408581
 20
-0.3599606091361145
 30
0.0
 40
0.0118110229751243
 50
269.9999985472639992
 51
353.5000134277709094
  0
LINE
  5
2AA1
  8
0
 10
-2.003243060012676
 20
-0.361297652144561
 30
0.0
 11
-1.99636225640785
 21
-0.300905488144561
 31
0.0
  0
LINE
  5
2AA2
  8
0
 10
-1.989633789623551
 20
-0.2418503700445611
 30
0.0
 11
-1.9852920354509971
 21
-0.2037432033391253
 31
0.0
  0
ARC
  5
2AA3
  8
0
 10
-1.961821844473528
 20
-0.2064172882532502
 30
0.0
 40
0.0236220362087366
 50
89.9998851922546379
 51
173.5000134277705115
  0
ARC
  5
2AA4
  8
0
 10
-1.3678079141936279
 20
-0.2064172992445528
 30
0.0
 40
0.023622047199992
 50
6.5000001005169334
 51
90.0
  0
LINE
  5
2AA5
  8
0
 10
-1.344337712926938
 20
-0.2037432075445609
 30
0.0
 11
-1.3399959501191301
 21
-0.2418503700445611
 31
0.0
  0
LINE
  5
2AA6
  8
0
 10
-1.3332674692101329
 20
-0.300905488144561
 30
0.0
 11
-1.326386651170929
 21
-0.3612976520558013
 31
0.0
  0
ARC
  5
2AA7
  8
0
 10
-1.31465155049416
 20
-0.3599606062008585
 30
0.0
 40
0.0118110236437044
 50
186.5000001005103059
 51
269.9999985472636013
  0
LINE
  5
2AA8
  8
0
 10
-1.3146515507936281
 20
-0.3717716298445612
 30
0.0
 11
-1.2252540040936291
 21
-0.3717716321112388
 31
0.0
  0
ARC
  5
2AA9
  8
0
 10
-1.2252540037941611
 20
-0.3599606091361145
 30
0.0
 40
0.0118110229751243
 50
269.9999985472639992
 51
353.5000134277709094
  0
LINE
  5
2AAA
  8
0
 10
-1.213518903465979
 20
-0.361297652144561
 30
0.0
 11
-1.206638099861153
 21
-0.300905488144561
 31
0.0
  0
LINE
  5
2AAB
  8
0
 10
-1.1999096330768539
 20
-0.2418503700445611
 30
0.0
 11
-1.1955678789043001
 21
-0.2037432033391253
 31
0.0
  0
ARC
  5
2AAC
  8
0
 10
-1.172097687926831
 20
-0.2064172882532502
 30
0.0
 40
0.0236220362087366
 50
89.9998851922546379
 51
173.5000134277705115
  0
ARC
  5
2AAD
  8
0
 10
-0.5822060796844202
 20
-0.2064172992445528
 30
0.0
 40
0.023622047199992
 50
6.5000001005169334
 51
90.0
  0
LINE
  5
2AAE
  8
0
 10
-0.5587358784177301
 20
-0.2037432075445609
 30
0.0
 11
-0.554394115609922
 21
-0.2418503700445611
 31
0.0
  0
LINE
  5
2AAF
  8
0
 10
-0.547665634700925
 20
-0.300905488144561
 30
0.0
 11
-0.5407848166617218
 21
-0.3612976520558013
 31
0.0
  0
ARC
  5
2AB0
  8
0
 10
-0.5290497159849519
 20
-0.3599606062008585
 30
0.0
 40
0.0118110236437044
 50
186.5000001005103059
 51
269.9999985472636013
  0
LINE
  5
2AB1
  8
0
 10
-0.5290497162844208
 20
-0.3717716298445612
 30
0.0
 11
-0.4396521695844218
 21
-0.3717716321112388
 31
0.0
  0
ARC
  5
2AB2
  8
0
 10
-0.4396521692849529
 20
-0.3599606091361145
 30
0.0
 40
0.0118110229751243
 50
269.9999985472639992
 51
353.5000134277709094
  0
LINE
  5
2AB3
  8
0
 10
-0.4279170689567718
 20
-0.361297652144561
 30
0.0
 11
-0.4210362653519458
 21
-0.300905488144561
 31
0.0
  0
LINE
  5
2AB4
  8
0
 10
-0.4143077985676467
 20
-0.2418503700445611
 30
0.0
 11
-0.4099660443950928
 21
-0.2037432033391253
 31
0.0
  0
ARC
  5
2AB5
  8
0
 10
-0.3864958534176228
 20
-0.2064172882532502
 30
0.0
 40
0.0236220362087366
 50
89.9998851922546379
 51
173.5000134277705115
  0
ARC
  5
2AB6
  8
0
 10
0.2067747894608711
 20
-0.2064172992445528
 30
0.0
 40
0.023622047199992
 50
6.5000001005169334
 51
90.0
  0
LINE
  5
2AB7
  8
0
 10
0.2302449907275612
 20
-0.2037432075445609
 30
0.0
 11
0.2345867535353694
 21
-0.2418503700445611
 31
0.0
  0
LINE
  5
2AB8
  8
0
 10
0.2413152344443663
 20
-0.300905488144561
 30
0.0
 11
0.2481960524835696
 21
-0.3612976520558013
 31
0.0
  0
ARC
  5
2AB9
  8
0
 10
0.2599311531603394
 20
-0.3599606062008585
 30
0.0
 40
0.0118110236437044
 50
186.5000001005103059
 51
269.9999985472636013
  0
LINE
  5
2ABA
  8
0
 10
0.2599311528608705
 20
-0.3717716298445612
 30
0.0
 11
0.3493286995608695
 21
-0.3717716321112388
 31
0.0
  0
ARC
  5
2ABB
  8
0
 10
0.3493286998603384
 20
-0.3599606091361145
 30
0.0
 40
0.0118110229751243
 50
269.9999985472639992
 51
353.5000134277709094
  0
LINE
  5
2ABC
  8
0
 10
0.3610638001885196
 20
-0.361297652144561
 30
0.0
 11
0.3679446037933456
 21
-0.300905488144561
 31
0.0
  0
LINE
  5
2ABD
  8
0
 10
0.3746730705776446
 20
-0.2418503700445611
 30
0.0
 11
0.3790148247501985
 21
-0.2037432033391253
 31
0.0
  0
ARC
  5
2ABE
  8
0
 10
0.4024850157276685
 20
-0.2064172882532502
 30
0.0
 40
0.0236220362087366
 50
89.9998851922546379
 51
173.5000134277705115
  0
ARC
  5
2ABF
  8
0
 10
0.991710337802834
 20
-0.2064172992445528
 30
0.0
 40
0.023622047199992
 50
6.5000001005169334
 51
90.0
  0
LINE
  5
2AC0
  8
0
 10
1.0151805390695241
 20
-0.2037432075445609
 30
0.0
 11
1.0195223018773321
 21
-0.2418503700445611
 31
0.0
  0
LINE
  5
2AC1
  8
0
 10
1.026250782786329
 20
-0.300905488144561
 30
0.0
 11
1.033131600825532
 21
-0.3612976520558013
 31
0.0
  0
ARC
  5
2AC2
  8
0
 10
1.0448667015023021
 20
-0.3599606062008585
 30
0.0
 40
0.0118110236437044
 50
186.5000001005103059
 51
269.9999985472636013
  0
LINE
  5
2AC3
  8
0
 10
1.044866701202833
 20
-0.3717716298445612
 30
0.0
 11
1.134264247902832
 21
-0.3717716321112388
 31
0.0
  0
ARC
  5
2AC4
  8
0
 10
1.1342642482023011
 20
-0.3599606091361145
 30
0.0
 40
0.0118110229751243
 50
269.9999985472639992
 51
353.5000134277709094
  0
LINE
  5
2AC5
  8
0
 10
1.145999348530482
 20
-0.361297652144561
 30
0.0
 11
1.152880152135308
 21
-0.300905488144561
 31
0.0
  0
LINE
  5
2AC6
  8
0
 10
1.1596086189196071
 20
-0.2418503700445611
 30
0.0
 11
1.163950373092161
 21
-0.2037432033391253
 31
0.0
  0
ARC
  5
2AC7
  8
0
 10
1.1874205640696309
 20
-0.2064172882532502
 30
0.0
 40
0.0236220362087366
 50
89.9998851922546379
 51
173.5000134277705115
  0
ARC
  5
2AC8
  8
0
 10
1.7717963116700211
 20
-0.2064172992445528
 30
0.0
 40
0.023622047199992
 50
6.5000001005169334
 51
90.0
  0
LINE
  5
2AC9
  8
0
 10
1.7952665129367109
 20
-0.2037432075445609
 30
0.0
 11
1.7996082757445191
 21
-0.2418503700445611
 31
0.0
  0
LINE
  5
2ACA
  8
0
 10
1.806336756653516
 20
-0.300905488144561
 30
0.0
 11
1.813217574692719
 21
-0.3612976520558013
 31
0.0
  0
ARC
  5
2ACB
  8
0
 10
1.8249526753694889
 20
-0.3599606062008585
 30
0.0
 40
0.0118110236437044
 50
186.5000001005103059
 51
269.9999985472636013
  0
LINE
  5
2ACC
  8
0
 10
1.82495267507002
 20
-0.3717716298445612
 30
0.0
 11
1.914350221770019
 21
-0.3717716321112388
 31
0.0
  0
ARC
  5
2ACD
  8
0
 10
1.9143502220694879
 20
-0.3599606091361145
 30
0.0
 40
0.0118110229751243
 50
269.9999985472639992
 51
353.5000134277709094
  0
LINE
  5
2ACE
  8
0
 10
1.9260853223976691
 20
-0.361297652144561
 30
0.0
 11
1.9329661260024951
 21
-0.300905488144561
 31
0.0
  0
LINE
  5
2ACF
  8
0
 10
1.939694592786795
 20
-0.2418503700445611
 30
0.0
 11
1.944036346959348
 21
-0.2037432033391253
 31
0.0
  0
ARC
  5
2AD0
  8
0
 10
1.967506537936818
 20
-0.2064172882532502
 30
0.0
 40
0.0236220362087366
 50
89.9998851922546379
 51
173.5000134277705115
  0
ARC
  5
2AD1
  8
0
 10
2.5600412427724901
 20
-0.2064172992445528
 30
0.0
 40
0.023622047199992
 50
6.5000001005169334
 51
90.0
  0
LINE
  5
2AD2
  8
0
 10
2.5835114440391802
 20
-0.2037432075445609
 30
0.0
 11
2.5878532068469879
 21
-0.2418503700445611
 31
0.0
  0
LINE
  5
2AD3
  8
0
 10
2.5945816877559849
 20
-0.300905488144561
 30
0.0
 11
2.6014625057951881
 21
-0.3612976520558013
 31
0.0
  0
ARC
  5
2AD4
  8
0
 10
2.613197606471958
 20
-0.3599606062008585
 30
0.0
 40
0.0118110236437044
 50
186.5000001005103059
 51
269.9999985472636013
  0
LINE
  5
2AD5
  8
0
 10
2.6131976061724891
 20
-0.3717716298445612
 30
0.0
 11
2.7025951528724881
 21
-0.3717716321112388
 31
0.0
  0
ARC
  5
2AD6
  8
0
 10
2.702595153171957
 20
-0.3599606091361145
 30
0.0
 40
0.0118110229751243
 50
269.9999985472639992
 51
353.5000134277709094
  0
LINE
  5
2AD7
  8
0
 10
2.7143302535001381
 20
-0.361297652144561
 30
0.0
 11
2.7212110571049641
 21
-0.300905488144561
 31
0.0
  0
LINE
  5
2AD8
  8
0
 10
2.7279395238892632
 20
-0.2418503700445611
 30
0.0
 11
2.7322812780618171
 21
-0.2037432033391253
 31
0.0
  0
ARC
  5
2AD9
  8
0
 10
2.755751469039287
 20
-0.2064172882532502
 30
0.0
 40
0.0236220362087366
 50
89.9998851922546379
 51
173.5000134277705115
  0
ARC
  5
2ADA
  8
0
 10
3.3618766411594878
 20
-0.2064172992445528
 30
0.0
 40
0.023622047199992
 50
6.5000001005169334
 51
90.0
  0
LINE
  5
2ADB
  8
0
 10
3.3853468424261779
 20
-0.2037432075445609
 30
0.0
 11
3.3896886052339861
 21
-0.2418503700445611
 31
0.0
  0
LINE
  5
2ADC
  8
0
 10
3.396417086142983
 20
-0.300905488144561
 30
0.0
 11
3.4032979041821871
 21
-0.3612976520558013
 31
0.0
  0
ARC
  5
2ADD
  8
0
 10
3.4150330048589561
 20
-0.3599606062008585
 30
0.0
 40
0.0118110236437044
 50
186.5000001005103059
 51
269.9999985472636013
  0
LINE
  5
2ADE
  8
0
 10
3.4150330045594881
 20
-0.3717716298445612
 30
0.0
 11
3.5044305512594871
 21
-0.3717716321112388
 31
0.0
  0
ARC
  5
2ADF
  8
0
 10
3.5044305515589551
 20
-0.3599606091361145
 30
0.0
 40
0.0118110229751243
 50
269.9999985472639992
 51
353.5000134277709094
  0
LINE
  5
2AE0
  8
0
 10
3.5161656518871371
 20
-0.361297652144561
 30
0.0
 11
3.5230464554919632
 21
-0.300905488144561
 31
0.0
  0
LINE
  5
2AE1
  8
0
 10
3.5297749222762622
 20
-0.2418503700445611
 30
0.0
 11
3.5341166764488161
 21
-0.2037432033391253
 31
0.0
  0
ARC
  5
2AE2
  8
0
 10
3.557586867426286
 20
-0.2064172882532502
 30
0.0
 40
0.0236220362087366
 50
89.9998851922545242
 51
173.5000134277705115
  0
ARC
  5
2AE3
  8
0
 10
4.1511239245531657
 20
-0.2064172992445528
 30
0.0
 40
0.023622047199992
 50
6.5000001005169334
 51
90.0
  0
LINE
  5
2AE4
  8
0
 10
4.1745941258198558
 20
-0.2037432075445609
 30
0.0
 11
4.178935888627664
 21
-0.2418503700445611
 31
0.0
  0
LINE
  5
2AE5
  8
0
 10
4.1856643695366609
 20
-0.300905488144561
 30
0.0
 11
4.192545187575865
 21
-0.3612976520558013
 31
0.0
  0
ARC
  5
2AE6
  8
0
 10
4.204280288252634
 20
-0.3599606062008585
 30
0.0
 40
0.0118110236437044
 50
186.5000001005103059
 51
269.9999985472636013
  0
LINE
  5
2AE7
  8
0
 10
4.2042802879531651
 20
-0.3717716298445612
 30
0.0
 11
4.2936778346531641
 21
-0.3717716321112388
 31
0.0
  0
ARC
  5
2AE8
  8
0
 10
4.293677834952633
 20
-0.3599606091361145
 30
0.0
 40
0.0118110229751243
 50
269.9999985472639992
 51
353.5000134277709094
  0
LINE
  5
2AE9
  8
0
 10
4.305412935280815
 20
-0.361297652144561
 30
0.0
 11
4.312293738885641
 21
-0.300905488144561
 31
0.0
  0
LINE
  5
2AEA
  8
0
 10
4.3190222056699401
 20
-0.2418503700445611
 30
0.0
 11
4.3233639598424931
 21
-0.2037432033391253
 31
0.0
  0
ARC
  5
2AEB
  8
0
 10
4.346834150819963
 20
-0.2064172882532502
 30
0.0
 40
0.0236220362087366
 50
89.9998851922545242
 51
173.5000134277705115
  0
ARC
  5
2AEC
  8
0
 10
4.9369811492728717
 20
-0.2064172992445528
 30
0.0
 40
0.023622047199992
 50
6.5000001005169334
 51
90.0
  0
LINE
  5
2AED
  8
0
 10
4.9604513505395618
 20
-0.2037432075445609
 30
0.0
 11
4.9647931133473699
 21
-0.2418503700445611
 31
0.0
  0
LINE
  5
2AEE
  8
0
 10
4.9715215942563669
 20
-0.300905488144561
 30
0.0
 11
4.978402412295571
 21
-0.3612976520558013
 31
0.0
  0
ARC
  5
2AEF
  8
0
 10
4.99013751297234
 20
-0.3599606062008585
 30
0.0
 40
0.0118110236437044
 50
186.5000001005103059
 51
269.9999985472636013
  0
LINE
  5
2AF0
  8
0
 10
4.9901375126728711
 20
-0.3717716298445612
 30
0.0
 11
5.0795350593728701
 21
-0.3717716321112388
 31
0.0
  0
ARC
  5
2AF1
  8
0
 10
5.079535059672339
 20
-0.3599606091361145
 30
0.0
 40
0.0118110229751243
 50
269.9999985472639992
 51
353.5000134277709094
  0
LINE
  5
2AF2
  8
0
 10
5.091270160000521
 20
-0.361297652144561
 30
0.0
 11
5.098150963605347
 21
-0.300905488144561
 31
0.0
  0
LINE
  5
2AF3
  8
0
 10
5.1048794303896461
 20
-0.2418503700445611
 30
0.0
 11
5.1092211845621991
 21
-0.2037432033391253
 31
0.0
  0
ARC
  5
2AF4
  8
0
 10
5.132691375539669
 20
-0.2064172882532502
 30
0.0
 40
0.0236220362087366
 50
89.9998851922545242
 51
173.5000134277705115
  0
LINE
  5
2AF5
  8
0
 10
0.7153733057039684
 20
1.088858291355439
 30
0.0
 11
-0.1107992210096231
 21
1.088858291355439
 31
0.0
  0
LINE
  5
2AF6
  8
0
 10
-0.1107992210096231
 20
1.088858291355439
 30
0.0
 11
-0.1107992210096231
 21
0.6913607296675082
 31
0.0
  0
LINE
  5
2AF7
  8
0
 10
-0.1107992210096231
 20
0.6913607296675082
 30
0.0
 11
0.7153733057039702
 21
0.6913607296675082
 31
0.0
  0
LINE
  5
2AF8
  8
0
 10
0.0463815305971735
 20
0.6913607296675082
 30
0.0
 11
0.0463815305971735
 21
0.3723228582554388
 31
0.0
  0
LINE
  5
2AF9
  8
0
 10
0.6566177509971745
 20
0.3723228582554379
 30
0.0
 11
-0.0520436663028274
 21
0.3723228582554392
 31
0.0
  0
LINE
  5
2AFA
  8
0
 10
-0.0520436663028274
 20
0.3723228582554392
 30
0.0
 11
-0.071728705702828
 21
0.3526378189554391
 31
0.0
  0
LINE
  5
2AFB
  8
0
 10
-0.071728705702828
 20
0.3526378189554391
 30
0.0
 11
-0.071728705702828
 21
0.2640551417554389
 31
0.0
  0
ARC
  5
2AFC
  8
0
 10
-0.424690116139086
 20
0.1258426809988355
 30
0.0
 40
0.37905730644
 50
352.0033824064555006
 51
21.3842938034619294
  0
LINE
  5
2AFD
  8
0
 10
0.0660665698971741
 20
-0.2418503700445611
 30
0.0
 11
0.0660665698971741
 21
-0.1827952519445608
 31
0.0
  0
LINE
  5
2AFE
  8
0
 10
-0.091413744970378
 20
-0.300905488144561
 30
0.0
 11
-0.0914137451028285
 21
-0.4780708425298444
 31
0.0
  0
ARC
  5
2AFF
  8
0
 10
-0.071728705802828
 20
-0.478070842544561
 30
0.0
 40
0.0196850393000006
 50
179.9999999571631975
 51
270.0000002910625767
  0
LINE
  5
2B00
  8
0
 10
-0.071728705702828
 20
-0.4977558818445611
 30
0.0
 11
0.6763027903971733
 21
-0.4977558780445608
 31
0.0
  0
ARC
  5
2B01
  8
0
 10
0.6763027902971733
 20
-0.4780708385445603
 30
0.0
 40
0.0196850395000006
 50
270.0000002910637136
 51
359.9999883574953969
  0
LINE
  5
2B02
  8
0
 10
0.6959878297971738
 20
-0.478070842544561
 30
0.0
 11
0.6959878657971803
 21
-0.300905488144561
 31
0.0
  0
LINE
  5
2B03
  8
0
 10
0.5385075147971748
 20
-0.2418503700445607
 30
0.0
 11
0.5385075147971748
 21
-0.1827952519445608
 31
0.0
  0
LINE
  5
2B04
  8
0
 10
0.7153733057039684
 20
1.088858291355439
 30
0.0
 11
0.7153733057039684
 21
0.6913607296675082
 31
0.0
  0
LINE
  5
2B05
  8
0
 10
0.5581925540971718
 20
0.6913607296675082
 30
0.0
 11
0.5581925540971718
 21
0.3723228582554388
 31
0.0
  0
LINE
  5
2B06
  8
0
 10
0.6566177509971727
 20
0.3723228582554392
 30
0.0
 11
0.6763027903971733
 21
0.3526378189554391
 31
0.0
  0
LINE
  5
2B07
  8
0
 10
0.6763027903971733
 20
0.3526378189554391
 30
0.0
 11
0.6763027903971733
 21
0.2640551417554389
 31
0.0
  0
ARC
  5
2B08
  8
0
 10
1.029264200833431
 20
0.1258426809988355
 30
0.0
 40
0.37905730644
 50
158.6157061965382127
 51
187.9966175935444141
  0
ENDSEC
  0
EOF
