  0
SECTION
  2
HEADER
  9
$ACADVER
  1
AC1009
  9
$INSBASE
 10
3537.0355561470441899
 20
159.8541189047683986
 30
0.0
  9
$EXTMIN
 10
3529.9759452279731704
 20
158.4064250250063992
 30
-0.0000000349181948
  9
$EXTMAX
 10
3537.262254451985882
 20
161.4146505621368135
 30
0.0000000814935746
  9
$LIMMIN
 10
0.0
 20
0.0
  9
$LIMMAX
 10
11.6929133858000007
 20
8.2677165353999982
  9
$ORTHOMODE
 70
     0
  9
$REGENMODE
 70
     1
  9
$FILLMODE
 70
     1
  9
$QTEXTMODE
 70
     0
  9
$MIRRTEXT
 70
     0
  9
$DRAGMODE
 70
     2
  9
$LTSCALE
 40
0.6431102362
  9
$OSMODE
 70
  4095
  9
$ATTMODE
 70
     1
  9
$TEXTSIZE
 40
0.2
  9
$TRACEWID
 40
0.05
  9
$TEXTSTYLE
  7
STANDARD
  9
$CLAYER
  8
0
  9
$CELTYPE
  6
BYLAYER
  9
$CECOLOR
 62
   256
  9
$DIMSCALE
 40
1.0
  9
$DIMASZ
 40
0.1875
  9
$DIMEXO
 40
0.0625
  9
$DIMDLI
 40
0.4443307087
  9
$DIMRND
 40
0.0
  9
$DIMDLE
 40
0.0
  9
$DIMEXE
 40
0.125
  9
$DIMTP
 40
0.01
  9
$DIMTM
 40
0.01
  9
$DIMTXT
 40
2.0
  9
$DIMCEN
 40
0.1052362205
  9
$DIMTSZ
 40
0.0
  9
$DIMTOL
 70
     1
  9
$DIMLIM
 70
     0
  9
$DIMTIH
 70
     1
  9
$DIMTOH
 70
     1
  9
$DIMSE1
 70
     0
  9
$DIMSE2
 70
     0
  9
$DIMTAD
 70
     0
  9
$DIMZIN
 70
     0
  9
$DIMBLK
  1

  9
$DIMASO
 70
     1
  9
$DIMSHO
 70
     1
  9
$DIMPOST
  1
\X
  9
$DIMAPOST
  1

  9
$DIMALT
 70
     1
  9
$DIMALTD
 70
     2
  9
$DIMALTF
 40
25.3999999999999986
  9
$DIMLFAC
 40
1.0
  9
$DIMTOFL
 70
     0
  9
$DIMTVP
 40
0.0
  9
$DIMTIX
 70
     0
  9
$DIMSOXD
 70
     0
  9
$DIMSAH
 70
     0
  9
$DIMBLK1
  1

  9
$DIMBLK2
  1

  9
$DIMSTYLE
  2
STANDARD
  9
$DIMCLRD
 70
     0
  9
$DIMCLRE
 70
     0
  9
$DIMCLRT
 70
     0
  9
$DIMTFAC
 40
1.0
  9
$DIMGAP
 40
0.09
  9
$LUNITS
 70
     2
  9
$LUPREC
 70
     4
  9
$SKETCHINC
 40
0.1
  9
$FILLETRAD
 40
0.0
  9
$AUNITS
 70
     0
  9
$AUPREC
 70
     0
  9
$MENU
  1
.
  9
$ELEVATION
 40
0.0
  9
$PELEVATION
 40
0.0
  9
$THICKNESS
 40
0.0
  9
$LIMCHECK
 70
     0
  9
$BLIPMODE
 70
     0
  9
$CHAMFERA
 40
0.0
  9
$CHAMFERB
 40
0.0
  9
$SKPOLY
 70
     0
  9
$TDCREATE
 40
2458060.468368056230247
  9
$TDUPDATE
 40
2459102.7707523149438202
  9
$TDINDWG
 40
0.5630510417
  9
$TDUSRTIMER
 40
0.5630510417
  9
$USRTIMER
 70
     1
  9
$ANGBASE
 50
0.0
  9
$ANGDIR
 70
     0
  9
$PDMODE
 70
     0
  9
$PDSIZE
 40
0.3125
  9
$PLINEWID
 40
0.0
  9
$COORDS
 70
     1
  9
$SPLFRAME
 70
     0
  9
$SPLINETYPE
 70
     6
  9
$SPLINESEGS
 70
     8
  9
$ATTDIA
 70
     1
  9
$ATTREQ
 70
     1
  9
$HANDLING
 70
     1
  9
$HANDSEED
  5
13356
  9
$SURFTAB1
 70
     6
  9
$SURFTAB2
 70
     6
  9
$SURFTYPE
 70
     6
  9
$SURFU
 70
     6
  9
$SURFV
 70
     6
  9
$UCSNAME
  2

  9
$UCSORG
 10
0.0
 20
0.0
 30
0.0
  9
$UCSXDIR
 10
1.0
 20
0.0
 30
0.0
  9
$UCSYDIR
 10
0.0
 20
1.0
 30
0.0
  9
$PUCSNAME
  2

  9
$PUCSORG
 10
0.0
 20
0.0
 30
0.0
  9
$PUCSXDIR
 10
1.0
 20
0.0
 30
0.0
  9
$PUCSYDIR
 10
0.0
 20
1.0
 30
0.0
  9
$USERI1
 70
     0
  9
$USERI2
 70
     0
  9
$USERI3
 70
     0
  9
$USERI4
 70
     0
  9
$USERI5
 70
     0
  9
$USERR1
 40
0.0
  9
$USERR2
 40
0.0
  9
$USERR3
 40
0.0
  9
$USERR4
 40
0.0
  9
$USERR5
 40
0.0
  9
$WORLDVIEW
 70
     1
  9
$SHADEDGE
 70
     3
  9
$SHADEDIF
 70
    70
  9
$TILEMODE
 70
     1
  9
$MAXACTVP
 70
    64
  9
$PLIMCHECK
 70
     0
  9
$PEXTMIN
 10
1.0000000000000000E+20
 20
1.0000000000000000E+20
 30
1.0000000000000000E+20
  9
$PEXTMAX
 10
-1.0000000000000000E+20
 20
-1.0000000000000000E+20
 30
-1.0000000000000000E+20
  9
$PLIMMIN
 10
0.0
 20
0.0
  9
$PLIMMAX
 10
12.0
 20
9.0
  9
$UNITMODE
 70
     0
  9
$VISRETAIN
 70
     1
  9
$PLINEGEN
 70
     0
  9
$PSLTSCALE
 70
     1
  0
ENDSEC
  0
SECTION
  2
TABLES
  0
TABLE
  2
VPORT
 70
     1
  0
VPORT
  2
*ACTIVE
 70
     0
 10
0.0
 20
0.0
 11
1.0
 21
1.0
 12
229.9259846056037873
 22
-35.3509737823161529
 13
0.0
 23
0.0
 14
1.0
 24
1.0
 15
0.0
 25
0.0
 16
0.0
 26
0.0
 36
96.5995694866707311
 17
3303.693115234375
 27
195.2615115758877096
 37
0.0
 40
3.0332593141384621
 41
2.6486111111111108
 42
50.0
 43
0.0
 44
0.0
 50
0.0
 51
0.0
 71
     0
 72
   100
 73
     1
 74
     1
 75
     0
 76
     0
 77
     0
 78
     0
  0
ENDTAB
  0
TABLE
  2
LTYPE
 70
     2
  0
LTYPE
  2
CONTINUOUS
 70
     0
  3
Solid line
 72
    65
 73
     0
 40
0.0
  0
LTYPE
  2
PHANTOM2
 70
     0
  3
___ _ _ ___ _ _ ___ _ _ ___ _ _
 72
    65
 73
     6
 40
1.25
 49
0.625
 49
-0.125
 49
0.125
 49
-0.125
 49
0.125
 49
-0.125
  0
ENDTAB
  0
TABLE
  2
LAYER
 70
     2
  0
LAYER
  2
0
 70
     0
 62
   255
  6
CONTINUOUS
  0
LAYER
  2
DEFPOINTS
 70
     0
 62
     7
  6
CONTINUOUS
  0
ENDTAB
  0
TABLE
  2
STYLE
 70
     1
  0
STYLE
  2
STANDARD
 70
     0
 40
0.0
 41
0.8
 50
0.0
 71
     0
 42
0.2
  3
txt
  4

  0
ENDTAB
  0
TABLE
  2
VIEW
 70
     0
  0
ENDTAB
  0
TABLE
  2
UCS
 70
     0
  0
ENDTAB
  0
TABLE
  2
APPID
 70
     9
  0
APPID
  2
ACAD
 70
     0
  0
APPID
  2
ACAD_MLEADERVER
 70
     0
  0
APPID
  2
ACAD_EXEMPT_FROM_CAD_STANDARDS
 70
     0
  0
APPID
  2
ACAD_NAV_VCDISPLAY
 70
     0
  0
APPID
  2
ACAECLAYERSTANDARD
 70
     0
  0
APPID
  2
ACCMTRANSPARENCY
 70
     0
  0
APPID
  2
ACAD_DSTYLE_DIMJAG
 70
     0
  0
APPID
  2
ACAD_DSTYLE_DIMTALN
 70
     0
  0
APPID
  2
ACDBATTR
 70
     0
  0
ENDTAB
  0
TABLE
  2
DIMSTYLE
 70
     1
  0
DIMSTYLE
  2
STANDARD
 70
     0
  3

  4

  5

  6

  7

 40
1.0
 41
0.1875
 42
0.0625
 43
0.38
 44
0.125
 45
0.0
 46
0.0
 47
0.01
 48
0.01
140
0.15625
141
0.09
142
0.0
143
25.3999999999999986
144
1.0
145
0.0
146
1.0
147
0.09
 71
     1
 72
     0
 73
     1
 74
     1
 75
     0
 76
     0
 77
     0
 78
     4
170
     0
171
     2
172
     0
173
     0
174
     0
175
     0
176
     0
177
     0
178
     0
  0
ENDTAB
  0
ENDSEC
  0
SECTION
  2
BLOCKS
  0
BLOCK
  8
0
  2
$MODEL_SPACE
 70
     0
 10
0.0
 20
0.0
 30
0.0
  3
$MODEL_SPACE
  1

  0
ENDBLK
  5
21
  8
0
  0
BLOCK
 67
     1
  8
0
  2
$PAPER_SPACE
 70
     0
 10
0.0
 20
0.0
 30
0.0
  3
$PAPER_SPACE
  1

  0
ENDBLK
  5
1D
 67
     1
  8
0
  0
ENDSEC
  0
SECTION
  2
ENTITIES
  0
ATTDEF
  5
11993
  8
DEFPOINTS
 10
3537.0356838431089272
 20
159.8577804609045074
 30
0.0
 40
0.001
  1
K-97088IN
  3

  2
MODELNUMBER
 70
     0
1001
ACDBATTR
1070
     0
1070
     1
  0
ATTDEF
  5
11994
  8
DEFPOINTS
 10
3537.0356838431089272
 20
159.8561137942378991
 30
0.0
 40
0.001
  1
TAUT
  3

  2
TRADENAME
 70
     0
1001
ACDBATTR
1070
     0
1070
     1
  0
ATTDEF
  5
11995
  8
DEFPOINTS
 10
3537.0356838431089272
 20
159.8544471275712056
 30
0.0
 40
0.001
  1
BATH SPOUT
  3

  2
PRODUCT
 70
     0
1001
ACDBATTR
1070
     0
1070
     1
  0
LINE
  5
1277B
  8
0
 10
3534.7509324332440883
 20
158.4120309646818896
 30
0.0
 11
3535.4753418820441766
 21
158.4120309646818896
 31
0.0
  0
LINE
  5
1277C
  8
0
 10
3534.7489697486589648
 20
158.451401043381594
 30
0.0
 11
3535.4773045672682201
 21
158.451401043381594
 31
0.0
  0
LINE
  5
1277D
  8
0
 10
3534.7095938511438362
 20
158.4741328820184094
 30
0.0
 11
3535.5166804653440522
 21
158.4741328820184094
 31
0.0
  0
LINE
  5
1277E
  8
0
 10
3536.7979616914299186
 20
158.4844631309391048
 30
0.0
 11
3537.0355561470441899
 21
158.476437046943289
 31
0.0
  0
LINE
  5
1277F
  8
0
 10
3534.7489697486589648
 20
158.451401043381594
 30
0.0
 11
3534.7095938511438362
 21
158.4741328820184094
 31
0.0
  0
LINE
  5
12780
  8
0
 10
3534.7983101826589518
 20
160.689465136632009
 30
0.0
 11
3535.4279641753601027
 21
160.6894651307320032
 31
0.0
  0
LINE
  5
12781
  8
0
 10
3534.709593857443906
 20
159.1450952990433052
 30
0.0
 11
3534.7095938511438362
 21
158.4741328820184094
 31
0.0
  0
LINE
  5
12782
  8
0
 10
3534.7509324336151622
 20
158.451401043381594
 30
0.0
 11
3534.7509324332440883
 21
158.4120309646818896
 31
0.0
  0
LINE
  5
12783
  8
0
 10
3534.7786251434440601
 20
160.709150176218202
 30
0.0
 11
3534.7786251467177863
 21
161.0554233657396992
 31
0.0
  0
LINE
  5
12784
  8
0
 10
3536.797961665783987
 20
161.2237746793364863
 30
0.0
 11
3537.0355561470441899
 21
161.2318007625935081
 31
0.0
  0
LINE
  5
12785
  8
0
 10
3534.8934876691441787
 20
160.6894651357320072
 30
0.0
 11
3534.8931646861451554
 21
160.4927108521183925
 31
0.0
  0
LINE
  5
12786
  8
0
 10
3535.447649218243896
 20
161.0687200606433009
 30
0.0
 11
3535.4476482496438621
 21
161.0687169576432893
 31
0.0
  0
LINE
  5
12787
  8
0
 10
3535.4531634380491596
 20
161.0977165831031073
 30
0.0
 11
3535.551768335099041
 21
161.3668191915296859
 31
0.0
  0
LINE
  5
12788
  8
0
 10
3534.6907370102439927
 20
161.394448289643293
 30
0.0
 11
3534.6907404657449661
 21
161.3944485394432888
 31
0.0
  0
LINE
  5
12789
  8
0
 10
3535.1129787549439243
 20
161.3944343183432863
 30
0.0
 11
3534.6933281634342165
 21
161.3944456387426953
 31
0.0
  0
LINE
  5
1278A
  8
0
 10
3534.6735514869819781
 20
161.3679892239962044
 30
0.0
 11
3534.7691344138920613
 21
161.1085661267945
 31
0.0
  0
LINE
  5
1278B
  8
0
 10
3535.3327866887439086
 20
160.6894651316320051
 30
0.0
 11
3535.3341402492437737
 21
160.4990892101183988
 31
0.0
  0
LINE
  5
1278C
  8
0
 10
3535.4476492148451143
 20
160.7091501699459002
 30
0.0
 11
3535.4476492182238871
 21
161.066597919163712
 31
0.0
  0
LINE
  5
1278D
  8
0
 10
3535.4753418823920583
 20
158.451401043381594
 30
0.0
 11
3535.4753418820441766
 21
158.4120309646818896
 31
0.0
  0
LINE
  5
1278E
  8
0
 10
3535.516680471644122
 20
159.1450952914433117
 30
0.0
 11
3535.5166804653440522
 21
158.4741328820184094
 31
0.0
  0
LINE
  5
1278F
  8
0
 10
3535.4773045672682201
 20
158.451401043381594
 30
0.0
 11
3535.5166804653440522
 21
158.4741328820184094
 31
0.0
  0
LINE
  5
12790
  8
0
 10
3536.7599655833951147
 20
161.1844285834683888
 30
0.0
 11
3536.7599656082948059
 21
158.5238092260684084
 31
0.0
  0
LINE
  5
12791
  8
0
 10
3537.0355561470441899
 20
158.476437046943289
 30
0.0
 11
3537.0355561470441899
 21
161.2318007625935081
 31
0.0
  0
ARC
  5
12792
  8
0
 10
3536.799335686995164
 20
158.5238092264368106
 30
0.0
 40
0.0393700787
 50
180.000000536214003
 51
268.0000005331219768
  0
ARC
  5
12793
  8
0
 10
3535.4279641755438206
 20
160.7091501701320055
 30
0.0
 40
0.0196850394
 50
269.9999994631345999
 51
359.9999994581907004
  0
ARC
  5
12794
  8
0
 10
3534.798310182844034
 20
160.7091501760320114
 30
0.0
 40
0.0196850394
 50
179.9999994582817919
 51
269.9999994631345999
  0
ARC
  5
12795
  8
0
 10
3536.7993356620941086
 20
161.1844285838367909
 30
0.0
 40
0.0393700787
 50
92.0000005506489487
 51
180.000000536214003
  0
ARC
  5
12796
  8
0
 10
3535.5337930699438402
 20
161.3748441678432926
 30
0.0
 40
0.0196852839
 50
335.9418416059908736
 51
95.0318831407919618
  0
ARC
  5
12797
  8
0
 10
3534.6920181987438809
 20
161.3748049329433059
 30
0.0
 40
0.0196843423
 50
86.184228186664086
 51
200.2581359322059029
  0
LINE
  5
12798
  8
0
 10
3535.5320664721680259
 20
161.3944535855384004
 30
0.0
 11
3535.112978754643791
 21
161.3944343246432993
 31
0.0
  0
ARC
  5
12799
  8
0
 10
3534.662450398187957
 20
161.0620946418391952
 30
0.0
 40
0.1163661382057862
 50
356.7134282762323778
 51
23.5379087030224809
  0
ARC
  5
1279A
  8
0
 10
3535.5322658928421333
 20
161.0676517558017053
 30
0.0
 40
0.0846232367314852
 50
159.1894782936024058
 51
180.7135386775873087
  0
ARC
  5
1279B
  8
0
 10
3535.1132518498129684
 20
154.1280774981673005
 30
0.0
 40
7.2786437298514901
 50
86.6779037493354281
 51
93.3276228752321373
  0
LINE
  5
12BD3
  8
0
 10
3536.7599655958451876
 20
159.1953865815603137
 30
0.0
 11
3535.7724976604440599
 21
159.2281697349183958
 31
0.0
  0
ARC
  5
12BD4
  8
0
 10
3535.7697112236860448
 20
159.1442389146453991
 30
0.0
 40
0.083977061281664
 50
88.0985238888615356
 51
179.4212365665026141
  0
LINE
  5
12BD5
  8
0
 10
3535.6857384467448355
 20
159.1450871800184075
 30
0.0
 11
3534.54132270354512
 21
159.1450871800184075
 31
0.0
  0
LINE
  5
12BD6
  8
0
 10
3534.54132270354512
 20
159.1450871800184075
 30
0.0
 11
3534.5394530632452188
 21
159.1887729932184072
 31
0.0
  0
ARC
  5
12BD7
  8
0
 10
3534.4526508674111938
 20
159.1850580827801878
 30
0.0
 40
0.0868816537650222
 50
2.4506163393278508
 51
88.0966836128222468
  0
ARC
  5
12BD8
  8
0
 10
3302.9965288616231192
 20
-6804.8692520162030632
 30
0.0
 40
6967.9864482679522553
 50
88.0964279433521256
 51
88.120908854856097
  0
ARC
  5
12BD9
  8
0
 10
3531.4541413676288357
 20
158.5840208953931096
 30
0.0
 40
0.7865541401060757
 50
88.1211612374700763
 51
96.0170988920974793
  0
ARC
  5
12BDA
  8
0
 10
3531.3904430449879328
 20
159.1883350585621031
 30
0.0
 40
0.1788921583153051
 50
96.0170988920974793
 51
124.2684596127495951
  0
ARC
  5
12BDB
  8
0
 10
3531.2849982355860448
 20
159.3430943016043102
 30
0.0
 40
0.008375113616578
 50
256.5331645408343206
 51
304.268459612746824
  0
LINE
  5
12BDC
  8
0
 10
3531.2830478182941079
 20
159.3349494627184129
 30
0.0
 11
3530.1268222350449832
 21
159.7114627658183963
 31
0.0
  0
ARC
  5
12BDD
  8
0
 10
3530.1292574350031828
 20
159.718942491790699
 30
0.0
 40
0.00786616167261
 50
157.292964535828304
 51
251.9661276381602875
  0
ARC
  5
12BDE
  8
0
 10
3531.2599409023550834
 20
159.1804949723720028
 30
0.0
 40
1.2602032428575429
 50
91.5403589081366391
 51
154.5527521661875028
  0
LINE
  5
12BDF
  8
0
 10
3531.2260652577438123
 20
160.4402428257183999
 30
0.0
 11
3536.7599655958451876
 21
160.5177549977184128
 31
0.0
  0
ARC
  5
12BE0
  8
0
 10
3535.6016357173148208
 20
157.9419844395883956
 30
0.0
 40
1.755622166059188
 50
113.1965780202562968
 51
130.7545167669184139
  0
ARC
  5
12BE1
  8
0
 10
3535.088084324258034
 20
159.0685924465138896
 30
0.0
 40
0.5185808290428832
 50
69.8012192857118663
 51
110.0705957753253017
  0
ARC
  5
12BE2
  8
0
 10
3534.378663498098831
 20
157.6287593867683086
 30
0.0
 40
2.1215261621710528
 50
48.9290157487472328
 51
65.2417351038274802
  0
LINE
  5
12BE3
  8
0
 10
3536.7599655958451876
 20
159.8874052029757991
 30
0.0
 11
3531.2943254442448051
 21
159.9404709857184059
 31
0.0
  0
ARC
  5
12BE4
  8
0
 10
3531.2871477846711059
 20
159.2011362695272965
 30
0.0
 40
0.739369556691606
 50
89.4437746910746938
 51
152.1532496623723887
  0
LINE
  5
12BE5
  8
0
 10
3534.7742007954770997
 20
161.0945434758183978
 30
0.0
 11
3535.4520291955677749
 21
161.0945434758183978
 31
0.0
  0
LINE
  5
12BE7
  8
0
 10
3536.7599655958451876
 20
160.4381728252184018
 30
0.0
 11
3531.2291325389451231
 21
160.3861962494183899
 31
0.0
  0
ARC
  5
12BE8
  8
0
 10
3531.2477007968041107
 20
159.2070603964461952
 30
0.0
 40
1.179282044281329
 50
90.902181778727055
 51
155.5087448960898939
  0
ENDSEC
  0
EOF
