  0
SECTION
  2
HEADER
  9
$ACADVER
  1
AC1009
  9
$INSBASE
 10
5002.4402809736911877
 20
553.6171238013840821
 30
0.0
  9
$EXTMIN
 10
4968.8219654456679564
 20
537.6219014608814177
 30
-0.0015258207003583
  9
$EXTMAX
 10
5036.0585432477264476
 20
554.2830376035688005
 30
0.0000000349246037
  9
$LIMMIN
 10
0.0
 20
0.0
  9
$LIMMAX
 10
11.6929133858000007
 20
8.2677165353999982
  9
$ORTHOMODE
 70
     0
  9
$REGENMODE
 70
     1
  9
$FILLMODE
 70
     1
  9
$QTEXTMODE
 70
     0
  9
$MIRRTEXT
 70
     0
  9
$DRAGMODE
 70
     2
  9
$LTSCALE
 40
0.6431102362
  9
$OSMODE
 70
     7
  9
$ATTMODE
 70
     1
  9
$TEXTSIZE
 40
0.2
  9
$TRACEWID
 40
0.05
  9
$TEXTSTYLE
  7
STANDARD
  9
$CLAYER
  8
0
  9
$CELTYPE
  6
BYLAYER
  9
$CECOLOR
 62
   256
  9
$DIMSCALE
 40
1.0
  9
$DIMASZ
 40
0.1875
  9
$DIMEXO
 40
0.0625
  9
$DIMDLI
 40
0.4443307087
  9
$DIMRND
 40
0.0
  9
$DIMDLE
 40
0.0
  9
$DIMEXE
 40
0.125
  9
$DIMTP
 40
0.01
  9
$DIMTM
 40
0.01
  9
$DIMTXT
 40
2.0
  9
$DIMCEN
 40
0.1052362205
  9
$DIMTSZ
 40
0.0
  9
$DIMTOL
 70
     1
  9
$DIMLIM
 70
     0
  9
$DIMTIH
 70
     1
  9
$DIMTOH
 70
     1
  9
$DIMSE1
 70
     0
  9
$DIMSE2
 70
     0
  9
$DIMTAD
 70
     0
  9
$DIMZIN
 70
     0
  9
$DIMBLK
  1

  9
$DIMASO
 70
     1
  9
$DIMSHO
 70
     1
  9
$DIMPOST
  1
\X
  9
$DIMAPOST
  1

  9
$DIMALT
 70
     1
  9
$DIMALTD
 70
     2
  9
$DIMALTF
 40
25.3999999999999986
  9
$DIMLFAC
 40
1.0
  9
$DIMTOFL
 70
     0
  9
$DIMTVP
 40
0.0
  9
$DIMTIX
 70
     0
  9
$DIMSOXD
 70
     0
  9
$DIMSAH
 70
     0
  9
$DIMBLK1
  1

  9
$DIMBLK2
  1

  9
$DIMSTYLE
  2
STANDARD
  9
$DIMCLRD
 70
     0
  9
$DIMCLRE
 70
     0
  9
$DIMCLRT
 70
     0
  9
$DIMTFAC
 40
1.0
  9
$DIMGAP
 40
0.09
  9
$LUNITS
 70
     2
  9
$LUPREC
 70
     4
  9
$SKETCHINC
 40
0.1
  9
$FILLETRAD
 40
0.0
  9
$AUNITS
 70
     0
  9
$AUPREC
 70
     0
  9
$MENU
  1
.
  9
$ELEVATION
 40
0.0
  9
$PELEVATION
 40
0.0
  9
$THICKNESS
 40
0.0
  9
$LIMCHECK
 70
     0
  9
$BLIPMODE
 70
     0
  9
$CHAMFERA
 40
0.0
  9
$CHAMFERB
 40
0.0
  9
$SKPOLY
 70
     0
  9
$TDCREATE
 40
2458060.468368056230247
  9
$TDUPDATE
 40
2459391.7545486111193895
  9
$TDINDWG
 40
1.6930409028
  9
$TDUSRTIMER
 40
1.6930409028
  9
$USRTIMER
 70
     1
  9
$ANGBASE
 50
0.0
  9
$ANGDIR
 70
     0
  9
$PDMODE
 70
     0
  9
$PDSIZE
 40
0.3125
  9
$PLINEWID
 40
0.0
  9
$COORDS
 70
     1
  9
$SPLFRAME
 70
     0
  9
$SPLINETYPE
 70
     6
  9
$SPLINESEGS
 70
     8
  9
$ATTDIA
 70
     1
  9
$ATTREQ
 70
     1
  9
$HANDLING
 70
     1
  9
$HANDSEED
  5
1EFF8
  9
$SURFTAB1
 70
     6
  9
$SURFTAB2
 70
     6
  9
$SURFTYPE
 70
     6
  9
$SURFU
 70
     6
  9
$SURFV
 70
     6
  9
$UCSNAME
  2

  9
$UCSORG
 10
0.0
 20
0.0
 30
0.0
  9
$UCSXDIR
 10
1.0
 20
0.0
 30
0.0
  9
$UCSYDIR
 10
0.0
 20
1.0
 30
0.0
  9
$PUCSNAME
  2

  9
$PUCSORG
 10
0.0
 20
0.0
 30
0.0
  9
$PUCSXDIR
 10
1.0
 20
0.0
 30
0.0
  9
$PUCSYDIR
 10
0.0
 20
1.0
 30
0.0
  9
$USERI1
 70
     0
  9
$USERI2
 70
     0
  9
$USERI3
 70
     0
  9
$USERI4
 70
     0
  9
$USERI5
 70
     0
  9
$USERR1
 40
0.0
  9
$USERR2
 40
0.0
  9
$USERR3
 40
0.0
  9
$USERR4
 40
0.0
  9
$USERR5
 40
0.0
  9
$WORLDVIEW
 70
     1
  9
$SHADEDGE
 70
     3
  9
$SHADEDIF
 70
    70
  9
$TILEMODE
 70
     1
  9
$MAXACTVP
 70
    64
  9
$PLIMCHECK
 70
     0
  9
$PEXTMIN
 10
1.0000000000000000E+20
 20
1.0000000000000000E+20
 30
1.0000000000000000E+20
  9
$PEXTMAX
 10
-1.0000000000000000E+20
 20
-1.0000000000000000E+20
 30
-1.0000000000000000E+20
  9
$PLIMMIN
 10
0.0
 20
0.0
  9
$PLIMMAX
 10
12.0
 20
9.0
  9
$UNITMODE
 70
     0
  9
$VISRETAIN
 70
     1
  9
$PLINEGEN
 70
     0
  9
$PSLTSCALE
 70
     1
  0
ENDSEC
  0
SECTION
  2
TABLES
  0
TABLE
  2
VPORT
 70
     1
  0
VPORT
  2
*ACTIVE
 70
     0
 10
0.0
 20
0.0
 11
1.0
 21
1.0
 12
1091.0748979013840199
 22
413.3728644296859898
 13
0.0
 23
0.0
 14
1.0
 24
1.0
 15
0.0
 25
0.0
 16
0.0
 26
0.0
 36
60.4960186965801583
 17
3911.3653564453120453
 27
132.5796051025390057
 37
0.0
 40
28.7520545360703004
 41
2.3461538461538458
 42
50.0
 43
0.0
 44
0.0
 50
0.0
 51
0.0
 71
     0
 72
   100
 73
     1
 74
     1
 75
     0
 76
     0
 77
     0
 78
     0
  0
ENDTAB
  0
TABLE
  2
LTYPE
 70
     2
  0
LTYPE
  2
CONTINUOUS
 70
     0
  3
Solid line
 72
    65
 73
     0
 40
0.0
  0
LTYPE
  2
PHANTOM2
 70
     0
  3
___ _ _ ___ _ _ ___ _ _ ___ _ _
 72
    65
 73
     6
 40
1.25
 49
0.625
 49
-0.125
 49
0.125
 49
-0.125
 49
0.125
 49
-0.125
  0
ENDTAB
  0
TABLE
  2
LAYER
 70
     2
  0
LAYER
  2
0
 70
     0
 62
   255
  6
CONTINUOUS
  0
LAYER
  2
DEFPOINTS
 70
     0
 62
     7
  6
CONTINUOUS
  0
ENDTAB
  0
TABLE
  2
STYLE
 70
     1
  0
STYLE
  2
STANDARD
 70
     0
 40
0.0
 41
0.8
 50
0.0
 71
     0
 42
0.2
  3
txt
  4

  0
ENDTAB
  0
TABLE
  2
VIEW
 70
     0
  0
ENDTAB
  0
TABLE
  2
UCS
 70
     0
  0
ENDTAB
  0
TABLE
  2
APPID
 70
    11
  0
APPID
  2
ACAD
 70
     0
  0
APPID
  2
ACAD_MLEADERVER
 70
     0
  0
APPID
  2
ACAD_EXEMPT_FROM_CAD_STANDARDS
 70
     0
  0
APPID
  2
ACAD_NAV_VCDISPLAY
 70
     0
  0
APPID
  2
ACAECLAYERSTANDARD
 70
     0
  0
APPID
  2
ACCMTRANSPARENCY
 70
     0
  0
APPID
  2
ACAD_DSTYLE_DIMJAG
 70
     0
  0
APPID
  2
ACAD_DSTYLE_DIMTALN
 70
     0
  0
APPID
  2
ACDBATTR
 70
     0
  0
APPID
  2
ACADANNOTATIVE
 70
     0
  0
APPID
  2
DCO15
 70
     0
  0
ENDTAB
  0
TABLE
  2
DIMSTYLE
 70
     1
  0
DIMSTYLE
  2
STANDARD
 70
     0
  3

  4

  5

  6

  7

 40
1.0
 41
0.1875
 42
0.0625
 43
0.38
 44
0.125
 45
0.0
 46
0.0
 47
0.01
 48
0.01
140
0.15625
141
0.09
142
0.0
143
25.3999999999999986
144
1.0
145
0.0
146
1.0
147
0.09
 71
     1
 72
     0
 73
     1
 74
     1
 75
     0
 76
     0
 77
     0
 78
     4
170
     0
171
     2
172
     0
173
     0
174
     0
175
     0
176
     0
177
     0
178
     0
  0
ENDTAB
  0
ENDSEC
  0
SECTION
  2
BLOCKS
  0
BLOCK
  8
0
  2
$MODEL_SPACE
 70
     0
 10
0.0
 20
0.0
 30
0.0
  3
$MODEL_SPACE
  1

  0
ENDBLK
  5
21
  8
0
  0
BLOCK
 67
     1
  8
0
  2
$PAPER_SPACE
 70
     0
 10
0.0
 20
0.0
 30
0.0
  3
$PAPER_SPACE
  1

  0
ENDBLK
  5
1D
 67
     1
  8
0
  0
ENDSEC
  0
SECTION
  2
ENTITIES
  0
ATTDEF
  5
159BF
  8
DEFPOINTS
 10
5002.4402820114501083
 20
553.6204656020158836
 30
0.0
 40
0.001
  1
K-962T
  3

  2
MODELNUMBER
 70
     0
1001
ACDBATTR
1070
     0
1070
     1
  0
ATTDEF
  5
159C0
  8
DEFPOINTS
 10
5002.4402820114501083
 20
553.6187987616368673
 30
0.0
 40
0.001
  1
MELANIE
  3

  2
TRADENAME
 70
     0
1001
ACDBATTR
1070
     0
1070
     1
  0
ATTDEF
  5
159C1
  8
DEFPOINTS
 10
5002.4402820114501083
 20
553.6171322686825533
 30
0.0
 40
0.001
  1
BATH
  3

  2
PRODUCT
 70
     0
1001
ACDBATTR
1070
     0
1070
     1
  0
LINE
  5
1EE7B
  8
0
 10
5035.9048479027906069
 20
553.6171238013840821
 30
0.0
 11
5035.9048479027906069
 21
553.6761214533839848
 31
0.0
  0
LINE
  5
1EE7C
  8
0
 10
4968.975714044590859
 20
553.6761214533839848
 30
0.0
 11
4968.975714044590859
 21
553.6171238013840821
 31
0.0
  0
LINE
  5
1EE7D
  8
0
 10
5035.9048479027906069
 20
553.6171238013840821
 30
0.0
 11
4968.975714044590859
 21
553.6171238013840821
 31
0.0
  0
LINE
  5
1EE7E
  8
0
 10
5025.5722095791907122
 20
537.9084623840840322
 30
0.0
 11
5022.7729192972910823
 21
537.9084623840840322
 31
0.0
  0
LINE
  5
1EE7F
  8
0
 10
5035.1429030228882766
 20
554.2661214533841303
 30
0.0
 11
4969.7376589244931893
 21
554.2661214533841303
 31
0.0
  0
LINE
  5
1EE80
  8
0
 10
5022.8587754945911001
 20
538.1505883682840476
 30
0.0
 11
5021.2480771248910969
 21
538.1505883682840476
 31
0.0
  0
LINE
  5
1EE81
  8
0
 10
5020.9850446731088596
 20
537.6584623840840322
 30
0.0
 11
5020.360044833273605
 21
537.6584623840840322
 31
0.0
  0
LINE
  5
1EE82
  8
0
 10
5022.9187755419907262
 20
538.6034054887841194
 30
0.0
 11
5022.9187755419916357
 21
538.2105883682839931
 31
0.0
  0
ARC
  5
1EE83
  8
0
 10
5022.8587755419912355
 20
538.2105883682839931
 30
0.0
 40
0.0600000000000596
 50
269.9999547363959778
 51
359.9999999999608917
  0
LINE
  5
1EE84
  8
0
 10
5022.321838366290649
 20
538.8064231282839955
 30
0.0
 11
5022.3202460702086682
 21
538.2153222266840658
 31
0.0
  0
LINE
  5
1EE85
  8
0
 10
5021.0485894356907011
 20
539.0531387618841563
 30
0.0
 11
5020.9782143675092811
 21
537.6584624450839556
 31
0.0
  0
LINE
  5
1EE86
  8
0
 10
5020.9850446731088596
 20
537.6584623840840322
 30
0.0
 11
5020.9984197411913556
 21
537.9136723573841437
 31
0.0
  0
ARC
  5
1EE87
  8
0
 10
5021.2480771249011013
 20
537.9005883682597187
 30
0.0
 40
0.2500000000243902
 50
90.0000000022407391
 51
176.9999999856840986
  0
ARC
  5
1EE88
  8
0
 10
5022.3865441741172617
 20
538.2152087152642252
 30
0.0
 40
0.0662982010817284
 50
179.9019018863953931
 51
257.0823340328167887
  0
ARC
  5
1EE89
  8
0
 10
5022.1859647945220786
 20
539.1209531772178707
 30
0.0
 40
0.2169536711498616
 50
259.1093500588427219
 51
288.3639458809493021
  0
ARC
  5
1EE8A
  8
0
 10
5022.4943690657637489
 20
538.2164373835246352
 30
0.0
 40
0.7387029416630826
 50
78.8348057113574754
 51
108.9634551484843996
  0
ARC
  5
1EE8B
  8
0
 10
5027.3819973076206225
 20
562.7410310018744894
 30
0.0
 40
24.2681894480984184
 50
258.7256909130509825
 51
259.0082639910780813
  0
ARC
  5
1EE8C
  8
0
 10
5022.9558846344225458
 20
538.6039792995751441
 30
0.0
 40
0.0371135285305506
 50
43.3956482580054299
 51
180.8858830683934116
  0
ARC
  5
1EE8D
  8
0
 10
5022.8465761586912777
 20
538.837678746334177
 30
0.0
 40
0.2488351947513804
 50
303.2063735077666138
 51
312.3534109206761968
  0
ARC
  5
1EE8E
  8
0
 10
5022.9581919514866968
 20
538.718045997602303
 30
0.0
 40
0.0852513389883266
 50
311.0846452318515958
 51
29.7332407913897185
  0
ARC
  5
1EE8F
  8
0
 10
5022.7979171808228784
 20
538.6129969346584403
 30
0.0
 40
0.2767739719454245
 50
32.161905097271962
 51
63.0363863961847386
  0
ARC
  5
1EE90
  8
0
 10
5022.6454784846227994
 20
538.3295668361680555
 30
0.0
 40
0.5985583270180502
 50
62.3324577122423804
 51
79.4720178870144167
  0
ARC
  5
1EE91
  8
0
 10
5022.1294544839702212
 20
538.7621345334403031
 30
0.0
 40
0.1974159006023786
 50
12.9641636660067796
 51
50.766533203966091
  0
LINE
  5
1EE92
  8
0
 10
5022.1449746102907739
 20
538.90790693758413
 30
0.0
 11
5021.234137710592222
 21
539.102198743784129
 31
0.0
  0
ARC
  5
1EE93
  8
0
 10
5021.2519741668129427
 20
539.2057242359368274
 30
0.0
 40
0.1050507815106751
 50
212.8476326965943883
 51
260.2244547420829122
  0
ARC
  5
1EE94
  8
0
 10
5020.9389094895896051
 20
538.9973101355999461
 30
0.0
 40
0.2710565830185118
 50
33.964546658558568
 51
93.1242817555949358
  0
LINE
  5
1EE95
  8
0
 10
5020.9241363678920607
 20
539.267963836983995
 30
0.0
 11
5020.4193159074911819
 21
539.2642704048839732
 31
0.0
  0
LINE
  5
1EE96
  8
0
 10
5018.4863142583908484
 20
538.1505883682840476
 30
0.0
 11
5020.0970123815914121
 21
538.1505883682840476
 31
0.0
  0
LINE
  5
1EE97
  8
0
 10
5018.4263139643908289
 20
538.6241171969841162
 30
0.0
 11
5018.4263139643908289
 21
538.2105883682839931
 31
0.0
  0
ARC
  5
1EE98
  8
0
 10
5018.4863139643921386
 20
538.2105883682845615
 30
0.0
 40
0.0600000000012244
 50
180.0000000004820038
 51
270.0002807481224067
  0
LINE
  5
1EE99
  8
0
 10
5019.0232511675922069
 20
538.8061334619841318
 30
0.0
 11
5019.0232511675922069
 21
538.2105883682839931
 31
0.0
  0
LINE
  5
1EE9A
  8
0
 10
5020.2967886622909646
 20
539.0478633745840398
 30
0.0
 11
5020.366875138874093
 21
537.6584624450839556
 31
0.0
  0
LINE
  5
1EE9B
  8
0
 10
5020.360044833273605
 20
537.6584623840840322
 30
0.0
 11
5020.3466697652920629
 21
537.91367235738403
 31
0.0
  0
ARC
  5
1EE9C
  8
0
 10
5020.0970123815814077
 20
537.9005883682594913
 30
0.0
 40
0.2500000000244574
 50
3.000000014325682
 51
89.9999999977592609
  0
ARC
  5
1EE9D
  8
0
 10
5018.9387927704219692
 20
538.2171513736614088
 30
0.0
 40
0.0847130089891639
 50
308.2101666060909793
 51
355.5566482750679143
  0
ARC
  5
1EE9E
  8
0
 10
5018.3723640555026577
 20
538.6252900305590856
 30
0.0
 40
0.0539626556768326
 50
358.7546256818674806
 51
118.2785819670168053
  0
ARC
  5
1EE9F
  8
0
 10
5018.4268563977202575
 20
538.7915521397330849
 30
0.0
 40
0.1432072993964851
 50
225.6759920345047874
 51
236.0110349752000047
  0
ARC
  5
1EEA0
  8
0
 10
5018.372159229906174
 20
538.7419106329007263
 30
0.0
 40
0.069618079819257
 50
143.0768220534637862
 51
229.3367928343168956
  0
ARC
  5
1EEA1
  8
0
 10
5018.5390560004570943
 20
538.6100463114396462
 30
0.0
 40
0.2823060573496728
 50
111.9589881796968029
 51
142.0303906930246001
  0
ARC
  5
1EEA2
  8
0
 10
5018.6992792246492172
 20
538.2718182980395341
 30
0.0
 40
0.6562834770547902
 50
99.6003696558599358
 51
113.8906250113091971
  0
LINE
  5
1EEA3
  8
0
 10
5018.5898274768360352
 20
538.9189104994726449
 30
0.0
 11
5018.7071993355930317
 21
538.9401362001564166
 31
0.0
  0
ARC
  5
1EEA4
  8
0
 10
5018.8516780189756901
 20
538.156323557757446
 30
0.0
 40
0.797017156864457
 50
72.5586141438906935
 51
100.4439897701105053
  0
ARC
  5
1EEA5
  8
0
 10
5019.1590132119499685
 20
539.140090072716248
 30
0.0
 40
0.23364324660912
 50
252.9654856832642906
 51
280.1495011793853109
  0
LINE
  5
1EEA6
  8
0
 10
5019.2001851777913544
 20
538.9101030384839532
 30
0.0
 11
5020.1100457202910547
 21
539.0982052339841175
 31
0.0
  0
ARC
  5
1EEA7
  8
0
 10
5020.0922533156281133
 20
539.2024945442917669
 30
0.0
 40
0.1057961715195577
 50
279.6817999765585228
 51
326.5887381824554723
  0
ARC
  5
1EEA8
  8
0
 10
5020.4095169178381184
 20
538.9863012532988478
 30
0.0
 40
0.278141815323128
 50
87.9810408761314875
 51
145.4009793170966987
  0
ARC
  5
1EEA9
  8
0
 10
5020.1580898339771011
 20
538.9988670098484818
 30
0.0
 40
0.147098636067595
 50
19.4561362045937898
 51
81.2111412800174861
  0
ARC
  5
1EEAA
  8
0
 10
5021.1871491403107939
 20
539.0034057056869869
 30
0.0
 40
0.1472147024685591
 50
99.157796144162333
 51
160.2554802977766997
  0
ARC
  5
1EEAB
  8
0
 10
5019.2111427209019894
 20
538.7675102784982073
 30
0.0
 40
0.1918201921290481
 50
128.9455996626739989
 51
168.3840282683271141
  0
LINE
  5
1EEAC
  8
0
 10
4997.9837754945911001
 20
538.9005883682840476
 30
0.0
 11
4996.3730771248910969
 21
538.9005883682840476
 31
0.0
  0
LINE
  5
1EEAD
  8
0
 10
4996.1100446731088596
 20
538.4084623840840322
 30
0.0
 11
4995.4850448332726955
 21
538.4084623840840322
 31
0.0
  0
LINE
  5
1EEAE
  8
0
 10
4998.0437786974907795
 20
539.0223090904839864
 30
0.0
 11
4998.0437755419898167
 21
538.9605883682841068
 31
0.0
  0
ARC
  5
1EEAF
  8
0
 10
4997.983775541992145
 20
538.9605883682841068
 30
0.0
 40
0.0600000000000349
 50
269.9999547363959778
 51
359.9999999999869829
  0
LINE
  5
1EEB0
  8
0
 10
4997.4468383750909197
 20
539.1555867715841259
 30
0.0
 11
4997.4468383750909197
 21
538.9605883682841068
 31
0.0
  0
LINE
  5
1EEB1
  8
0
 10
4996.1482490460921326
 20
539.338369432883951
 30
0.0
 11
4996.1032143675083717
 21
538.4084624450839556
 31
0.0
  0
LINE
  5
1EEB2
  8
0
 10
4996.1100446731088596
 20
538.4084623840840322
 30
0.0
 11
4996.1238322983090256
 21
538.6715459461839828
 31
0.0
  0
ARC
  5
1EEB3
  8
0
 10
4996.3731728656648556
 20
538.6503483921397901
 30
0.0
 40
0.2502399944592919
 50
90.0219211257679746
 51
175.1407144470954051
  0
ARC
  5
1EEB4
  8
0
 10
4997.5319465462516746
 20
538.9674985305121027
 30
0.0
 40
0.0853882377161401
 50
184.6418169067426902
 51
231.5913144299908879
  0
ARC
  5
1EEB5
  8
0
 10
4997.32381079903098
 20
539.6365634665352218
 30
0.0
 40
0.3671473077829316
 50
262.090359004037623
 51
279.2381690456680872
  0
ARC
  5
1EEB6
  8
0
 10
4997.5898272160002307
 20
538.0600816397052313
 30
0.0
 40
1.231629247265454
 50
81.7717854915816957
 51
99.6791685856918406
  0
ARC
  5
1EEB7
  8
0
 10
4997.0492538128773958
 20
533.8448299927754306
 30
0.0
 40
5.4812785232214614
 50
81.2446786194204265
 51
82.4853528121647344
  0
ARC
  5
1EEB8
  8
0
 10
4998.1384034761877047
 20
539.0236977350127745
 30
0.0
 40
0.0946349675168521
 50
81.7757566424777451
 51
180.8407708940760017
  0
ARC
  5
1EEB9
  8
0
 10
4998.1439621077151969
 20
539.1434749275479135
 30
0.0
 40
0.0273070910661262
 50
286.9887319642284069
 51
30.0771255810802707
  0
ARC
  5
1EEBA
  8
0
 10
4998.0186042889199598
 20
539.0207198845346284
 30
0.0
 40
0.2020233285223837
 50
42.4828563878053913
 51
69.5642195983846534
  0
ARC
  5
1EEBB
  8
0
 10
4997.6565424233422164
 20
537.9375615649812516
 30
0.0
 40
1.343992254750467
 50
71.2235425173210217
 51
80.2741892377754453
  0
ARC
  5
1EEBC
  8
0
 10
4997.2837247227225816
 20
539.1440526606384083
 30
0.0
 40
0.163520944542229
 50
4.0447730136991566
 51
52.7283378029314704
  0
LINE
  5
1EEBD
  8
0
 10
4997.273287212190553
 20
539.2729090800839913
 30
0.0
 11
4996.3318555141922843
 21
539.4183247202840903
 31
0.0
  0
ARC
  5
1EEBE
  8
0
 10
4996.3480936537498565
 20
539.5560937805868207
 30
0.0
 40
0.1387227131837606
 50
232.3680623922089978
 51
263.277851269240216
  0
ARC
  5
1EEBF
  8
0
 10
4996.0609545102661286
 20
539.1666933995186355
 30
0.0
 40
0.3451416462569956
 50
54.0886501051641417
 51
91.4323815014307257
  0
LINE
  5
1EEC0
  8
0
 10
4996.0523269460909432
 20
539.5117271965840473
 30
0.0
 11
4995.5473632732910119
 21
539.5225466185839878
 31
0.0
  0
LINE
  5
1EEC1
  8
0
 10
4993.6113142583908484
 20
538.9005883682840476
 30
0.0
 11
4995.2220123815914121
 21
538.9005883682840476
 31
0.0
  0
LINE
  5
1EEC2
  8
0
 10
4993.5513118955923346
 20
539.1432485938840955
 30
0.0
 11
4993.5513139643908289
 21
538.9605883682841068
 31
0.0
  0
ARC
  5
1EEC3
  8
0
 10
4993.6113139643921386
 20
538.9605883682845615
 30
0.0
 40
0.0600000000012542
 50
180.000000000521112
 51
270.0002807481224067
  0
LINE
  5
1EEC4
  8
0
 10
4994.148251143291418
 20
539.2297502785841061
 30
0.0
 11
4994.148251143291418
 21
538.9605883682841068
 31
0.0
  0
LINE
  5
1EEC5
  8
0
 10
4995.4457746212910934
 20
539.3580107995841217
 30
0.0
 11
4995.491875138874093
 21
538.4084624450839556
 31
0.0
  0
LINE
  5
1EEC6
  8
0
 10
4995.4850448332726955
 20
538.4084623840840322
 30
0.0
 11
4995.4716697652911535
 21
538.6636723573841437
 31
0.0
  0
ARC
  5
1EEC7
  8
0
 10
4995.2220123815823172
 20
538.650588368259605
 30
0.0
 40
0.2500000000243901
 50
3.0000000143159249
 51
89.9999999977592609
  0
ARC
  5
1EEC8
  8
0
 10
4994.0718072066556488
 20
538.962869049176561
 30
0.0
 40
0.0764779507669292
 50
305.4757456956281771
 51
358.291105287867083
  0
ARC
  5
1EEC9
  8
0
 10
4993.4535598744678282
 20
539.1446832699970173
 30
0.0
 40
0.0977625487044097
 50
359.1591479757876755
 51
93.6530388361032351
  0
ARC
  5
1EECA
  8
0
 10
4993.4519463039441689
 20
539.2652990862120532
 30
0.0
 40
0.0222674730006779
 50
128.9772764582459956
 51
241.9594615905473916
  0
ARC
  5
1EECB
  8
0
 10
4993.5719799419175615
 20
539.1201555895617048
 30
0.0
 40
0.2106136407441214
 50
105.0486231110600954
 51
129.5258820938132089
  0
ARC
  5
1EECC
  8
0
 10
4993.7860457002043404
 20
538.4324239868941504
 30
0.0
 40
0.9307659803569734
 50
94.2501450540731582
 51
106.782526046193496
  0
LINE
  5
1EECD
  8
0
 10
4993.7170656887610676
 20
539.3606303584577972
 30
0.0
 11
4993.8344854894075979
 21
539.3710188424598755
 31
0.0
  0
ARC
  5
1EECE
  8
0
 10
4993.9519034622917388
 20
538.0709018620716506
 30
0.0
 40
1.305408420016624
 50
78.2426518777685516
 51
95.1605757522093967
  0
ARC
  5
1EECF
  8
0
 10
4994.2956895615361645
 20
539.7491960871616357
 30
0.0
 40
0.4077623334615401
 50
259.0026031021217818
 51
274.4707023356457967
  0
LINE
  5
1EED0
  8
0
 10
4994.3274743585907345
 20
539.3426744428841175
 30
0.0
 11
4995.2664812872908442
 21
539.441353251284113
 31
0.0
  0
ARC
  5
1EED1
  8
0
 10
4995.2572967285323102
 20
539.5750689350041966
 30
0.0
 40
0.1340307434596071
 50
273.9293162234433794
 51
305.6124950487586034
  0
ARC
  5
1EED2
  8
0
 10
4995.5239054148341893
 20
539.1842193712618609
 30
0.0
 40
0.3391394954940781
 50
86.0337550362650063
 51
123.7798207186112052
  0
ARC
  5
1EED3
  8
0
 10
4995.3068629026656708
 20
539.3265527079671529
 30
0.0
 40
0.14242920030583
 50
12.7600360022261405
 51
78.4654531153764907
  0
ARC
  5
1EED4
  8
0
 10
4996.2875524588489498
 20
539.3050527975271962
 30
0.0
 40
0.1432321158020626
 50
99.7113465913476915
 51
166.5494592611200915
  0
ARC
  5
1EED5
  8
0
 10
4994.3110973425827979
 20
539.214512540191663
 30
0.0
 40
0.1635575534637352
 50
124.7359490315368049
 51
174.6543219472642932
  0
ARC
  5
1EED6
  8
0
 10
5023.8950644382912287
 20
537.9984623840839504
 30
0.0
 40
0.09
 50
270.0
 51
0.0
  0
ARC
  5
1EED7
  8
0
 10
5023.86973322191443
 20
538.0334623841711164
 30
0.0
 40
0.1250000000870911
 50
210.0000000230527917
 51
269.9999999893174163
  0
LINE
  5
1EED8
  8
0
 10
5023.9850644382913742
 20
537.9984623840839504
 30
0.0
 11
5023.9850644382913742
 21
538.2130883692840371
 31
0.0
  0
ARC
  5
1EED9
  8
0
 10
5024.1725644382913742
 20
538.2130883682840476
 30
0.0
 40
0.1875000000000177
 50
0.0000003361466667
 51
179.9999996944191878
  0
LINE
  5
1EEDA
  8
0
 10
5024.3600644382913742
 20
538.2130883693839678
 30
0.0
 11
5024.3600644382913742
 21
537.9984623840839504
 31
0.0
  0
ARC
  5
1EEDB
  8
0
 10
5024.4500644382906103
 20
537.9984623840839504
 30
0.0
 40
0.0899999999999999
 50
180.0
 51
270.0
  0
ARC
  5
1EEDC
  8
0
 10
5024.4753956545691835
 20
538.0334623841711164
 30
0.0
 40
0.1250000000870406
 50
270.0000000106825837
 51
329.9999999769585202
  0
LINE
  5
1EEDD
  8
0
 10
5024.5836488300910787
 20
537.9709623840840322
 30
0.0
 11
5024.9831095344461573
 21
538.6628486196639187
 31
0.0
  0
LINE
  5
1EEDE
  8
0
 10
5023.7614800463916254
 20
537.9709623840840322
 30
0.0
 11
5023.3939559646978523
 21
538.6075327666436579
 31
0.0
  0
ARC
  5
1EEDF
  8
0
 10
5023.3242484885840895
 20
538.5652650584368075
 30
0.0
 40
0.0815211100458293
 50
31.230876872195239
 51
96.1824563193483328
  0
ARC
  5
1EEE0
  8
0
 10
5023.333593584465234
 20
538.6581095859588686
 30
0.0
 40
0.0216259068725123
 50
144.0243709060557933
 51
213.0607768755212987
  0
ARC
  5
1EEE1
  8
0
 10
5023.3916976275922934
 20
538.5926304018584005
 30
0.0
 40
0.108760030663278
 50
104.1431993258502047
 51
134.0396399270537131
  0
ARC
  5
1EEE2
  8
0
 10
5023.4485882350727479
 20
538.3550260262491065
 30
0.0
 40
0.3530750013741653
 50
90.1815678709022563
 51
103.6739581129912011
  0
ARC
  5
1EEE3
  8
0
 10
5023.5458268252250491
 20
560.6269472962334248
 30
0.0
 40
21.9190687223619705
 50
269.7428957053600129
 51
273.5793188815446797
  0
ARC
  5
1EEE4
  8
0
 10
5024.9544622051926126
 20
538.3858881980803517
 30
0.0
 40
0.3669582936490196
 50
83.3503479877519311
 51
96.2927735038982746
  0
ARC
  5
1EEE5
  8
0
 10
5024.9790257435552121
 20
538.6209144417809966
 30
0.0
 40
0.1306990806244166
 50
58.7758274222150519
 51
82.1152218543354735
  0
ARC
  5
1EEE6
  8
0
 10
5025.0323366750071727
 20
538.7138138160390781
 30
0.0
 40
0.0237601713884331
 50
325.4726309733172229
 51
52.5680364165558487
  0
ARC
  5
1EEE7
  8
0
 10
5025.053089416957846
 20
538.6163167022823473
 30
0.0
 40
0.0840381061877295
 50
90.8030260998551455
 51
146.3787642329052119
  0
ARC
  5
1EEE8
  8
0
 10
5035.1429030228882766
 20
553.4791214533751145
 30
0.0
 40
0.7870000000089443
 50
14.4963105772409406
 51
89.9999999997915552
  0
LINE
  5
1EEE9
  8
0
 10
4971.9206759915914517
 20
553.4422934561839611
 30
0.0
 11
4981.3131198172923177
 21
542.2488147836838834
 31
0.0
  0
ARC
  5
1EEEA
  8
0
 10
4987.5259266370758269
 20
547.4619855173435781
 30
0.0
 40
8.1102476952463807
 50
220.000036922621689
 51
268.2819636682742725
  0
LINE
  5
1EEEB
  8
0
 10
4987.2827741327910189
 20
539.3553836066840859
 30
0.0
 11
4993.548635267692589
 21
539.1674469588998591
 31
0.0
  0
LINE
  5
1EEEC
  8
0
 10
4998.0441889550102132
 20
539.0326084631627737
 30
0.0
 11
5018.4263139643908289
 21
538.4212721812840527
 31
0.0
  0
LINE
  5
1EEED
  8
0
 10
5022.9187755419916357
 20
538.3062869129839783
 30
0.0
 11
5023.5678803396440344
 21
538.3062869125330963
 31
0.0
  0
LINE
  5
1EEEE
  8
0
 10
5024.0098675378685584
 20
538.3062869122260281
 30
0.0
 11
5024.3352613388433383
 21
538.3062869119997913
 31
0.0
  0
LINE
  5
1EEEF
  8
0
 10
5024.7772485363675514
 20
538.3062869116928368
 30
0.0
 11
5026.0851733846911884
 21
538.3062869107841379
 31
0.0
  0
ARC
  5
1EEF0
  8
0
 10
5022.2434305803408279
 20
537.7553535803612021
 30
0.0
 40
0.5511811019573698
 50
16.1279385730021083
 51
45.8157895496911323
  0
ARC
  5
1EEF1
  8
0
 10
5026.0608559948323091
 20
542.4426653622824688
 30
0.0
 40
4.1364499307341758
 50
270.3368327567391134
 51
351.986589843404488
  0
LINE
  5
1EEF2
  8
0
 10
5030.1569154276912741
 20
541.8660240942839437
 30
0.0
 11
5031.8050591737910509
 21
553.5931762035841075
 31
0.0
  0
ARC
  5
1EEF3
  8
0
 10
5026.101698296347422
 20
537.7553535802395572
 30
0.0
 40
0.5511811021888926
 50
91.7180371185266239
 51
163.8720614207821029
  0
ARC
  5
1EEF4
  8
0
 10
4969.7376589244931893
 20
553.4791214533752282
 30
0.0
 40
0.787000000008824
 50
90.0000000075038855
 51
165.5036894227654045
  0
ARC
  5
1EEF6
  8
0
 10
4993.542487404329222
 20
539.4128644327897746
 30
0.0
 40
0.1953586145926492
 50
238.8658387358725008
 51
240.850780432929696
  0
ARC
  5
1EEF7
  8
0
 10
5032.194956476745574
 20
553.538359708238545
 30
0.0
 40
0.3937318313436857
 50
168.460408149718802
 51
171.9971175040024889
  0
ARC
  5
1EEF8
  8
0
 10
4970.8945942963182461
 20
552.5807520860075783
 30
0.0
 40
1.3398123666768711
 50
40.0182336811330401
 51
50.6710463036950571
  0
LINE
  5
1EEF9
  8
0
 10
4973.0993598031909642
 20
553.5312908145840538
 30
0.0
 11
4976.6513481415913702
 21
550.0139623256841332
 31
0.0
  0
ARC
  5
1EEFA
  8
0
 10
4975.998562659990057
 20
549.3547442783960832
 30
0.0
 40
0.9277377424999725
 50
27.1033883823637893
 51
45.2809107628874088
  0
LINE
  5
1EEFB
  8
0
 10
4976.8244216827915807
 20
549.7774193229839739
 30
0.0
 11
4976.9617498011912176
 21
549.5087202976841354
 31
0.0
  0
ARC
  5
1EEFC
  8
0
 10
4977.0770862884992312
 20
549.5686370786663701
 30
0.0
 40
0.1299712504655497
 50
207.4516716659551037
 51
231.3329835671954129
  0
ARC
  5
1EEFD
  8
0
 10
4977.0539414002641934
 20
549.5355304403358332
 30
0.0
 40
0.0896992226082197
 50
229.6633605665948039
 51
267.2791763907397922
  0
LINE
  5
1EEFE
  8
0
 10
4977.0496834243913327
 20
549.4459323366839953
 30
0.0
 11
4977.1241860855907362
 21
549.4459359737841169
 31
0.0
  0
ARC
  5
1EEFF
  8
0
 10
4977.125295657226161
 20
549.4630195395532155
 30
0.0
 40
0.0171195609931952
 50
266.2838786828102116
 51
6.2862338953554859
  0
ARC
  5
1EF00
  8
0
 10
4977.0840724038262124
 20
549.4643405486112897
 30
0.0
 40
0.0582425096425834
 50
0.5445167261495617
 51
20.2127381103056187
  0
ARC
  5
1EF01
  8
0
 10
4976.9830057884355483
 20
549.4269650795370126
 30
0.0
 40
0.1659986141356042
 50
20.2660789136336987
 51
37.4396530729441182
  0
LINE
  5
1EF02
  8
0
 10
4977.1148154097500083
 20
549.527884250925581
 30
0.0
 11
4976.9344276371703018
 21
549.8838653572499879
 31
0.0
  0
ARC
  5
1EF03
  8
0
 10
4988.5472430167019411
 20
555.8147174028547397
 30
0.0
 40
13.0396505714657103
 50
205.4678533549414112
 51
207.0541337074764954
  0
LINE
  5
1EF04
  8
0
 10
4976.7746991037993212
 20
550.207600960596892
 30
0.0
 11
4976.5828585078406832
 21
550.6135895885320224
 31
0.0
  0
ARC
  5
1EF05
  8
0
 10
4975.4206465862653204
 20
550.064413054204465
 30
0.0
 40
1.285430440167372
 50
25.2919998978566909
 51
34.0053989881534093
  0
ARC
  5
1EF06
  8
0
 10
4969.2103559566503463
 20
546.143318155117754
 30
0.0
 40
8.6294964529103915
 50
32.5265641125854117
 51
60.0058764530989919
  0
ARC
  5
1EF07
  8
0
 10
4972.6260145655096494
 20
553.0546916524722292
 30
0.0
 40
0.6717160675172562
 50
45.1962592838429629
 51
56.8567636023170522
  0
ARC
  5
1EF08
  8
0
 10
5023.303881097379417
 20
556.9230556408747361
 30
0.0
 40
8.8770610247329529
 50
334.513591724710011
 51
338.1354971452302038
  0
ARC
  5
1EF09
  8
0
 10
5031.000997272702989
 20
553.2509757191465951
 30
0.0
 40
0.3488968818100386
 50
317.2504312605943824
 51
334.9560749033843194
  0
ARC
  5
1EF0A
  8
0
 10
5031.1952894030782772
 20
553.0713766332603427
 30
0.0
 40
0.0843118036645572
 50
273.2752046792799092
 51
317.2504312605943824
  0
LINE
  5
1EF0B
  8
0
 10
5031.2001063032912498
 20
552.9872025415841108
 30
0.0
 11
5030.971981585690628
 21
552.9872025415841108
 31
0.0
  0
ARC
  5
1EF0C
  8
0
 10
5030.9707675373610982
 20
553.0810792460299581
 30
0.0
 40
0.0938845543792541
 50
253.9672289496319877
 51
270.7409289487898718
  0
ARC
  5
1EF0D
  8
0
 10
5030.9562591640569735
 20
553.0305915400432468
 30
0.0
 40
0.0413535982513245
 50
185.2643350985694894
 51
253.9672289496319877
  0
ARC
  5
1EF0E
  8
0
 10
5031.0422877689707093
 20
553.0057701878272383
 30
0.0
 40
0.1289339281818568
 50
136.195156606219598
 51
170.6140214763443907
  0
ARC
  5
1EF0F
  8
0
 10
5022.3340597859132686
 20
558.2204313804941194
 30
0.0
 40
10.0245256357166603
 50
329.2503861367227955
 51
332.6642108436063268
  0
ARC
  5
1EF10
  8
0
 10
5031.8850686880232388
 20
552.8341619899117632
 30
0.0
 40
0.8553011590622507
 50
162.2425496367825986
 51
169.6924552866815077
  0
ARC
  5
1EF11
  8
0
 10
5021.4935085570814408
 20
558.4206654295860517
 30
0.0
 40
10.9581755277337596
 50
330.9221485149944897
 51
334.0011062090936207
  0
LINE
  5
1EF12
  8
0
 10
5029.0123784568186238
 20
553.6171216653611964
 30
0.0
 11
5028.726995426157373
 21
553.0725585101740762
 31
0.0
  0
ARC
  5
1EF13
  8
0
 10
5028.5851571386820069
 20
553.1468900912916524
 30
0.0
 40
0.1601352045774723
 50
274.2851605808469913
 51
332.3428252117597026
  0
LINE
  5
1EF14
  8
0
 10
5028.5971225142911862
 20
552.9872025415841108
 30
0.0
 11
5028.1896673399905922
 21
552.9872025415841108
 31
0.0
  0
ARC
  5
1EF15
  8
0
 10
5028.2485939669386426
 20
553.0710683958585605
 30
0.0
 40
0.0839357968076093
 50
163.4207156178850937
 51
267.6608134286133236
  0
ARC
  5
1EF16
  8
0
 10
4799.3649576026582508
 20
641.3378523356698224
 30
0.0
 40
245.2298876365088915
 50
338.9098023881950894
 51
339.0404880118427968
  0
ARC
  5
1EF17
  8
0
 10
5028.1989733326654459
 20
553.0583929251362179
 30
0.0
 40
0.0717960459214432
 50
149.3269999041862945
 51
262.5525355261459026
  0
ARC
  5
1EF18
  8
0
 10
4811.8289928791200509
 20
637.3329712739956676
 30
0.0
 40
232.1320371153832127
 50
338.7223299440921096
 51
338.8605604509172053
  0
ARC
  5
1EF19
  8
0
 10
4984.8834223598350945
 20
231.4811684439357009
 30
0.0
 40
321.0540612798283178
 50
81.7080943634283727
 51
86.6094255088473943
  0
ARC
  5
1EF1A
  8
0
 10
4986.8714935784300906
 20
257.2059607590819041
 30
0.0
 40
295.2570828671256891
 50
86.6993057785031453
 51
90.0893693042256558
  0
ARC
  5
1EF1B
  8
0
 10
4986.5884809467779633
 20
525.9728617323091839
 30
0.0
 40
26.4904175747685784
 50
90.3839711523852571
 51
103.4123404118054026
  0
ARC
  5
1EF1C
  8
0
 10
4987.0434174672236622
 20
521.9915551085975949
 30
0.0
 40
30.4724596242698986
 50
102.5079693342328966
 51
110.0757481700871949
  0
ARC
  5
1EF1D
  8
0
 10
4987.0434174672236622
 20
521.9915551085975949
 30
0.0
 40
30.4724596242698986
 50
110.8576833969110993
 51
113.5454767221887948
  0
ENDSEC
  0
EOF
