  0
SECTION
  2
HEADER
  9
$ACADVER
  1
AC1009
  9
$INSBASE
 10
4370.7173844019116586
 20
441.6498296008250009
 30
0.0
  9
$EXTMIN
 10
4354.1770274822320062
 20
441.6243345023679012
 30
-0.0000000349181948
  9
$EXTMAX
 10
4370.7610782172132531
 20
457.6529301893510251
 30
0.0000000814935746
  9
$LIMMIN
 10
0.0
 20
0.0
  9
$LIMMAX
 10
11.6929133858000007
 20
8.2677165353999982
  9
$ORTHOMODE
 70
     0
  9
$REGENMODE
 70
     1
  9
$FILLMODE
 70
     1
  9
$QTEXTMODE
 70
     0
  9
$MIRRTEXT
 70
     0
  9
$DRAGMODE
 70
     2
  9
$LTSCALE
 40
0.6431102362
  9
$OSMODE
 70
     3
  9
$ATTMODE
 70
     1
  9
$TEXTSIZE
 40
0.2
  9
$TRACEWID
 40
0.05
  9
$TEXTSTYLE
  7
STANDARD
  9
$CLAYER
  8
0
  9
$CELTYPE
  6
BYLAYER
  9
$CECOLOR
 62
   256
  9
$DIMSCALE
 40
1.0
  9
$DIMASZ
 40
0.1875
  9
$DIMEXO
 40
0.0625
  9
$DIMDLI
 40
0.4443307087
  9
$DIMRND
 40
0.0
  9
$DIMDLE
 40
0.0
  9
$DIMEXE
 40
0.125
  9
$DIMTP
 40
0.01
  9
$DIMTM
 40
0.01
  9
$DIMTXT
 40
2.0
  9
$DIMCEN
 40
0.1052362205
  9
$DIMTSZ
 40
0.0
  9
$DIMTOL
 70
     1
  9
$DIMLIM
 70
     0
  9
$DIMTIH
 70
     1
  9
$DIMTOH
 70
     1
  9
$DIMSE1
 70
     0
  9
$DIMSE2
 70
     0
  9
$DIMTAD
 70
     0
  9
$DIMZIN
 70
     0
  9
$DIMBLK
  1

  9
$DIMASO
 70
     1
  9
$DIMSHO
 70
     1
  9
$DIMPOST
  1
\X
  9
$DIMAPOST
  1

  9
$DIMALT
 70
     1
  9
$DIMALTD
 70
     2
  9
$DIMALTF
 40
25.3999999999999986
  9
$DIMLFAC
 40
1.0
  9
$DIMTOFL
 70
     0
  9
$DIMTVP
 40
0.0
  9
$DIMTIX
 70
     0
  9
$DIMSOXD
 70
     0
  9
$DIMSAH
 70
     0
  9
$DIMBLK1
  1

  9
$DIMBLK2
  1

  9
$DIMSTYLE
  2
STANDARD
  9
$DIMCLRD
 70
     0
  9
$DIMCLRE
 70
     0
  9
$DIMCLRT
 70
     0
  9
$DIMTFAC
 40
1.0
  9
$DIMGAP
 40
0.09
  9
$LUNITS
 70
     2
  9
$LUPREC
 70
     4
  9
$SKETCHINC
 40
0.1
  9
$FILLETRAD
 40
0.0
  9
$AUNITS
 70
     0
  9
$AUPREC
 70
     0
  9
$MENU
  1
.
  9
$ELEVATION
 40
0.0
  9
$PELEVATION
 40
0.0
  9
$THICKNESS
 40
0.0
  9
$LIMCHECK
 70
     0
  9
$BLIPMODE
 70
     0
  9
$CHAMFERA
 40
0.0
  9
$CHAMFERB
 40
0.0
  9
$SKPOLY
 70
     0
  9
$TDCREATE
 40
2458060.468368056230247
  9
$TDUPDATE
 40
2459157.6359490738250315
  9
$TDINDWG
 40
1.1410371528000001
  9
$TDUSRTIMER
 40
1.1410371528000001
  9
$USRTIMER
 70
     1
  9
$ANGBASE
 50
0.0
  9
$ANGDIR
 70
     0
  9
$PDMODE
 70
     0
  9
$PDSIZE
 40
0.3125
  9
$PLINEWID
 40
0.0
  9
$COORDS
 70
     1
  9
$SPLFRAME
 70
     0
  9
$SPLINETYPE
 70
     6
  9
$SPLINESEGS
 70
     8
  9
$ATTDIA
 70
     1
  9
$ATTREQ
 70
     1
  9
$HANDLING
 70
     1
  9
$HANDSEED
  5
1701E
  9
$SURFTAB1
 70
     6
  9
$SURFTAB2
 70
     6
  9
$SURFTYPE
 70
     6
  9
$SURFU
 70
     6
  9
$SURFV
 70
     6
  9
$UCSNAME
  2

  9
$UCSORG
 10
0.0
 20
0.0
 30
0.0
  9
$UCSXDIR
 10
1.0
 20
0.0
 30
0.0
  9
$UCSYDIR
 10
0.0
 20
1.0
 30
0.0
  9
$PUCSNAME
  2

  9
$PUCSORG
 10
0.0
 20
0.0
 30
0.0
  9
$PUCSXDIR
 10
1.0
 20
0.0
 30
0.0
  9
$PUCSYDIR
 10
0.0
 20
1.0
 30
0.0
  9
$USERI1
 70
     0
  9
$USERI2
 70
     0
  9
$USERI3
 70
     0
  9
$USERI4
 70
     0
  9
$USERI5
 70
     0
  9
$USERR1
 40
0.0
  9
$USERR2
 40
0.0
  9
$USERR3
 40
0.0
  9
$USERR4
 40
0.0
  9
$USERR5
 40
0.0
  9
$WORLDVIEW
 70
     1
  9
$SHADEDGE
 70
     3
  9
$SHADEDIF
 70
    70
  9
$TILEMODE
 70
     1
  9
$MAXACTVP
 70
    64
  9
$PLIMCHECK
 70
     0
  9
$PEXTMIN
 10
1.0000000000000000E+20
 20
1.0000000000000000E+20
 30
1.0000000000000000E+20
  9
$PEXTMAX
 10
-1.0000000000000000E+20
 20
-1.0000000000000000E+20
 30
-1.0000000000000000E+20
  9
$PLIMMIN
 10
0.0
 20
0.0
  9
$PLIMMAX
 10
12.0
 20
9.0
  9
$UNITMODE
 70
     0
  9
$VISRETAIN
 70
     1
  9
$PLINEGEN
 70
     0
  9
$PSLTSCALE
 70
     1
  0
ENDSEC
  0
SECTION
  2
TABLES
  0
TABLE
  2
VPORT
 70
     1
  0
VPORT
  2
*ACTIVE
 70
     0
 10
0.0
 20
0.0
 11
1.0
 21
1.0
 12
451.1036964044105275
 22
317.0590272433203722
 13
0.0
 23
0.0
 14
1.0
 24
1.0
 15
0.0
 25
0.0
 16
0.0
 26
0.0
 36
60.4960186965801583
 17
3911.3653564453120453
 27
132.5796051025390057
 37
0.0
 40
16.1250566439761087
 41
1.9267068273092369
 42
50.0
 43
0.0
 44
0.0
 50
0.0
 51
0.0
 71
     0
 72
   100
 73
     1
 74
     1
 75
     0
 76
     0
 77
     0
 78
     0
  0
ENDTAB
  0
TABLE
  2
LTYPE
 70
     2
  0
LTYPE
  2
CONTINUOUS
 70
     0
  3
Solid line
 72
    65
 73
     0
 40
0.0
  0
LTYPE
  2
PHANTOM2
 70
     0
  3
___ _ _ ___ _ _ ___ _ _ ___ _ _
 72
    65
 73
     6
 40
1.25
 49
0.625
 49
-0.125
 49
0.125
 49
-0.125
 49
0.125
 49
-0.125
  0
ENDTAB
  0
TABLE
  2
LAYER
 70
     2
  0
LAYER
  2
0
 70
     0
 62
   255
  6
CONTINUOUS
  0
LAYER
  2
DEFPOINTS
 70
     0
 62
     7
  6
CONTINUOUS
  0
ENDTAB
  0
TABLE
  2
STYLE
 70
     1
  0
STYLE
  2
STANDARD
 70
     0
 40
0.0
 41
0.8
 50
0.0
 71
     0
 42
0.2
  3
txt
  4

  0
ENDTAB
  0
TABLE
  2
VIEW
 70
     0
  0
ENDTAB
  0
TABLE
  2
UCS
 70
     0
  0
ENDTAB
  0
TABLE
  2
APPID
 70
    10
  0
APPID
  2
ACAD
 70
     0
  0
APPID
  2
ACAD_MLEADERVER
 70
     0
  0
APPID
  2
ACAD_EXEMPT_FROM_CAD_STANDARDS
 70
     0
  0
APPID
  2
ACAD_NAV_VCDISPLAY
 70
     0
  0
APPID
  2
ACAECLAYERSTANDARD
 70
     0
  0
APPID
  2
ACCMTRANSPARENCY
 70
     0
  0
APPID
  2
ACAD_DSTYLE_DIMJAG
 70
     0
  0
APPID
  2
ACAD_DSTYLE_DIMTALN
 70
     0
  0
APPID
  2
ACDBATTR
 70
     0
  0
APPID
  2
ACADANNOTATIVE
 70
     0
  0
ENDTAB
  0
TABLE
  2
DIMSTYLE
 70
     1
  0
DIMSTYLE
  2
STANDARD
 70
     0
  3

  4

  5

  6

  7

 40
1.0
 41
0.1875
 42
0.0625
 43
0.38
 44
0.125
 45
0.0
 46
0.0
 47
0.01
 48
0.01
140
0.15625
141
0.09
142
0.0
143
25.3999999999999986
144
1.0
145
0.0
146
1.0
147
0.09
 71
     1
 72
     0
 73
     1
 74
     1
 75
     0
 76
     0
 77
     0
 78
     4
170
     0
171
     2
172
     0
173
     0
174
     0
175
     0
176
     0
177
     0
178
     0
  0
ENDTAB
  0
ENDSEC
  0
SECTION
  2
BLOCKS
  0
BLOCK
  8
0
  2
$MODEL_SPACE
 70
     0
 10
0.0
 20
0.0
 30
0.0
  3
$MODEL_SPACE
  1

  0
ENDBLK
  5
21
  8
0
  0
BLOCK
 67
     1
  8
0
  2
$PAPER_SPACE
 70
     0
 10
0.0
 20
0.0
 30
0.0
  3
$PAPER_SPACE
  1

  0
ENDBLK
  5
1D
 67
     1
  8
0
  0
ENDSEC
  0
SECTION
  2
ENTITIES
  0
ATTDEF
  5
159BF
  8
0
 10
4370.7176535128528485
 20
441.6484937158995194
 30
0.0
 40
0.001
  1
K-96050IN
  3

  2
MODELNUMBER
 70
     0
1001
ACDBATTR
1070
     0
1070
     1
  0
ATTDEF
  5
159C0
  8
0
 10
4370.7175277031956284
 20
441.6468268755202757
 30
0.0
 40
0.001
  1
BRIVE
  3

  2
TRADENAME
 70
     0
1001
ACDBATTR
1070
     0
1070
     1
  0
ATTDEF
  5
159C1
  8
0
 10
4370.7176535128528485
 20
441.6451603825660754
 30
0.0
 40
0.001
  1
LAVATORIES
  3

  2
PRODUCT
 70
     0
1001
ACDBATTR
1070
     0
1070
     1
  0
LINE
  5
16F71
  8
0
 10
4370.7173844019116586
 20
442.0313902550342959
 30
0.0
 11
4370.7173844019116586
 21
452.1764988921249824
 31
0.0
  0
LINE
  5
16F72
  8
0
 10
4370.7173844019116586
 20
452.5021354041766131
 30
0.0
 11
4370.7173844019116586
 21
457.5317192778197182
 31
0.0
  0
ARC
  5
16F74
  8
0
 10
4360.2733966416490148
 20
457.171805759531594
 30
0.0
 40
5.7971951797165682
 50
183.1649782652505962
 51
262.3850227556034156
  0
ARC
  5
16F75
  8
0
 10
4354.7243453402934392
 20
456.8630710560306056
 30
0.0
 40
0.2395697284644632
 50
98.0662701275340538
 51
182.7120042936462028
  0
ARC
  5
16F76
  8
0
 10
4355.7789964755265828
 20
451.5089036962771729
 30
0.0
 40
5.6962890665550114
 50
90.4776832957834642
 51
101.0139766058427
  0
ARC
  5
16F77
  8
0
 10
4358.9599224308412886
 20
2689.5966315111490985
 30
0.0
 40
2232.3939711329658167
 50
269.9171406616807758
 51
270.0942269583835014
  0
ARC
  5
16F78
  8
0
 10
4363.0966526102192802
 20
547.3066248799643745
 30
0.0
 40
90.1021475946410675
 50
269.7040503409162966
 51
274.5129075888858097
  0
LINE
  5
16F79
  8
0
 10
4370.1862210865119778
 20
457.4838269944249873
 30
0.0
 11
4370.2500276265118373
 21
457.5918072927249796
 31
0.0
  0
ARC
  5
16F7A
  8
0
 10
4370.3517072810545869
 20
457.531725540392415
 30
0.0
 40
0.118104060519787
 50
89.9977983083328041
 51
149.4214747549939943
  0
ARC
  5
16F7B
  8
0
 10
4370.5992054754760829
 20
457.5316506744400726
 30
0.0
 40
0.1181789463476051
 50
0.033260447445463
 51
89.9666974455420672
  0
ARC
  5
16F7C
  8
0
 10
4359.5455340298740339
 20
451.6586205854594027
 30
0.0
 40
0.2363548247347771
 50
260.1690705630293792
 51
269.9998993344382825
  0
ARC
  5
16F7D
  8
0
 10
4344.1900587134978196
 20
1791.4928794661689153
 30
0.0
 40
1340.1585877523309591
 50
270.6565067479425011
 51
270.680986690956388
  0
ARC
  5
16F7E
  8
0
 10
4364.5489092102734503
 20
196.0631184621952059
 30
0.0
 40
255.4042668035365864
 50
89.8735087056296322
 51
90.9940330012793055
  0
ARC
  5
16F7F
  8
0
 10
4365.1118762571122716
 20
451.702981787134604
 30
0.0
 40
0.236220588647804
 50
270.2148600871158806
 51
354.0205925713689794
  0
LINE
  5
16F80
  8
0
 10
4365.3818699335206475
 20
452.0130857321199187
 30
0.0
 11
4365.3468116639105574
 21
451.6783744481251119
 31
0.0
  0
ARC
  5
16F81
  8
0
 10
4365.6862252951877963
 20
451.1103858731008813
 30
0.0
 40
0.952627535634013
 50
91.5141961840276537
 51
117.8814942640346004
  0
LINE
  5
16F82
  8
0
 10
4365.2407344143875889
 20
451.9524292786167052
 30
0.0
 11
4365.3468116639105574
 21
451.6783744481251119
 31
0.0
  0
ARC
  5
16F83
  8
0
 10
4377.5285878867498468
 20
307.5836540622237862
 30
0.0
 40
144.9656081709063074
 50
92.7381315649567881
 51
94.6957446871703041
  0
ARC
  5
16F84
  8
0
 10
4370.5988958103971527
 20
452.502158309631227
 30
0.0
 40
0.1184885937290919
 50
272.1802547820406062
 51
359.988923922577726
  0
LINE
  5
16F85
  8
0
 10
4370.7173844019116586
 20
452.1764988921249824
 30
0.0
 11
4367.1393253355963679
 21
452.1764988921249824
 31
0.0
  0
LINE
  5
16F86
  8
0
 10
4368.6552806530107773
 20
451.7827981047250887
 30
0.0
 11
4370.0846903243109409
 21
451.7827981047250887
 31
0.0
  0
LINE
  5
16F87
  8
0
 10
4370.2421466542118651
 20
451.6225693793250002
 30
0.0
 11
4370.2044169975124532
 21
449.4610387938250824
 31
0.0
  0
LINE
  5
16F88
  8
0
 10
4367.8040807779107126
 20
451.6308137735250057
 30
0.0
 11
4367.8244152496708921
 21
452.1764988921249824
 31
0.0
  0
ARC
  5
16F89
  8
0
 10
4369.0495885894570165
 20
447.1148491602328932
 30
0.0
 40
4.6845732033056988
 50
94.8283892836439861
 51
105.4189127258702001
  0
ARC
  5
16F8A
  8
0
 10
4370.0846903243727866
 20
451.6253177898694275
 30
0.0
 40
0.1574803148556665
 50
358.9999999695772885
 51
90.0000000220426273
  0
ARC
  5
16F8B
  8
0
 10
4365.5638904069210184
 20
449.9087925859676034
 30
0.0
 40
4.6620779161608299
 50
343.83203433141
 51
354.4887221946120803
  0
LINE
  5
16F8C
  8
0
 10
4370.0415809073119817
 20
448.6106176058249844
 30
0.0
 11
4370.7173844019116586
 21
448.6370232350250831
 31
0.0
  0
LINE
  5
16F8D
  8
0
 10
4370.5992741657109946
 20
452.5499147083249909
 30
0.0
 11
4370.5992741657109946
 21
452.5125066895250825
 31
0.0
  0
ARC
  5
16F8E
  8
0
 10
4370.5999454069933563
 20
452.5200169992327233
 30
0.0
 40
0.0299052432497428
 50
75.6015736382937007
 51
91.2861464532114155
  0
ARC
  5
16F8F
  8
0
 10
4370.6650462317056736
 20
452.9824182726546837
 30
0.0
 40
0.4372543875891697
 50
262.4218380931739034
 51
264.0854691711576834
  0
LINE
  5
16F90
  8
0
 10
4370.6199894404107908
 20
452.5474915144250758
 30
0.0
 11
4370.6664410478133505
 21
452.5423792507186249
 31
0.0
  0
ARC
  5
16F91
  8
0
 10
4370.6730757482628178
 20
452.5862266970102041
 30
0.0
 40
0.0443465646512714
 50
261.3956595679700854
 51
357.6306936319012948
  0
ARC
  5
16F92
  8
0
 10
4370.476724603785442
 20
452.5008596171919066
 30
0.0
 40
0.1231017848066582
 50
274.0364093966480823
 51
5.429066200218104
  0
LINE
  5
16F93
  8
0
 10
4360.3084954583873696
 20
451.4321815702094227
 30
0.0
 11
4360.5689874868121478
 21
443.9729051154250783
 31
0.0
  0
ARC
  5
16F94
  8
0
 10
4370.9221088114118174
 20
486.8333099157230777
 30
0.0
 40
44.971771653498088
 50
257.9087120108018212
 51
266.1750433211244058
  0
ARC
  5
16F95
  8
0
 10
4368.0200826507216334
 20
430.4429012059724187
 30
0.0
 40
11.5192280473512003
 50
83.6203088152804241
 51
90.4873204307872356
  0
ARC
  5
16F96
  8
0
 10
4370.9237175175649099
 20
486.9023016686259098
 30
0.0
 40
45.0407815356668735
 50
267.9341205386107276
 51
268.9076186621214219
  0
LINE
  5
16F97
  8
0
 10
4370.0650377183119417
 20
441.8697060256250211
 30
0.0
 11
4370.0668112743123856
 21
441.9713129760249899
 31
0.0
  0
ARC
  5
16F98
  8
0
 10
4370.4360809824802345
 20
440.9073240851640776
 30
0.0
 40
1.1262470764652179
 50
88.7050238340564619
 51
109.1399252621308023
  0
LINE
  5
16F99
  8
0
 10
4370.4615337988107058
 20
442.0332835122250117
 30
0.0
 11
4370.7173844019598619
 21
442.0313902550340117
 31
0.0
  0
ARC
  5
16F9A
  8
0
 10
4361.7459671302603965
 20
444.0112622407073104
 30
0.0
 40
1.177604496489314
 50
181.8665776091484076
 51
258.0371827500209179
  0
LINE
  5
16F9B
  8
0
 10
4370.3517118194122304
 20
457.6498296008250009
 30
0.0
 11
4370.5992741657109946
 21
457.6498296008250009
 31
0.0
  0
ENDSEC
  0
EOF
