  0
SECTION
  2
HEADER
  9
$ACADVER
  1
AC1009
  9
$INSBASE
 10
5847.6627835964964106
 20
282.7258809690953854
 30
0.0
  9
$EXTMIN
 10
5840.2989214216868277
 20
282.7158176047880147
 30
-0.0000000000000058
  9
$EXTMAX
 10
5849.2238495246383536
 20
294.2556049070763038
 30
0.0000000000000104
  9
$LIMMIN
 10
0.0
 20
0.0
  9
$LIMMAX
 10
11.6929133858000007
 20
8.2677165353999982
  9
$ORTHOMODE
 70
     0
  9
$REGENMODE
 70
     1
  9
$FILLMODE
 70
     1
  9
$QTEXTMODE
 70
     0
  9
$MIRRTEXT
 70
     0
  9
$DRAGMODE
 70
     2
  9
$LTSCALE
 40
0.6431102362
  9
$OSMODE
 70
  4095
  9
$ATTMODE
 70
     1
  9
$TEXTSIZE
 40
0.2
  9
$TRACEWID
 40
0.05
  9
$TEXTSTYLE
  7
STANDARD
  9
$CLAYER
  8
0
  9
$CELTYPE
  6
BYLAYER
  9
$CECOLOR
 62
   256
  9
$DIMSCALE
 40
1.0
  9
$DIMASZ
 40
0.1875
  9
$DIMEXO
 40
0.0625
  9
$DIMDLI
 40
0.4443307087
  9
$DIMRND
 40
0.0
  9
$DIMDLE
 40
0.0
  9
$DIMEXE
 40
0.125
  9
$DIMTP
 40
0.01
  9
$DIMTM
 40
0.01
  9
$DIMTXT
 40
2.0
  9
$DIMCEN
 40
0.1052362205
  9
$DIMTSZ
 40
0.0
  9
$DIMTOL
 70
     1
  9
$DIMLIM
 70
     0
  9
$DIMTIH
 70
     1
  9
$DIMTOH
 70
     1
  9
$DIMSE1
 70
     0
  9
$DIMSE2
 70
     0
  9
$DIMTAD
 70
     0
  9
$DIMZIN
 70
     0
  9
$DIMBLK
  1

  9
$DIMASO
 70
     1
  9
$DIMSHO
 70
     1
  9
$DIMPOST
  1
\X
  9
$DIMAPOST
  1

  9
$DIMALT
 70
     1
  9
$DIMALTD
 70
     2
  9
$DIMALTF
 40
25.3999999999999986
  9
$DIMLFAC
 40
1.0
  9
$DIMTOFL
 70
     0
  9
$DIMTVP
 40
0.0
  9
$DIMTIX
 70
     0
  9
$DIMSOXD
 70
     0
  9
$DIMSAH
 70
     0
  9
$DIMBLK1
  1

  9
$DIMBLK2
  1

  9
$DIMSTYLE
  2
STANDARD
  9
$DIMCLRD
 70
     0
  9
$DIMCLRE
 70
     0
  9
$DIMCLRT
 70
     0
  9
$DIMTFAC
 40
1.0
  9
$DIMGAP
 40
0.09
  9
$LUNITS
 70
     2
  9
$LUPREC
 70
     4
  9
$SKETCHINC
 40
0.1
  9
$FILLETRAD
 40
0.0
  9
$AUNITS
 70
     0
  9
$AUPREC
 70
     0
  9
$MENU
  1
.
  9
$ELEVATION
 40
0.0
  9
$PELEVATION
 40
0.0
  9
$THICKNESS
 40
0.0
  9
$LIMCHECK
 70
     0
  9
$BLIPMODE
 70
     0
  9
$CHAMFERA
 40
0.0
  9
$CHAMFERB
 40
0.0
  9
$SKPOLY
 70
     0
  9
$TDCREATE
 40
2458060.468368056230247
  9
$TDUPDATE
 40
2460214.7516782409511507
  9
$TDINDWG
 40
0.7187454861
  9
$TDUSRTIMER
 40
0.7187454861
  9
$USRTIMER
 70
     1
  9
$ANGBASE
 50
0.0
  9
$ANGDIR
 70
     0
  9
$PDMODE
 70
     0
  9
$PDSIZE
 40
0.3125
  9
$PLINEWID
 40
0.0
  9
$COORDS
 70
     1
  9
$SPLFRAME
 70
     0
  9
$SPLINETYPE
 70
     6
  9
$SPLINESEGS
 70
     8
  9
$ATTDIA
 70
     1
  9
$ATTREQ
 70
     1
  9
$HANDLING
 70
     1
  9
$HANDSEED
  5
2C512
  9
$SURFTAB1
 70
     6
  9
$SURFTAB2
 70
     6
  9
$SURFTYPE
 70
     6
  9
$SURFU
 70
     6
  9
$SURFV
 70
     6
  9
$UCSNAME
  2

  9
$UCSORG
 10
0.0
 20
0.0
 30
0.0
  9
$UCSXDIR
 10
1.0
 20
0.0
 30
0.0
  9
$UCSYDIR
 10
0.0
 20
1.0
 30
0.0
  9
$PUCSNAME
  2

  9
$PUCSORG
 10
0.0
 20
0.0
 30
0.0
  9
$PUCSXDIR
 10
1.0
 20
0.0
 30
0.0
  9
$PUCSYDIR
 10
0.0
 20
1.0
 30
0.0
  9
$USERI1
 70
     0
  9
$USERI2
 70
     0
  9
$USERI3
 70
     0
  9
$USERI4
 70
     0
  9
$USERI5
 70
     0
  9
$USERR1
 40
0.0
  9
$USERR2
 40
0.0
  9
$USERR3
 40
0.0
  9
$USERR4
 40
0.0
  9
$USERR5
 40
0.0
  9
$WORLDVIEW
 70
     1
  9
$SHADEDGE
 70
     3
  9
$SHADEDIF
 70
    70
  9
$TILEMODE
 70
     1
  9
$MAXACTVP
 70
    64
  9
$PLIMCHECK
 70
     0
  9
$PEXTMIN
 10
1.0000000000000000E+20
 20
1.0000000000000000E+20
 30
1.0000000000000000E+20
  9
$PEXTMAX
 10
-1.0000000000000000E+20
 20
-1.0000000000000000E+20
 30
-1.0000000000000000E+20
  9
$PLIMMIN
 10
0.0
 20
0.0
  9
$PLIMMAX
 10
12.0
 20
9.0
  9
$UNITMODE
 70
     0
  9
$VISRETAIN
 70
     1
  9
$PLINEGEN
 70
     0
  9
$PSLTSCALE
 70
     1
  0
ENDSEC
  0
SECTION
  2
TABLES
  0
TABLE
  2
VPORT
 70
     1
  0
VPORT
  2
*ACTIVE
 70
     0
 10
0.0
 20
0.0
 11
1.0
 21
1.0
 12
1933.3960290278500906
 22
155.9061061533930967
 13
0.0
 23
0.0
 14
1.0
 24
1.0
 15
0.0
 25
0.0
 16
0.0
 26
0.0
 36
60.4960186965801583
 17
3911.3653564453120453
 27
132.5796051025390057
 37
0.0
 40
11.6432831525329394
 41
2.8368263473053892
 42
50.0
 43
0.0
 44
0.0
 50
0.0
 51
0.0
 71
     0
 72
   100
 73
     1
 74
     1
 75
     0
 76
     0
 77
     0
 78
     0
  0
ENDTAB
  0
TABLE
  2
LTYPE
 70
     2
  0
LTYPE
  2
CONTINUOUS
 70
     0
  3
Solid line
 72
    65
 73
     0
 40
0.0
  0
LTYPE
  2
PHANTOM2
 70
     0
  3
___ _ _ ___ _ _ ___ _ _ ___ _ _
 72
    65
 73
     6
 40
1.25
 49
0.625
 49
-0.125
 49
0.125
 49
-0.125
 49
0.125
 49
-0.125
  0
ENDTAB
  0
TABLE
  2
LAYER
 70
     2
  0
LAYER
  2
0
 70
     0
 62
   255
  6
CONTINUOUS
  0
LAYER
  2
DEFPOINTS
 70
     0
 62
     7
  6
CONTINUOUS
  0
ENDTAB
  0
TABLE
  2
STYLE
 70
     1
  0
STYLE
  2
STANDARD
 70
     0
 40
0.0
 41
0.8
 50
0.0
 71
     0
 42
0.2
  3
txt
  4

  0
ENDTAB
  0
TABLE
  2
VIEW
 70
     0
  0
ENDTAB
  0
TABLE
  2
UCS
 70
     0
  0
ENDTAB
  0
TABLE
  2
APPID
 70
    11
  0
APPID
  2
ACAD
 70
     0
  0
APPID
  2
ACAD_MLEADERVER
 70
     0
  0
APPID
  2
ACAD_EXEMPT_FROM_CAD_STANDARDS
 70
     0
  0
APPID
  2
ACAD_NAV_VCDISPLAY
 70
     0
  0
APPID
  2
ACAECLAYERSTANDARD
 70
     0
  0
APPID
  2
ACCMTRANSPARENCY
 70
     0
  0
APPID
  2
ACAD_DSTYLE_DIMJAG
 70
     0
  0
APPID
  2
ACAD_DSTYLE_DIMTALN
 70
     0
  0
APPID
  2
ACDBATTR
 70
     0
  0
APPID
  2
ACADANNOTATIVE
 70
     0
  0
APPID
  2
DCO15
 70
     0
  0
ENDTAB
  0
TABLE
  2
DIMSTYLE
 70
     1
  0
DIMSTYLE
  2
STANDARD
 70
     0
  3

  4

  5

  6

  7

 40
1.0
 41
0.1875
 42
0.0625
 43
0.38
 44
0.125
 45
0.0
 46
0.0
 47
0.01
 48
0.01
140
0.15625
141
0.09
142
0.0
143
25.3999999999999986
144
1.0
145
0.0
146
1.0
147
0.09
 71
     1
 72
     0
 73
     1
 74
     1
 75
     0
 76
     0
 77
     0
 78
     4
170
     0
171
     2
172
     0
173
     0
174
     0
175
     0
176
     0
177
     0
178
     0
  0
ENDTAB
  0
ENDSEC
  0
SECTION
  2
BLOCKS
  0
BLOCK
  8
0
  2
$MODEL_SPACE
 70
     0
 10
0.0
 20
0.0
 30
0.0
  3
$MODEL_SPACE
  1

  0
ENDBLK
  5
21
  8
0
  0
BLOCK
 67
     1
  8
0
  2
$PAPER_SPACE
 70
     0
 10
0.0
 20
0.0
 30
0.0
  3
$PAPER_SPACE
  1

  0
ENDBLK
  5
1D
 67
     1
  8
0
  0
BLOCK
  8
0
  2
_FILLED
 70
     0
 10
0.0
 20
0.0
 30
0.0
  3
_FILLED
  1

  0
SOLID
  5
26C2A
  8
0
  6
BYBLOCK
 62
     0
 10
0.0
 20
0.0
 30
0.0
 11
-1.0
 21
0.1666666667
 31
0.0
 12
-1.0
 22
-0.1666666667
 32
0.0
 13
-1.0
 23
-0.1666666667
 33
0.0
  0
ENDBLK
  5
26C2B
  8
0
  6
BYBLOCK
 62
     0
  0
ENDSEC
  0
SECTION
  2
ENTITIES
  0
ATTDEF
  5
26A5B
  8
DEFPOINTS
 10
5847.6517593881799257
 20
282.7240819307393735
 30
0.0
 40
0.001
  1
K-954T-4
  3

  2
MODELNUMBER
 70
     0
1001
ACDBATTR
1070
     0
1070
     1
  0
ATTDEF
  5
26A5C
  8
DEFPOINTS
 10
5847.6516335785217962
 20
282.7224150903603004
 30
0.0
 40
0.001
  1
STILLNESS
  3

  2
TRADENAME
 70
     0
1001
ACDBATTR
1070
     0
1070
     1
  0
ATTDEF
  5
26A5D
  8
DEFPOINTS
 10
5847.6517593881799257
 20
282.7207485974059864
 30
0.0
 40
0.001
  1
BATHROOM SINK FAUCET
  3

  2
PRODUCT
 70
     0
1001
ACDBATTR
1070
     0
1070
     1
  0
LINE
  5
2BF8A
  8
0
 10
5846.2877835964973201
 20
282.7258809690953854
 30
0.0
 11
5849.0377835964973201
 21
282.7258809690953854
 31
0.0
  0
LINE
  5
2BF8B
  8
0
 10
5846.2877835964973201
 20
282.7258809690953854
 30
0.0
 11
5846.2877835964973201
 21
283.4358809690954217
 31
0.0
  0
LINE
  5
2BF8C
  8
0
 10
5846.2877835964973201
 20
283.4358809690954217
 30
0.0
 11
5846.8742835964967526
 21
283.4358809690954217
 31
0.0
  0
LINE
  5
2BF8D
  8
0
 10
5846.2877835964973201
 20
283.0358809690955013
 30
0.0
 11
5849.0377835964973201
 21
283.0358809690955013
 31
0.0
  0
LINE
  5
2BF8E
  8
0
 10
5846.8742835964967526
 20
283.0758809690954081
 30
0.0
 11
5846.8742835964967526
 21
285.645880969095515
 31
0.0
  0
LINE
  5
2BF8F
  8
0
 10
5846.8742835964967526
 20
285.6855660084954138
 30
0.0
 11
5846.8742835964967526
 21
286.2155660084955002
 31
0.0
  0
ARC
  5
2BF90
  8
0
 10
5846.8342835964958795
 20
283.0758809690954081
 30
0.0
 40
0.04
 50
270.0
 51
0.0000000000032569
  0
LINE
  5
2BF91
  8
0
 10
5846.8655395019968637
 20
285.645880969095515
 30
0.0
 11
5848.460027690996867
 21
285.645880969095515
 31
0.0
  0
LINE
  5
2BF92
  8
0
 10
5846.8655395019968637
 20
285.6655660084953752
 30
0.0
 11
5848.460027690996867
 21
285.6655660084957162
 31
0.0
  0
LINE
  5
2BF93
  8
0
 10
5846.8655395019968637
 20
285.6655660084953752
 30
0.0
 11
5846.8655395019968637
 21
285.645880969095515
 31
0.0
  0
ARC
  5
2BF94
  8
0
 10
5846.8942835964971891
 20
285.6855660084954138
 30
0.0
 40
0.02
 50
179.9999999999967031
 51
270.0
  0
LINE
  5
2BF95
  8
0
 10
5846.8942835964971891
 20
286.2355660084954252
 30
0.0
 11
5848.4312835964974511
 21
286.2355660084954252
 31
0.0
  0
ARC
  5
2BF96
  8
0
 10
5846.8942835964971891
 20
286.2155660084955002
 30
0.0
 40
0.02
 50
90.0
 51
179.9999999999934914
  0
LINE
  5
2BF97
  8
0
 10
5847.5717835964969709
 20
286.2155660084955002
 30
0.0
 11
5847.5717835964969709
 21
285.6855660084955275
 31
0.0
  0
ARC
  5
2BF98
  8
0
 10
5847.5917835964955884
 20
286.2155660084955002
 30
0.0
 40
0.02
 50
90.0
 51
179.9999999999934914
  0
ARC
  5
2BF99
  8
0
 10
5847.5917835964955884
 20
285.6855660084955275
 30
0.0
 40
0.02
 50
180.0
 51
270.0
  0
LINE
  5
2BF9A
  8
0
 10
5847.0377835964973201
 20
286.2355660084954252
 30
0.0
 11
5847.0377835964973201
 21
291.2426324112307157
 31
0.0
  0
LINE
  5
2BF9B
  8
0
 10
5849.0377835964973201
 20
282.7258809690953854
 30
0.0
 11
5849.0377835964973201
 21
283.4358809690954217
 31
0.0
  0
LINE
  5
2BF9C
  8
0
 10
5849.0377835964973201
 20
283.4358809690954217
 30
0.0
 11
5848.4512835964969781
 21
283.4358809690954217
 31
0.0
  0
LINE
  5
2BF9D
  8
0
 10
5848.4512835964969781
 20
283.0758809690954081
 30
0.0
 11
5848.4512835964969781
 21
285.645880969095515
 31
0.0
  0
LINE
  5
2BF9E
  8
0
 10
5848.4512835964969781
 20
285.6855660084954138
 30
0.0
 11
5848.4512835964969781
 21
286.2155660084955002
 31
0.0
  0
ARC
  5
2BF9F
  8
0
 10
5848.4912835964969418
 20
283.0758809690954081
 30
0.0
 40
0.04
 50
179.9999999999967031
 51
270.0
  0
LINE
  5
2BFA0
  8
0
 10
5848.460027690996867
 20
285.6655660084953752
 30
0.0
 11
5848.460027690996867
 21
285.645880969095515
 31
0.0
  0
ARC
  5
2BFA1
  8
0
 10
5848.4312835964974511
 20
285.6855660084954138
 30
0.0
 40
0.02
 50
270.0
 51
0.0000000000032569
  0
ARC
  5
2BFA2
  8
0
 10
5848.4312835964974511
 20
286.2155660084955002
 30
0.0
 40
0.02
 50
0.0000000000065138
 51
90.0
  0
LINE
  5
2BFA3
  8
0
 10
5847.7537835964967599
 20
286.2155660084955002
 30
0.0
 11
5847.7537835964967599
 21
285.6855660084955275
 31
0.0
  0
ARC
  5
2BFA4
  8
0
 10
5847.7337835964963233
 20
286.2155660084955002
 30
0.0
 40
0.02
 50
0.0000000000065138
 51
90.0
  0
ARC
  5
2BFA5
  8
0
 10
5847.7337835964963233
 20
285.6855660084955275
 30
0.0
 40
0.02
 50
270.0
 51
0.0
  0
LINE
  5
2BFA6
  8
0
 10
5848.2877835964973201
 20
286.2355660084954252
 30
0.0
 11
5848.2877835964973201
 21
291.2426324112641964
 31
0.0
  0
LINE
  5
2BFA7
  8
0
 10
5843.1579277190312496
 20
293.3674882887298736
 30
0.0
 11
5840.4385619157956171
 21
290.6481224854954917
 31
0.0
  0
LINE
  5
2BFA8
  8
0
 10
5844.0418111955414133
 20
292.4836048122393777
 30
0.0
 11
5841.3224453921811801
 21
289.7642390089953892
 31
0.0
  0
ARC
  5
2BFA9
  8
0
 10
5845.282783596497211
 20
291.2426324112307157
 30
0.0
 40
1.754999999999999
 50
0.0
 51
134.9999999987701926
  0
ARC
  5
2BFAA
  8
0
 10
5845.282783596497211
 20
291.2426324112641964
 30
0.0
 40
3.004999999999999
 50
0.0
 51
135.0000000000046043
  0
LINE
  5
2BFAB
  8
0
 10
5841.3012321887963481
 20
289.7642390089953892
 30
0.0
 11
5840.4385619157956171
 21
290.6269092819953812
 31
0.0
  0
LINE
  5
2BFAC
  8
0
 10
5840.4385619157956171
 20
290.6269092819953812
 30
0.0
 11
5840.4385619157956171
 21
290.6481224854954917
 31
0.0
  0
LINE
  5
2BFAD
  8
0
 10
5840.4385619157956171
 20
290.6481224854954917
 30
0.0
 11
5841.3224453922202883
 21
289.7642390090343838
 31
0.0
  0
LINE
  5
2BFAE
  8
0
 10
5841.3224453922593966
 20
289.7642390089953892
 30
0.0
 11
5841.3012321887963481
 21
289.7642390089953892
 31
0.0
  0
LINE
  5
2BFAF
  8
0
 10
5840.8032621376969473
 20
291.0128227073954008
 30
0.0
 11
5841.6871456140961527
 21
290.128939230895412
 31
0.0
  0
ENDSEC
  0
EOF
