  0
SECTION
  2
HEADER
  9
$ACADVER
  1
AC1009
  9
$INSBASE
 10
6147.5036129770151092
 20
180.4685092225612948
 30
0.0
  9
$EXTMIN
 10
6140.2867558745119823
 20
173.2407157865137037
 30
-0.0000000349181948
  9
$EXTMAX
 10
6154.3736369103316974
 20
181.8565504890786997
 30
0.0000000814935746
  9
$LIMMIN
 10
0.0
 20
0.0
  9
$LIMMAX
 10
11.6929133858000007
 20
8.2677165353999982
  9
$ORTHOMODE
 70
     0
  9
$REGENMODE
 70
     1
  9
$FILLMODE
 70
     1
  9
$QTEXTMODE
 70
     0
  9
$MIRRTEXT
 70
     0
  9
$DRAGMODE
 70
     2
  9
$LTSCALE
 40
0.6431102362
  9
$OSMODE
 70
  4095
  9
$ATTMODE
 70
     1
  9
$TEXTSIZE
 40
0.2
  9
$TRACEWID
 40
0.05
  9
$TEXTSTYLE
  7
STANDARD
  9
$CLAYER
  8
0
  9
$CELTYPE
  6
BYLAYER
  9
$CECOLOR
 62
   256
  9
$DIMSCALE
 40
1.0
  9
$DIMASZ
 40
0.1875
  9
$DIMEXO
 40
0.0625
  9
$DIMDLI
 40
0.4443307087
  9
$DIMRND
 40
0.0
  9
$DIMDLE
 40
0.0
  9
$DIMEXE
 40
0.125
  9
$DIMTP
 40
0.01
  9
$DIMTM
 40
0.01
  9
$DIMTXT
 40
2.0
  9
$DIMCEN
 40
0.1052362205
  9
$DIMTSZ
 40
0.0
  9
$DIMTOL
 70
     1
  9
$DIMLIM
 70
     0
  9
$DIMTIH
 70
     1
  9
$DIMTOH
 70
     1
  9
$DIMSE1
 70
     0
  9
$DIMSE2
 70
     0
  9
$DIMTAD
 70
     0
  9
$DIMZIN
 70
     0
  9
$DIMBLK
  1

  9
$DIMASO
 70
     1
  9
$DIMSHO
 70
     1
  9
$DIMPOST
  1
\X
  9
$DIMAPOST
  1

  9
$DIMALT
 70
     1
  9
$DIMALTD
 70
     2
  9
$DIMALTF
 40
25.3999999999999986
  9
$DIMLFAC
 40
1.0
  9
$DIMTOFL
 70
     0
  9
$DIMTVP
 40
0.0
  9
$DIMTIX
 70
     0
  9
$DIMSOXD
 70
     0
  9
$DIMSAH
 70
     0
  9
$DIMBLK1
  1

  9
$DIMBLK2
  1

  9
$DIMSTYLE
  2
STANDARD
  9
$DIMCLRD
 70
     0
  9
$DIMCLRE
 70
     0
  9
$DIMCLRT
 70
     0
  9
$DIMTFAC
 40
1.0
  9
$DIMGAP
 40
0.09
  9
$LUNITS
 70
     2
  9
$LUPREC
 70
     4
  9
$SKETCHINC
 40
0.1
  9
$FILLETRAD
 40
0.0
  9
$AUNITS
 70
     0
  9
$AUPREC
 70
     0
  9
$MENU
  1
.
  9
$ELEVATION
 40
0.0
  9
$PELEVATION
 40
0.0
  9
$THICKNESS
 40
0.0
  9
$LIMCHECK
 70
     0
  9
$BLIPMODE
 70
     0
  9
$CHAMFERA
 40
0.0
  9
$CHAMFERB
 40
0.0
  9
$SKPOLY
 70
     0
  9
$TDCREATE
 40
2458060.468368056230247
  9
$TDUPDATE
 40
2460214.7513773147948086
  9
$TDINDWG
 40
0.7145672454000001
  9
$TDUSRTIMER
 40
0.7145672454000001
  9
$USRTIMER
 70
     1
  9
$ANGBASE
 50
0.0
  9
$ANGDIR
 70
     0
  9
$PDMODE
 70
     0
  9
$PDSIZE
 40
0.3125
  9
$PLINEWID
 40
0.0
  9
$COORDS
 70
     1
  9
$SPLFRAME
 70
     0
  9
$SPLINETYPE
 70
     6
  9
$SPLINESEGS
 70
     8
  9
$ATTDIA
 70
     1
  9
$ATTREQ
 70
     1
  9
$HANDLING
 70
     1
  9
$HANDSEED
  5
2AABD
  9
$SURFTAB1
 70
     6
  9
$SURFTAB2
 70
     6
  9
$SURFTYPE
 70
     6
  9
$SURFU
 70
     6
  9
$SURFV
 70
     6
  9
$UCSNAME
  2

  9
$UCSORG
 10
0.0
 20
0.0
 30
0.0
  9
$UCSXDIR
 10
1.0
 20
0.0
 30
0.0
  9
$UCSYDIR
 10
0.0
 20
1.0
 30
0.0
  9
$PUCSNAME
  2

  9
$PUCSORG
 10
0.0
 20
0.0
 30
0.0
  9
$PUCSXDIR
 10
1.0
 20
0.0
 30
0.0
  9
$PUCSYDIR
 10
0.0
 20
1.0
 30
0.0
  9
$USERI1
 70
     0
  9
$USERI2
 70
     0
  9
$USERI3
 70
     0
  9
$USERI4
 70
     0
  9
$USERI5
 70
     0
  9
$USERR1
 40
0.0
  9
$USERR2
 40
0.0
  9
$USERR3
 40
0.0
  9
$USERR4
 40
0.0
  9
$USERR5
 40
0.0
  9
$WORLDVIEW
 70
     1
  9
$SHADEDGE
 70
     3
  9
$SHADEDIF
 70
    70
  9
$TILEMODE
 70
     1
  9
$MAXACTVP
 70
    64
  9
$PLIMCHECK
 70
     0
  9
$PEXTMIN
 10
1.0000000000000000E+20
 20
1.0000000000000000E+20
 30
1.0000000000000000E+20
  9
$PEXTMAX
 10
-1.0000000000000000E+20
 20
-1.0000000000000000E+20
 30
-1.0000000000000000E+20
  9
$PLIMMIN
 10
0.0
 20
0.0
  9
$PLIMMAX
 10
12.0
 20
9.0
  9
$UNITMODE
 70
     0
  9
$VISRETAIN
 70
     1
  9
$PLINEGEN
 70
     0
  9
$PSLTSCALE
 70
     1
  0
ENDSEC
  0
SECTION
  2
TABLES
  0
TABLE
  2
VPORT
 70
     1
  0
VPORT
  2
*ACTIVE
 70
     0
 10
0.0
 20
0.0
 11
1.0
 21
1.0
 12
2235.9648399471097946
 22
44.9690280352571605
 13
0.0
 23
0.0
 14
1.0
 24
1.0
 15
0.0
 25
0.0
 16
0.0
 26
0.0
 36
60.4960186965801583
 17
3911.3653564453120453
 27
132.5796051025390057
 37
0.0
 40
8.6931067626776297
 41
2.8368263473053892
 42
50.0
 43
0.0
 44
0.0
 50
0.0
 51
0.0
 71
     0
 72
   100
 73
     1
 74
     1
 75
     0
 76
     0
 77
     0
 78
     0
  0
ENDTAB
  0
TABLE
  2
LTYPE
 70
     2
  0
LTYPE
  2
CONTINUOUS
 70
     0
  3
Solid line
 72
    65
 73
     0
 40
0.0
  0
LTYPE
  2
PHANTOM2
 70
     0
  3
___ _ _ ___ _ _ ___ _ _ ___ _ _
 72
    65
 73
     6
 40
1.25
 49
0.625
 49
-0.125
 49
0.125
 49
-0.125
 49
0.125
 49
-0.125
  0
ENDTAB
  0
TABLE
  2
LAYER
 70
     2
  0
LAYER
  2
0
 70
     0
 62
   255
  6
CONTINUOUS
  0
LAYER
  2
DEFPOINTS
 70
     0
 62
     7
  6
CONTINUOUS
  0
ENDTAB
  0
TABLE
  2
STYLE
 70
     1
  0
STYLE
  2
STANDARD
 70
     0
 40
0.0
 41
0.8
 50
0.0
 71
     0
 42
0.2
  3
txt
  4

  0
ENDTAB
  0
TABLE
  2
VIEW
 70
     0
  0
ENDTAB
  0
TABLE
  2
UCS
 70
     0
  0
ENDTAB
  0
TABLE
  2
APPID
 70
    11
  0
APPID
  2
ACAD
 70
     0
  0
APPID
  2
ACAD_MLEADERVER
 70
     0
  0
APPID
  2
ACAD_EXEMPT_FROM_CAD_STANDARDS
 70
     0
  0
APPID
  2
ACAD_NAV_VCDISPLAY
 70
     0
  0
APPID
  2
ACAECLAYERSTANDARD
 70
     0
  0
APPID
  2
ACCMTRANSPARENCY
 70
     0
  0
APPID
  2
ACAD_DSTYLE_DIMJAG
 70
     0
  0
APPID
  2
ACAD_DSTYLE_DIMTALN
 70
     0
  0
APPID
  2
ACDBATTR
 70
     0
  0
APPID
  2
ACADANNOTATIVE
 70
     0
  0
APPID
  2
DCO15
 70
     0
  0
ENDTAB
  0
TABLE
  2
DIMSTYLE
 70
     1
  0
DIMSTYLE
  2
STANDARD
 70
     0
  3

  4

  5

  6

  7

 40
1.0
 41
0.1875
 42
0.0625
 43
0.38
 44
0.125
 45
0.0
 46
0.0
 47
0.01
 48
0.01
140
0.15625
141
0.09
142
0.0
143
25.3999999999999986
144
1.0
145
0.0
146
1.0
147
0.09
 71
     1
 72
     0
 73
     1
 74
     1
 75
     0
 76
     0
 77
     0
 78
     4
170
     0
171
     2
172
     0
173
     0
174
     0
175
     0
176
     0
177
     0
178
     0
  0
ENDTAB
  0
ENDSEC
  0
SECTION
  2
BLOCKS
  0
BLOCK
  8
0
  2
$MODEL_SPACE
 70
     0
 10
0.0
 20
0.0
 30
0.0
  3
$MODEL_SPACE
  1

  0
ENDBLK
  5
21
  8
0
  0
BLOCK
 67
     1
  8
0
  2
$PAPER_SPACE
 70
     0
 10
0.0
 20
0.0
 30
0.0
  3
$PAPER_SPACE
  1

  0
ENDBLK
  5
1D
 67
     1
  8
0
  0
BLOCK
  8
0
  2
_FILLED
 70
     0
 10
0.0
 20
0.0
 30
0.0
  3
_FILLED
  1

  0
SOLID
  5
257AF
  8
0
  6
BYBLOCK
 62
     0
 10
0.0
 20
0.0
 30
0.0
 11
-1.0
 21
0.1666666667
 31
0.0
 12
-1.0
 22
-0.1666666667
 32
0.0
 13
-1.0
 23
-0.1666666667
 33
0.0
  0
ENDBLK
  5
257B0
  8
0
  6
BYBLOCK
 62
     0
  0
ENDSEC
  0
SECTION
  2
ENTITIES
  0
ATTDEF
  5
256E4
  8
DEFPOINTS
 10
6147.4939084555653608
 20
180.4732022404429017
 30
0.0
 40
0.001
  1
K-954T-4
  3

  2
MODELNUMBER
 70
     0
1001
ACDBATTR
1070
     0
1070
     1
  0
ATTDEF
  5
256E5
  8
DEFPOINTS
 10
6147.4937826459081407
 20
180.4715354000638001
 30
0.0
 40
0.001
  1
STILLNESS
  3

  2
TRADENAME
 70
     0
1001
ACDBATTR
1070
     0
1070
     1
  0
ATTDEF
  5
256E6
  8
DEFPOINTS
 10
6147.4939084555653608
 20
180.4698689071095998
 30
0.0
 40
0.001
  1
BATHROOM SINK FAUCET
  3

  2
PRODUCT
 70
     0
1001
ACDBATTR
1070
     0
1070
     1
  0
LINE
  5
2A570
  8
0
 10
6140.6576129770137413
 20
180.3975092225612968
 30
0.0
 11
6140.6576129770137413
 21
180.5395092225612927
 31
0.0
  0
LINE
  5
2A571
  8
0
 10
6146.8786129770141997
 20
174.0461697933342009
 30
0.0
 11
6146.8786129770141997
 21
180.4685092225612948
 31
0.0
  0
LINE
  5
2A572
  8
0
 10
6140.6776129770150874
 20
180.559509222561303
 30
0.0
 11
6142.6726571398594388
 21
180.559509222561303
 31
0.0
  0
LINE
  5
2A573
  8
0
 10
6140.6776129770150874
 20
180.3775092225612866
 30
0.0
 11
6142.6726571398594388
 21
180.3775092225612866
 31
0.0
  0
ARC
  5
2A574
  8
0
 10
6140.6776129770150874
 20
180.5395092225612927
 30
0.0
 40
0.02
 50
90.0
 51
179.9999999999901945
  0
ARC
  5
2A575
  8
0
 10
6140.6776129770150874
 20
180.3975092225612968
 30
0.0
 40
0.02
 50
180.0
 51
270.0
  0
ARC
  5
2A576
  8
0
 10
6143.5076129770150146
 20
180.4685092225612948
 30
0.0
 40
0.7885000000000002
 50
190.2510225704417053
 51
169.7489774295582947
  0
ARC
  5
2A577
  8
0
 10
6143.5076129770150146
 20
180.4685092225612948
 30
0.0
 40
0.7972440944999999
 50
188.0780910575707878
 51
171.9219089424306901
  0
ARC
  5
2A578
  8
0
 10
6142.6726571398594388
 20
180.6195092225613053
 30
0.0
 40
0.06
 50
270.0
 51
349.7489774295597726
  0
ARC
  5
2A579
  8
0
 10
6142.6726571398594388
 20
180.3175092225613128
 30
0.0
 40
0.06
 50
10.2510225704497504
 51
90.0
  0
ARC
  5
2A57A
  8
0
 10
6143.5076129770150146
 20
180.4685092225612948
 30
0.0
 40
1.3749999999999989
 50
183.7947124688878091
 51
176.2052875311121909
  0
ARC
  5
2A57B
  8
0
 10
6147.5036129770151092
 20
180.4685092225612948
 30
0.0
 40
1.375
 50
297.0356917894429216
 51
242.9643082105571068
  0
ARC
  5
2A57C
  8
0
 10
6147.5036129770151092
 20
180.4685092225612948
 30
0.0
 40
0.6250000000005782
 50
0.0
 51
180.0
  0
ARC
  5
2A57D
  8
0
 10
6147.273278913622562
 20
173.7114696260439075
 30
0.0
 40
0.3948617122147466
 50
189.3050280200008046
 51
229.3054015330147024
  0
ARC
  5
2A57E
  8
0
 10
6147.4344137611351471
 20
173.8929302980627085
 30
0.0
 40
0.637520345447861
 50
228.9589825324383128
 51
253.0579745864309018
  0
ARC
  5
2A57F
  8
0
 10
6147.5956126251057867
 20
174.7063932483773954
 30
0.0
 40
1.4649972806376961
 50
256.2996959836797259
 51
266.3995412073542184
  0
ARC
  5
2A580
  8
0
 10
6147.733947040406747
 20
173.7114696260439075
 30
0.0
 40
0.3948617122147466
 50
310.6945984669841891
 51
350.6949719799991954
  0
ARC
  5
2A581
  8
0
 10
6147.5728121928950713
 20
173.8929302980627085
 30
0.0
 40
0.637520345447861
 50
286.9420254135691266
 51
311.0410174675616872
  0
ARC
  5
2A582
  8
0
 10
6147.4116133289244317
 20
174.7063932483773954
 30
0.0
 40
1.4649972806376961
 50
273.6004587926457816
 51
283.7003040163202741
  0
ARC
  5
2A583
  8
0
 10
6147.2014115833599135
 20
174.052096591417893
 30
0.0
 40
0.322853011746484
 50
181.0518706032769103
 51
198.8182220116854069
  0
ARC
  5
2A584
  8
0
 10
6147.2340061019967834
 20
174.0632042394325083
 30
0.0
 40
0.3572882043495219
 50
198.8182220116854069
 51
210.3111129338373928
  0
ARC
  5
2A585
  8
0
 10
6147.2895815932843107
 20
174.0956943961170964
 30
0.0
 40
0.4216640190105894
 50
210.3111129338373928
 51
226.7585253281905011
  0
ARC
  5
2A586
  8
0
 10
6147.4046311193296788
 20
174.2180321136044086
 30
0.0
 40
0.5896012411011941
 50
226.7585253281905011
 51
247.2189392424980099
  0
ARC
  5
2A587
  8
0
 10
6147.5017876080546557
 20
174.4493722972561045
 30
0.0
 40
0.8405148993050824
 50
247.2189392424980099
 51
261.8486289773533144
  0
ARC
  5
2A588
  8
0
 10
6147.5034000172227024
 20
174.4856105398046111
 30
0.0
 40
0.8766228019080637
 50
262.0801374187312831
 51
270.0139189824706136
  0
LINE
  5
2A589
  8
0
 10
6146.8836129770143089
 20
173.6476242689662115
 30
0.0
 11
6146.8836129770143089
 21
173.9951921715613139
 31
0.0
  0
LINE
  5
2A58A
  8
0
 10
6148.1286129770151092
 20
174.0461697933342009
 30
0.0
 11
6148.1286129770151092
 21
180.4685092225612948
 31
0.0
  0
ARC
  5
2A58B
  8
0
 10
6147.8058143706703049
 20
174.052096591417893
 30
0.0
 40
0.322853011746484
 50
341.1817779883130015
 51
358.9481293967231181
  0
ARC
  5
2A58C
  8
0
 10
6147.773219852033435
 20
174.0632042394325083
 30
0.0
 40
0.3572882043495219
 50
329.6888870661625788
 51
341.1817779883130015
  0
ARC
  5
2A58D
  8
0
 10
6147.7176443607459078
 20
174.0956943961170964
 30
0.0
 40
0.4216640190105894
 50
313.2414746718094989
 51
329.6888870661625788
  0
ARC
  5
2A58E
  8
0
 10
6147.6025948346978112
 20
174.2180321136044086
 30
0.0
 40
0.5896012411011941
 50
292.7810607575020185
 51
313.2414746718094989
  0
ARC
  5
2A58F
  8
0
 10
6147.5054383459746532
 20
174.4493722972561045
 30
0.0
 40
0.8405148993050824
 50
278.1513710226466856
 51
292.7810607575020185
  0
ARC
  5
2A590
  8
0
 10
6147.5038259368066065
 20
174.4856105398046111
 30
0.0
 40
0.8766228019080637
 50
269.9860810175292727
 51
277.9198625812687169
  0
LINE
  5
2A591
  8
0
 10
6148.1236129770150001
 20
173.6476242689662115
 30
0.0
 11
6148.1236129770150001
 21
173.9951921715613139
 31
0.0
  0
LINE
  5
2A592
  8
0
 10
6154.3496129770137486
 20
180.3975092225612968
 30
0.0
 11
6154.3496129770137486
 21
180.5395092225612927
 31
0.0
  0
LINE
  5
2A593
  8
0
 10
6154.329612977015131
 20
180.559509222561303
 30
0.0
 11
6152.3345688141698702
 21
180.559509222561303
 31
0.0
  0
LINE
  5
2A594
  8
0
 10
6154.329612977015131
 20
180.3775092225612866
 30
0.0
 11
6152.3345688141698702
 21
180.3775092225612866
 31
0.0
  0
ARC
  5
2A595
  8
0
 10
6154.329612977015131
 20
180.5395092225612927
 30
0.0
 40
0.02
 50
0.0000000000097707
 51
90.0
  0
ARC
  5
2A596
  8
0
 10
6154.329612977015131
 20
180.3975092225612968
 30
0.0
 40
0.02
 50
270.0
 51
0.0
  0
ARC
  5
2A597
  8
0
 10
6151.4996129770152038
 20
180.4685092225612948
 30
0.0
 40
0.7885000000000002
 50
10.2510225704417408
 51
349.7489774295582947
  0
ARC
  5
2A598
  8
0
 10
6151.4996129770152038
 20
180.4685092225612948
 30
0.0
 40
0.7972440944999999
 50
8.0780910575692726
 51
351.9219089424291269
  0
ARC
  5
2A599
  8
0
 10
6152.3345688141698702
 20
180.6195092225613053
 30
0.0
 40
0.06
 50
190.2510225704401137
 51
270.0
  0
ARC
  5
2A59A
  8
0
 10
6152.3345688141698702
 20
180.3175092225613128
 30
0.0
 40
0.06
 50
90.0
 51
169.7489774295501945
  0
ARC
  5
2A59B
  8
0
 10
6151.4996129770152038
 20
180.4685092225612948
 30
0.0
 40
1.3749999999999989
 50
3.7947124688878202
 51
356.2052875311122193
  0
ENDSEC
  0
EOF
