  0
SECTION
  2
HEADER
  9
$ACADVER
  1
AC1009
  9
$INSBASE
 10
1004.3364712986709719
 20
131.5856358343490058
 30
0.0
  9
$EXTMIN
 10
998.1853167762260455
 20
129.5975985702810931
 30
-0.0000000349181948
  9
$EXTMAX
 10
1010.4715346567089682
 20
132.587421942342587
 30
0.0000000814935746
  9
$LIMMIN
 10
0.0
 20
0.0
  9
$LIMMAX
 10
11.6929133858000007
 20
8.2677165353999982
  9
$ORTHOMODE
 70
     0
  9
$REGENMODE
 70
     1
  9
$FILLMODE
 70
     1
  9
$QTEXTMODE
 70
     0
  9
$MIRRTEXT
 70
     0
  9
$DRAGMODE
 70
     2
  9
$LTSCALE
 40
0.6431102362
  9
$OSMODE
 70
  2039
  9
$ATTMODE
 70
     1
  9
$TEXTSIZE
 40
0.2
  9
$TRACEWID
 40
0.05
  9
$TEXTSTYLE
  7
STANDARD
  9
$CLAYER
  8
0
  9
$CELTYPE
  6
BYLAYER
  9
$CECOLOR
 62
   256
  9
$DIMSCALE
 40
1.0
  9
$DIMASZ
 40
0.1875
  9
$DIMEXO
 40
0.0625
  9
$DIMDLI
 40
0.4443307087
  9
$DIMRND
 40
0.0
  9
$DIMDLE
 40
0.0
  9
$DIMEXE
 40
0.125
  9
$DIMTP
 40
0.01
  9
$DIMTM
 40
0.01
  9
$DIMTXT
 40
1.0
  9
$DIMCEN
 40
0.1052362205
  9
$DIMTSZ
 40
0.0
  9
$DIMTOL
 70
     1
  9
$DIMLIM
 70
     0
  9
$DIMTIH
 70
     0
  9
$DIMTOH
 70
     1
  9
$DIMSE1
 70
     0
  9
$DIMSE2
 70
     0
  9
$DIMTAD
 70
     0
  9
$DIMZIN
 70
     0
  9
$DIMBLK
  1

  9
$DIMASO
 70
     1
  9
$DIMSHO
 70
     1
  9
$DIMPOST
  1
\X
  9
$DIMAPOST
  1

  9
$DIMALT
 70
     1
  9
$DIMALTD
 70
     2
  9
$DIMALTF
 40
25.3999999999999986
  9
$DIMLFAC
 40
1.0
  9
$DIMTOFL
 70
     0
  9
$DIMTVP
 40
0.0
  9
$DIMTIX
 70
     0
  9
$DIMSOXD
 70
     0
  9
$DIMSAH
 70
     0
  9
$DIMBLK1
  1

  9
$DIMBLK2
  1

  9
$DIMSTYLE
  2
STANDARD
  9
$DIMCLRD
 70
     0
  9
$DIMCLRE
 70
     0
  9
$DIMCLRT
 70
     0
  9
$DIMTFAC
 40
1.0
  9
$DIMGAP
 40
0.09
  9
$LUNITS
 70
     2
  9
$LUPREC
 70
     4
  9
$SKETCHINC
 40
0.1
  9
$FILLETRAD
 40
0.0
  9
$AUNITS
 70
     0
  9
$AUPREC
 70
     0
  9
$MENU
  1
.
  9
$ELEVATION
 40
0.0
  9
$PELEVATION
 40
0.0
  9
$THICKNESS
 40
0.0
  9
$LIMCHECK
 70
     0
  9
$BLIPMODE
 70
     0
  9
$CHAMFERA
 40
0.0
  9
$CHAMFERB
 40
0.0
  9
$SKPOLY
 70
     0
  9
$TDCREATE
 40
2458172.5207638889551163
  9
$TDUPDATE
 40
2459328.7749884258955717
  9
$TDINDWG
 40
0.454132662
  9
$TDUSRTIMER
 40
0.454132662
  9
$USRTIMER
 70
     1
  9
$ANGBASE
 50
0.0
  9
$ANGDIR
 70
     0
  9
$PDMODE
 70
     0
  9
$PDSIZE
 40
0.3125
  9
$PLINEWID
 40
0.0
  9
$COORDS
 70
     1
  9
$SPLFRAME
 70
     0
  9
$SPLINETYPE
 70
     6
  9
$SPLINESEGS
 70
     8
  9
$ATTDIA
 70
     1
  9
$ATTREQ
 70
     1
  9
$HANDLING
 70
     1
  9
$HANDSEED
  5
CED0
  9
$SURFTAB1
 70
     6
  9
$SURFTAB2
 70
     6
  9
$SURFTYPE
 70
     6
  9
$SURFU
 70
     6
  9
$SURFV
 70
     6
  9
$UCSNAME
  2

  9
$UCSORG
 10
0.0
 20
0.0
 30
0.0
  9
$UCSXDIR
 10
1.0
 20
0.0
 30
0.0
  9
$UCSYDIR
 10
0.0
 20
1.0
 30
0.0
  9
$PUCSNAME
  2

  9
$PUCSORG
 10
0.0
 20
0.0
 30
0.0
  9
$PUCSXDIR
 10
1.0
 20
0.0
 30
0.0
  9
$PUCSYDIR
 10
0.0
 20
1.0
 30
0.0
  9
$USERI1
 70
     0
  9
$USERI2
 70
     0
  9
$USERI3
 70
     0
  9
$USERI4
 70
     0
  9
$USERI5
 70
     0
  9
$USERR1
 40
0.0
  9
$USERR2
 40
0.0
  9
$USERR3
 40
0.0
  9
$USERR4
 40
0.0
  9
$USERR5
 40
0.0
  9
$WORLDVIEW
 70
     1
  9
$SHADEDGE
 70
     3
  9
$SHADEDIF
 70
    70
  9
$TILEMODE
 70
     1
  9
$MAXACTVP
 70
    64
  9
$PLIMCHECK
 70
     0
  9
$PEXTMIN
 10
1.0000000000000000E+20
 20
1.0000000000000000E+20
 30
1.0000000000000000E+20
  9
$PEXTMAX
 10
-1.0000000000000000E+20
 20
-1.0000000000000000E+20
 30
-1.0000000000000000E+20
  9
$PLIMMIN
 10
0.0
 20
0.0
  9
$PLIMMAX
 10
12.0
 20
9.0
  9
$UNITMODE
 70
     0
  9
$VISRETAIN
 70
     1
  9
$PLINEGEN
 70
     0
  9
$PSLTSCALE
 70
     1
  0
ENDSEC
  0
SECTION
  2
TABLES
  0
TABLE
  2
VPORT
 70
     1
  0
VPORT
  2
*ACTIVE
 70
     0
 10
0.0
 20
0.0
 11
1.0
 21
1.0
 12
537.5862240086371457
 22
41.9593631363820805
 13
0.0
 23
0.0
 14
1.0
 24
1.0
 15
0.0
 25
0.0
 16
0.0
 26
0.0
 36
24.1179433675886514
 17
466.74220170783002
 27
89.133147119929788
 37
0.0
 40
4.653314478465548
 41
2.6486111111111108
 42
50.0
 43
0.0
 44
0.0
 50
0.0
 51
0.0
 71
     0
 72
   100
 73
     1
 74
     1
 75
     0
 76
     0
 77
     0
 78
     0
  0
ENDTAB
  0
TABLE
  2
LTYPE
 70
     2
  0
LTYPE
  2
CONTINUOUS
 70
     0
  3
Solid line
 72
    65
 73
     0
 40
0.0
  0
LTYPE
  2
PHANTOM2
 70
     0
  3
___ _ _ ___ _ _ ___ _ _ ___ _ _
 72
    65
 73
     6
 40
1.25
 49
0.625
 49
-0.125
 49
0.125
 49
-0.125
 49
0.125
 49
-0.125
  0
ENDTAB
  0
TABLE
  2
LAYER
 70
     2
  0
LAYER
  2
0
 70
     0
 62
   255
  6
CONTINUOUS
  0
LAYER
  2
DEFPOINTS
 70
     0
 62
     7
  6
CONTINUOUS
  0
ENDTAB
  0
TABLE
  2
STYLE
 70
     1
  0
STYLE
  2
STANDARD
 70
     0
 40
0.0
 41
0.8
 50
0.0
 71
     0
 42
0.2
  3
txt
  4

  0
ENDTAB
  0
TABLE
  2
VIEW
 70
     0
  0
ENDTAB
  0
TABLE
  2
UCS
 70
     0
  0
ENDTAB
  0
TABLE
  2
APPID
 70
    11
  0
APPID
  2
ACAD
 70
     0
  0
APPID
  2
ACAD_MLEADERVER
 70
     0
  0
APPID
  2
ACAD_EXEMPT_FROM_CAD_STANDARDS
 70
     0
  0
APPID
  2
ACAD_DSTYLE_DIMJAG
 70
     0
  0
APPID
  2
ACAD_DSTYLE_DIMTALN
 70
     0
  0
APPID
  2
ACAD_NAV_VCDISPLAY
 70
     0
  0
APPID
  2
ACAECLAYERSTANDARD
 70
     0
  0
APPID
  2
ACCMTRANSPARENCY
 70
     0
  0
APPID
  2
DCO15
 70
     0
  0
APPID
  2
ACDBATTR
 70
     0
  0
APPID
  2
ACADANNOTATIVE
 70
     0
  0
ENDTAB
  0
TABLE
  2
DIMSTYLE
 70
     1
  0
DIMSTYLE
  2
STANDARD
 70
     0
  3

  4

  5

  6

  7

 40
1.0
 41
0.1875
 42
0.0625
 43
0.38
 44
0.125
 45
0.0
 46
0.0
 47
0.01
 48
0.01
140
0.15625
141
0.09
142
0.0
143
25.3999999999999986
144
1.0
145
0.0
146
1.0
147
0.09
 71
     1
 72
     0
 73
     1
 74
     1
 75
     0
 76
     0
 77
     0
 78
     4
170
     0
171
     2
172
     0
173
     0
174
     0
175
     0
176
     0
177
     0
178
     0
  0
ENDTAB
  0
ENDSEC
  0
SECTION
  2
BLOCKS
  0
BLOCK
  8
0
  2
$MODEL_SPACE
 70
     0
 10
0.0
 20
0.0
 30
0.0
  3
$MODEL_SPACE
  1

  0
ENDBLK
  5
21
  8
0
  0
BLOCK
 67
     1
  8
0
  2
$PAPER_SPACE
 70
     0
 10
0.0
 20
0.0
 30
0.0
  3
$PAPER_SPACE
  1

  0
ENDBLK
  5
1D
 67
     1
  8
0
  0
BLOCK
  8
0
  2
_FILLED
 70
     0
 10
0.0
 20
0.0
 30
0.0
  3
_FILLED
  1

  0
SOLID
  5
C1E3
  8
0
  6
BYBLOCK
 62
     0
 10
0.0
 20
0.0
 30
0.0
 11
-1.0
 21
0.1666666667
 31
0.0
 12
-1.0
 22
-0.1666666667
 32
0.0
 13
-1.0
 23
-0.1666666667
 33
0.0
  0
ENDBLK
  5
C1E4
  8
0
  6
BYBLOCK
 62
     0
  0
ENDSEC
  0
SECTION
  2
ENTITIES
  0
LINE
  5
C790
  8
0
 10
1003.9614712986209497
 20
131.5856358343490058
 30
0.0
 11
1003.9614712986209497
 21
129.9317699444492007
 31
0.0
  0
ARC
  5
C791
  8
0
 10
1004.3364712986209497
 20
131.5856358343490058
 30
0.0
 40
0.9949999999999996
 50
292.1408296063842727
 51
247.8591703936156136
  0
LINE
  5
C792
  8
0
 10
1004.7114712986209497
 20
131.5856358343490058
 30
0.0
 11
1004.7114712986209497
 21
129.9317699444492007
 31
0.0
  0
ARC
  5
C793
  8
0
 10
1004.3364712986209497
 20
131.5856358343490058
 30
0.0
 40
0.375
 50
0.0
 51
180.0
  0
ARC
  5
C794
  8
0
 10
1004.3364712986209497
 20
131.5856358343490058
 30
0.0
 40
0.38
 50
350.6951753523740081
 51
189.3048246476259067
  0
LINE
  5
C795
  8
0
 10
1004.3624881726650528
 20
129.7576881307149108
 30
0.0
 11
1004.3702456229550535
 21
129.7693243061490023
 31
0.0
  0
LINE
  5
C796
  8
0
 10
1004.3503449154990221
 20
129.7568690443158061
 30
0.0
 11
1004.3618132448040114
 21
129.7740715383746135
 31
0.0
  0
LINE
  5
C797
  8
0
 10
1004.3503449155209637
 20
129.7648901883441965
 30
0.0
 11
1004.3591395301730245
 21
129.7780821103216056
 31
0.0
  0
LINE
  5
C798
  8
0
 10
1004.3503449155209637
 20
129.7568690442444108
 30
0.0
 11
1004.3503449155209637
 21
129.7648901883441965
 31
0.0
  0
ARC
  5
C799
  8
0
 10
1004.3526743349719936
 20
129.7575738390870015
 30
0.0
 40
0.0024337072029147
 50
196.8338420147530883
 51
257.8190973078847037
  0
ARC
  5
C79A
  8
0
 10
1004.3547404175719748
 20
129.7671452938105006
 30
0.0
 40
0.0122256142098597
 50
257.8190973078847037
 51
309.3259550310967256
  0
LINE
  5
C79B
  8
0
 10
1004.3618132448050346
 20
129.7740715383739882
 30
0.0
 11
1004.3494077932880373
 21
129.7926797156490863
 31
0.0
  0
LINE
  5
C79C
  8
0
 10
1004.3702456229550535
 20
129.7693243061490023
 30
0.0
 11
1004.3961186122890012
 21
129.7693243061490023
 31
0.0
  0
LINE
  5
C79D
  8
0
 10
1004.3704531353209859
 20
129.778507501949008
 30
0.0
 11
1004.3959110999210225
 21
129.778507501949008
 31
0.0
  0
LINE
  5
C79E
  8
0
 10
1004.3704531353209859
 20
129.778507501949008
 30
0.0
 11
1004.3578401713880339
 21
129.7974269477988116
 31
0.0
  0
ARC
  5
C79F
  8
0
 10
1004.3669133038720247
 20
129.7785091470699115
 30
0.0
 40
0.0067603974313219
 50
221.0268324758822871
 51
275.9308646588189049
  0
ARC
  5
C7A0
  8
0
 10
1004.3723461100570375
 20
129.774212469666395
 30
0.0
 40
0.0053203560633353
 50
207.1468569979151084
 51
246.7463754297621961
  0
ARC
  5
C7A1
  8
0
 10
1004.3475019575109854
 20
129.797359530717614
 30
0.0
 40
0.0050530069351102
 50
292.1584118902752039
 51
333.9483559242686965
  0
ARC
  5
C7A2
  8
0
 10
1004.3529650637909754
 20
129.8012941018805861
 30
0.0
 40
0.0062226646041396
 50
261.4653305858760746
 51
321.5769709749840217
  0
LINE
  5
C7A3
  8
0
 10
1004.3702456229550535
 20
129.8160351251489999
 30
0.0
 11
1004.3961186122879781
 21
129.8160351251489999
 31
0.0
  0
LINE
  5
C7A4
  8
0
 10
1004.3578401713889434
 20
129.7974269478006875
 30
0.0
 11
1004.3702456229550535
 21
129.8160351251489999
 31
0.0
  0
LINE
  5
C7A5
  8
0
 10
1004.3959110999210225
 20
129.778507501949008
 30
0.0
 11
1004.4085240638549976
 21
129.7974269477988116
 31
0.0
  0
LINE
  5
C7A6
  8
0
 10
1004.4045033794750452
 20
129.774000121930186
 30
0.0
 11
1004.4169564419549943
 21
129.7926797156490011
 31
0.0
  0
LINE
  5
C7A7
  8
0
 10
1004.4085240638539744
 20
129.7974269477994937
 30
0.0
 11
1004.3961186122879781
 21
129.8160351251489999
 31
0.0
  0
ARC
  5
C7A8
  8
0
 10
1004.3939443163079659
 20
129.7742914723002912
 30
0.0
 40
0.0054222045870715
 50
293.6406152413779864
 51
332.4661525731166876
  0
ARC
  5
C7A9
  8
0
 10
1004.39940682762699
 20
129.7786587613333893
 30
0.0
 40
0.0069049085318957
 50
264.561427624321027
 51
317.5702931993454854
  0
LINE
  5
C7AA
  8
0
 10
1004.405735349938027
 20
129.8016100186740118
 30
0.0
 11
1004.3959110999210225
 21
129.7868736437490043
 31
0.0
  0
LINE
  5
C7AB
  8
0
 10
1004.3959110999210225
 20
129.7868736437490043
 30
0.0
 11
1004.3704531353209859
 21
129.7868736437490043
 31
0.0
  0
LINE
  5
C7AC
  8
0
 10
1004.3606288853050046
 20
129.8016100186740118
 30
0.0
 11
1004.3704531353209859
 21
129.7868736437490043
 31
0.0
  0
LINE
  5
C7AD
  8
0
 10
1004.3704531353209859
 20
129.778507501949008
 30
0.0
 11
1004.3704531353209859
 21
129.7868736437490043
 31
0.0
  0
LINE
  5
C7AE
  8
0
 10
1004.3959110999210225
 20
129.778507501949008
 30
0.0
 11
1004.3959110999210225
 21
129.7868736437490043
 31
0.0
  0
ARC
  5
C7AF
  8
0
 10
1004.3527967461609478
 20
129.7817681682003865
 30
0.0
 40
0.0179549442375811
 50
325.8708233216171948
 51
349.5368738469323944
  0
ARC
  5
C7B0
  8
0
 10
1004.4132378021480463
 20
129.7818689097321112
 30
0.0
 40
0.0176497499229873
 50
190.9790895334147933
 51
214.8435847675534944
  0
ARC
  5
C7B1
  8
0
 10
1004.4185070067110246
 20
129.796979260154103
 30
0.0
 40
0.0045705944923242
 50
203.7242931936200989
 51
250.1689389918547874
  0
ARC
  5
C7B2
  8
0
 10
1004.4140621500149564
 20
129.8029753507045996
 30
0.0
 40
0.0078393349926641
 50
225.053317672713689
 51
271.9043807664464225
  0
LINE
  5
C7B3
  8
0
 10
1004.3618132448050346
 20
129.8207823573739859
 30
0.0
 11
1004.3494077932880373
 21
129.8393905346491124
 31
0.0
  0
LINE
  5
C7B4
  8
0
 10
1004.3704531353209859
 20
129.8252183209490056
 30
0.0
 11
1004.3959110999210225
 21
129.8252183209490056
 31
0.0
  0
LINE
  5
C7B5
  8
0
 10
1004.3704531353209859
 20
129.8252183209490056
 30
0.0
 11
1004.3578401713880339
 21
129.8441377667986956
 31
0.0
  0
ARC
  5
C7B6
  8
0
 10
1004.3669133038720247
 20
129.8252199660699091
 30
0.0
 40
0.0067603974313219
 50
221.0268324758822871
 51
275.9308646588189049
  0
ARC
  5
C7B7
  8
0
 10
1004.3723461100570375
 20
129.8209232886663926
 30
0.0
 40
0.0053203560633353
 50
207.1468569979151084
 51
246.7463754297621961
  0
ARC
  5
C7B8
  8
0
 10
1004.3475019575109854
 20
129.8440703497176116
 30
0.0
 40
0.0050530069351102
 50
292.1584118902752039
 51
333.9483559242686965
  0
ARC
  5
C7B9
  8
0
 10
1004.3529650637909754
 20
129.8480049208806122
 30
0.0
 40
0.0062226646041396
 50
261.4653305858760746
 51
321.5769709749840217
  0
LINE
  5
C7BA
  8
0
 10
1004.3578401713889434
 20
129.8441377668007135
 30
0.0
 11
1004.3702456229550535
 21
129.8627459441489975
 31
0.0
  0
LINE
  5
C7BB
  8
0
 10
1004.3959110999210225
 20
129.8252183209490056
 30
0.0
 11
1004.4085240638549976
 21
129.8441377667986956
 31
0.0
  0
LINE
  5
C7BC
  8
0
 10
1004.4045033794750452
 20
129.820710940930212
 30
0.0
 11
1004.4169564419549943
 21
129.8393905346489987
 31
0.0
  0
LINE
  5
C7BD
  8
0
 10
1004.4085240638539744
 20
129.8441377667994914
 30
0.0
 11
1004.3961186122879781
 21
129.8627459441489975
 31
0.0
  0
ARC
  5
C7BE
  8
0
 10
1004.3939443163079659
 20
129.8210022913002888
 30
0.0
 40
0.0054222045870715
 50
293.6406152413779864
 51
332.4661525731166876
  0
ARC
  5
C7BF
  8
0
 10
1004.39940682762699
 20
129.8253695803333869
 30
0.0
 40
0.0069049085318957
 50
264.561427624321027
 51
317.5702931993454854
  0
LINE
  5
C7C0
  8
0
 10
1004.405735349938027
 20
129.8483208376740095
 30
0.0
 11
1004.3959110999210225
 21
129.8335844627490019
 31
0.0
  0
LINE
  5
C7C1
  8
0
 10
1004.3959110999210225
 20
129.8335844627490019
 30
0.0
 11
1004.3704531353209859
 21
129.8335844627490019
 31
0.0
  0
LINE
  5
C7C2
  8
0
 10
1004.3606288853050046
 20
129.8483208376740095
 30
0.0
 11
1004.3704531353209859
 21
129.8335844627490019
 31
0.0
  0
LINE
  5
C7C3
  8
0
 10
1004.3704531353209859
 20
129.8252183209490056
 30
0.0
 11
1004.3704531353209859
 21
129.8335844627490019
 31
0.0
  0
LINE
  5
C7C4
  8
0
 10
1004.3959110999210225
 20
129.8252183209490056
 30
0.0
 11
1004.3959110999210225
 21
129.8335844627490019
 31
0.0
  0
ARC
  5
C7C5
  8
0
 10
1004.3527967461609478
 20
129.8284789872004126
 30
0.0
 40
0.0179549442375811
 50
325.8708233216171948
 51
349.5368738469323944
  0
ARC
  5
C7C6
  8
0
 10
1004.4132378021480463
 20
129.8285797287319951
 30
0.0
 40
0.0176497499229873
 50
190.9790895334147933
 51
214.8435847675534944
  0
ARC
  5
C7C7
  8
0
 10
1004.4185070067110246
 20
129.8436900791541007
 30
0.0
 40
0.0045705944923242
 50
203.7242931936200989
 51
250.1689389918547874
  0
ARC
  5
C7C8
  8
0
 10
1004.4140621500149564
 20
129.8496861697045972
 30
0.0
 40
0.0078393349926641
 50
225.053317672713689
 51
271.9043807664464225
  0
LINE
  5
C7C9
  8
0
 10
1004.3702456229550535
 20
129.8627459441489975
 30
0.0
 11
1004.3961186122879781
 21
129.8627459441489975
 31
0.0
  0
LINE
  5
C7CA
  8
0
 10
1004.3618132448050346
 20
129.8674931763740119
 30
0.0
 11
1004.3494077932880373
 21
129.88610135364911
 31
0.0
  0
LINE
  5
C7CB
  8
0
 10
1004.3704531353209859
 20
129.8719291399490032
 30
0.0
 11
1004.3959110999210225
 21
129.8719291399490032
 31
0.0
  0
LINE
  5
C7CC
  8
0
 10
1004.3704531353209859
 20
129.8719291399490032
 30
0.0
 11
1004.3578401713880339
 21
129.8908485857988069
 31
0.0
  0
ARC
  5
C7CD
  8
0
 10
1004.3669133038720247
 20
129.8719307850699067
 30
0.0
 40
0.0067603974313219
 50
221.0268324758822871
 51
275.9308646588189049
  0
ARC
  5
C7CE
  8
0
 10
1004.3723461100570375
 20
129.8676341076663903
 30
0.0
 40
0.0053203560633353
 50
207.1468569979151084
 51
246.7463754297621961
  0
ARC
  5
C7CF
  8
0
 10
1004.3475019575109854
 20
129.8907811687176093
 30
0.0
 40
0.0050530069351102
 50
292.1584118902752039
 51
333.9483559242686965
  0
ARC
  5
C7D0
  8
0
 10
1004.3529650637909754
 20
129.8947157398806098
 30
0.0
 40
0.0062226646041396
 50
261.4653305858760746
 51
321.5769709749840217
  0
LINE
  5
C7D1
  8
0
 10
1004.3578401713889434
 20
129.8908485858007111
 30
0.0
 11
1004.3702456229550535
 21
129.9094567631489952
 31
0.0
  0
LINE
  5
C7D2
  8
0
 10
1004.3959110999210225
 20
129.8719291399490032
 30
0.0
 11
1004.4085240638549976
 21
129.8908485857988069
 31
0.0
  0
LINE
  5
C7D3
  8
0
 10
1004.4045033794750452
 20
129.8674217599302096
 30
0.0
 11
1004.4169564419549943
 21
129.8861013536489963
 31
0.0
  0
LINE
  5
C7D4
  8
0
 10
1004.4085240638539744
 20
129.890848585799489
 30
0.0
 11
1004.3961186122879781
 21
129.9094567631489952
 31
0.0
  0
ARC
  5
C7D5
  8
0
 10
1004.3939443163079659
 20
129.8677131103002864
 30
0.0
 40
0.0054222045870715
 50
293.6406152413779864
 51
332.4661525731166876
  0
ARC
  5
C7D6
  8
0
 10
1004.39940682762699
 20
129.872080399333413
 30
0.0
 40
0.0069049085318957
 50
264.561427624321027
 51
317.5702931993454854
  0
LINE
  5
C7D7
  8
0
 10
1004.405735349938027
 20
129.8950316566740071
 30
0.0
 11
1004.3959110999210225
 21
129.8802952817489995
 31
0.0
  0
LINE
  5
C7D8
  8
0
 10
1004.3959110999210225
 20
129.8802952817489995
 30
0.0
 11
1004.3704531353209859
 21
129.8802952817489995
 31
0.0
  0
LINE
  5
C7D9
  8
0
 10
1004.3606288853050046
 20
129.8950316566740071
 30
0.0
 11
1004.3704531353209859
 21
129.8802952817489995
 31
0.0
  0
LINE
  5
C7DA
  8
0
 10
1004.3704531353209859
 20
129.8719291399490032
 30
0.0
 11
1004.3704531353209859
 21
129.8802952817489995
 31
0.0
  0
LINE
  5
C7DB
  8
0
 10
1004.3959110999210225
 20
129.8719291399490032
 30
0.0
 11
1004.3959110999210225
 21
129.8802952817489995
 31
0.0
  0
ARC
  5
C7DC
  8
0
 10
1004.3527967461609478
 20
129.8751898062004102
 30
0.0
 40
0.0179549442375811
 50
325.8708233216171948
 51
349.5368738469323944
  0
ARC
  5
C7DD
  8
0
 10
1004.4132378021480463
 20
129.8752905477321065
 30
0.0
 40
0.0176497499229873
 50
190.9790895334147933
 51
214.8435847675534944
  0
ARC
  5
C7DE
  8
0
 10
1004.4185070067110246
 20
129.8904008981540983
 30
0.0
 40
0.0045705944923242
 50
203.7242931936200989
 51
250.1689389918547874
  0
ARC
  5
C7DF
  8
0
 10
1004.4140621500149564
 20
129.8963969887045948
 30
0.0
 40
0.0078393349926641
 50
225.053317672713689
 51
271.9043807664464225
  0
LINE
  5
C7E0
  8
0
 10
1004.3702456229550535
 20
129.9094567631489952
 30
0.0
 11
1004.3961186122879781
 21
129.9094567631489952
 31
0.0
  0
LINE
  5
C7E1
  8
0
 10
1004.3618132448050346
 20
129.9142039953740095
 30
0.0
 11
1004.3494077932880373
 21
129.9328121726491077
 31
0.0
  0
LINE
  5
C7E2
  8
0
 10
1004.3704531353209859
 20
129.9186399589490009
 30
0.0
 11
1004.3959110999210225
 21
129.9186399589490009
 31
0.0
  0
LINE
  5
C7E3
  8
0
 10
1004.3704531353209859
 20
129.9186399589490009
 30
0.0
 11
1004.3578401713880339
 21
129.9375594047988045
 31
0.0
  0
ARC
  5
C7E4
  8
0
 10
1004.3669133038720247
 20
129.9186416040699044
 30
0.0
 40
0.0067603974313219
 50
221.0268324758822871
 51
275.9308646588189049
  0
ARC
  5
C7E5
  8
0
 10
1004.3723461100570375
 20
129.9143449266663879
 30
0.0
 40
0.0053203560633353
 50
207.1468569979151084
 51
246.7463754297621961
  0
ARC
  5
C7E6
  8
0
 10
1004.3475019575109854
 20
129.9374919877176069
 30
0.0
 40
0.0050530069351102
 50
292.1584118902752039
 51
333.9483559242686965
  0
ARC
  5
C7E7
  8
0
 10
1004.3529650637909754
 20
129.9414265588806074
 30
0.0
 40
0.0062226646041396
 50
261.4653305858760746
 51
321.5769709749840217
  0
LINE
  5
C7E8
  8
0
 10
1004.3578401713889434
 20
129.9375594048005951
 30
0.0
 11
1004.3702456229550535
 21
129.9561675821489928
 31
0.0
  0
LINE
  5
C7E9
  8
0
 10
1004.3959110999210225
 20
129.9186399589490009
 30
0.0
 11
1004.4085240638549976
 21
129.9375594047988045
 31
0.0
  0
LINE
  5
C7EA
  8
0
 10
1004.4045033794750452
 20
129.9141325789302073
 30
0.0
 11
1004.4169564419549943
 21
129.932812172648994
 31
0.0
  0
LINE
  5
C7EB
  8
0
 10
1004.4085240638539744
 20
129.9375594047994866
 30
0.0
 11
1004.3961186122879781
 21
129.9561675821489928
 31
0.0
  0
ARC
  5
C7EC
  8
0
 10
1004.3939443163079659
 20
129.9144239293003125
 30
0.0
 40
0.0054222045870715
 50
293.6406152413779864
 51
332.4661525731166876
  0
ARC
  5
C7ED
  8
0
 10
1004.39940682762699
 20
129.9187912183334106
 30
0.0
 40
0.0069049085318957
 50
264.561427624321027
 51
317.5702931993454854
  0
LINE
  5
C7EE
  8
0
 10
1004.405735349938027
 20
129.9417424756740047
 30
0.0
 11
1004.3959110999210225
 21
129.9270061007489971
 31
0.0
  0
LINE
  5
C7EF
  8
0
 10
1004.3959110999210225
 20
129.9270061007489971
 30
0.0
 11
1004.3704531353209859
 21
129.9270061007489971
 31
0.0
  0
LINE
  5
C7F0
  8
0
 10
1004.3606288853050046
 20
129.9417424756740047
 30
0.0
 11
1004.3704531353209859
 21
129.9270061007489971
 31
0.0
  0
LINE
  5
C7F1
  8
0
 10
1004.3704531353209859
 20
129.9186399589490009
 30
0.0
 11
1004.3704531353209859
 21
129.9270061007489971
 31
0.0
  0
LINE
  5
C7F2
  8
0
 10
1004.3959110999210225
 20
129.9186399589490009
 30
0.0
 11
1004.3959110999210225
 21
129.9270061007489971
 31
0.0
  0
ARC
  5
C7F3
  8
0
 10
1004.3527967461609478
 20
129.9219006252004078
 30
0.0
 40
0.0179549442375811
 50
325.8708233216171948
 51
349.5368738469323944
  0
ARC
  5
C7F4
  8
0
 10
1004.4132378021480463
 20
129.9220013667321041
 30
0.0
 40
0.0176497499229873
 50
190.9790895334147933
 51
214.8435847675534944
  0
ARC
  5
C7F5
  8
0
 10
1004.4185070067110246
 20
129.9371117171540959
 30
0.0
 40
0.0045705944923242
 50
203.7242931936200989
 51
250.1689389918547874
  0
ARC
  5
C7F6
  8
0
 10
1004.4140621500149564
 20
129.9431078077045925
 30
0.0
 40
0.0078393349926641
 50
225.053317672713689
 51
271.9043807664464225
  0
LINE
  5
C7F7
  8
0
 10
1004.3702456229550535
 20
129.9561675822490088
 30
0.0
 11
1004.3961186122879781
 21
129.9561675822490088
 31
0.0
  0
LINE
  5
C7F8
  8
0
 10
1004.3704531353209859
 20
129.9653507780489861
 30
0.0
 11
1004.3959110999210225
 21
129.9653507780489861
 31
0.0
  0
LINE
  5
C7F9
  8
0
 10
1004.3704531353209859
 20
129.9653507780489861
 30
0.0
 11
1004.3578401713880339
 21
129.9842702238987897
 31
0.0
  0
ARC
  5
C7FA
  8
0
 10
1004.3723461100570375
 20
129.9610557457664015
 30
0.0
 40
0.0053203560633353
 50
207.1468569979151084
 51
246.7463754297621961
  0
ARC
  5
C7FB
  8
0
 10
1004.3529650637909754
 20
129.9881373779805926
 30
0.0
 40
0.0062226646041396
 50
261.4653305858760746
 51
321.5769709749840217
  0
LINE
  5
C7FC
  8
0
 10
1004.3578401713889434
 20
129.984270223900694
 30
0.0
 11
1004.3702456229550535
 21
130.0028784012490064
 31
0.0
  0
LINE
  5
C7FD
  8
0
 10
1004.3959110999210225
 20
129.9653507780489861
 30
0.0
 11
1004.4085240638549976
 21
129.9842702238987897
 31
0.0
  0
LINE
  5
C7FE
  8
0
 10
1004.4045033794750452
 20
129.9608433980301925
 30
0.0
 11
1004.4169564419549943
 21
129.9795229917490076
 31
0.0
  0
LINE
  5
C7FF
  8
0
 10
1004.4085240638539744
 20
129.9842702238995003
 30
0.0
 11
1004.3961186122879781
 21
130.0028784012490064
 31
0.0
  0
ARC
  5
C800
  8
0
 10
1004.3939443163079659
 20
129.9611347484002977
 30
0.0
 40
0.0054222045870715
 50
293.6406152413779864
 51
332.4661525731166876
  0
ARC
  5
C801
  8
0
 10
1004.39940682762699
 20
129.9655020374333958
 30
0.0
 40
0.0069049085318957
 50
264.561427624321027
 51
317.5702931993454854
  0
LINE
  5
C802
  8
0
 10
1004.405735349938027
 20
129.9884532947739899
 30
0.0
 11
1004.3959110999210225
 21
129.9737169198490108
 31
0.0
  0
LINE
  5
C803
  8
0
 10
1004.3959110999210225
 20
129.9737169198490108
 30
0.0
 11
1004.3704531353209859
 21
129.9737169198490108
 31
0.0
  0
LINE
  5
C804
  8
0
 10
1004.3606288853050046
 20
129.9884532947739899
 30
0.0
 11
1004.3704531353209859
 21
129.9737169198490108
 31
0.0
  0
LINE
  5
C805
  8
0
 10
1004.3704531353209859
 20
129.9653507780489861
 30
0.0
 11
1004.3704531353209859
 21
129.9737169198490108
 31
0.0
  0
LINE
  5
C806
  8
0
 10
1004.3959110999210225
 20
129.9653507780489861
 30
0.0
 11
1004.3959110999210225
 21
129.9737169198490108
 31
0.0
  0
ARC
  5
C807
  8
0
 10
1004.3527967461609478
 20
129.968611444300393
 30
0.0
 40
0.0179549442375811
 50
325.8708233216171948
 51
349.5368738469323944
  0
ARC
  5
C808
  8
0
 10
1004.4132378021480463
 20
129.968712185832004
 30
0.0
 40
0.0176497499229873
 50
190.9790895334147933
 51
214.8435847675534944
  0
ARC
  5
C809
  8
0
 10
1004.4185070067110246
 20
129.9838225362541095
 30
0.0
 40
0.0045705944923242
 50
203.7242931936200989
 51
250.1689389918547874
  0
ARC
  5
C80A
  8
0
 10
1004.4140621500149564
 20
129.9898186268046061
 30
0.0
 40
0.0078393349926641
 50
225.053317672713689
 51
271.9043807664464225
  0
LINE
  5
C80B
  8
0
 10
1004.3702456229550535
 20
130.0028784012490064
 30
0.0
 11
1004.3961186122879781
 21
130.0028784012490064
 31
0.0
  0
LINE
  5
C80C
  8
0
 10
1004.3618132448050346
 20
130.0076256334739924
 30
0.0
 11
1004.3494077932880373
 21
130.0262338107490905
 31
0.0
  0
LINE
  5
C80D
  8
0
 10
1004.3704531353209859
 20
130.0120615970490121
 30
0.0
 11
1004.3959110999210225
 21
130.0120615970490121
 31
0.0
  0
LINE
  5
C80E
  8
0
 10
1004.3704531353209859
 20
130.0120615970490121
 30
0.0
 11
1004.3578401713880339
 21
130.0309810428987873
 31
0.0
  0
ARC
  5
C80F
  8
0
 10
1004.3669133038720247
 20
130.0120632421700009
 30
0.0
 40
0.0067603974313219
 50
221.0268324758822871
 51
275.9308646588189049
  0
ARC
  5
C810
  8
0
 10
1004.3723461100570375
 20
130.0077665647663991
 30
0.0
 40
0.0053203560633353
 50
207.1468569979151084
 51
246.7463754297621961
  0
ARC
  5
C811
  8
0
 10
1004.3475019575109854
 20
130.0309136258175897
 30
0.0
 40
0.0050530069351102
 50
292.1584118902752039
 51
333.9483559242686965
  0
ARC
  5
C812
  8
0
 10
1004.3529650637909754
 20
130.0348481969805903
 30
0.0
 40
0.0062226646041396
 50
261.4653305858760746
 51
321.5769709749840217
  0
LINE
  5
C813
  8
0
 10
1004.3578401713889434
 20
130.0309810429006916
 30
0.0
 11
1004.3702456229550535
 21
130.049589220249004
 31
0.0
  0
LINE
  5
C814
  8
0
 10
1004.3959110999210225
 20
130.0120615970490121
 30
0.0
 11
1004.4085240638549976
 21
130.0309810428987873
 31
0.0
  0
LINE
  5
C815
  8
0
 10
1004.4045033794750452
 20
130.0075542170301901
 30
0.0
 11
1004.4169564419549943
 21
130.0262338107490052
 31
0.0
  0
LINE
  5
C816
  8
0
 10
1004.4085240638539744
 20
130.0309810428994979
 30
0.0
 11
1004.3961186122879781
 21
130.049589220249004
 31
0.0
  0
ARC
  5
C817
  8
0
 10
1004.3939443163079659
 20
130.0078455674002953
 30
0.0
 40
0.0054222045870715
 50
293.6406152413779864
 51
332.4661525731166876
  0
ARC
  5
C818
  8
0
 10
1004.39940682762699
 20
130.0122128564333934
 30
0.0
 40
0.0069049085318957
 50
264.561427624321027
 51
317.5702931993454854
  0
LINE
  5
C819
  8
0
 10
1004.405735349938027
 20
130.0351641137739875
 30
0.0
 11
1004.3959110999210225
 21
130.0204277388490084
 31
0.0
  0
LINE
  5
C81A
  8
0
 10
1004.3959110999210225
 20
130.0204277388490084
 30
0.0
 11
1004.3704531353209859
 21
130.0204277388490084
 31
0.0
  0
LINE
  5
C81B
  8
0
 10
1004.3606288853050046
 20
130.0351641137739875
 30
0.0
 11
1004.3704531353209859
 21
130.0204277388490084
 31
0.0
  0
LINE
  5
C81C
  8
0
 10
1004.3704531353209859
 20
130.0120615970490121
 30
0.0
 11
1004.3704531353209859
 21
130.0204277388490084
 31
0.0
  0
LINE
  5
C81D
  8
0
 10
1004.3959110999210225
 20
130.0120615970490121
 30
0.0
 11
1004.3959110999210225
 21
130.0204277388490084
 31
0.0
  0
ARC
  5
C81E
  8
0
 10
1004.3527967461609478
 20
130.0153222633003907
 30
0.0
 40
0.0179549442375811
 50
325.8708233216171948
 51
349.5368738469323944
  0
ARC
  5
C81F
  8
0
 10
1004.4132378021480463
 20
130.0154230048320017
 30
0.0
 40
0.0176497499229873
 50
190.9790895334147933
 51
214.8435847675534944
  0
ARC
  5
C820
  8
0
 10
1004.4185070067110246
 20
130.0305333552541072
 30
0.0
 40
0.0045705944923242
 50
203.7242931936200989
 51
250.1689389918547874
  0
ARC
  5
C821
  8
0
 10
1004.4140621500149564
 20
130.0365294458046037
 30
0.0
 40
0.0078393349926641
 50
225.053317672713689
 51
271.9043807664464225
  0
LINE
  5
C822
  8
0
 10
1004.3702456229550535
 20
130.049589220249004
 30
0.0
 11
1004.3961186122879781
 21
130.049589220249004
 31
0.0
  0
ARC
  5
C823
  8
0
 10
1004.3669133038720247
 20
130.0587740611699132
 30
0.0
 40
0.0067603974313219
 50
221.0268324758822871
 51
275.9308646588189049
  0
ARC
  5
C824
  8
0
 10
1004.3723461100570375
 20
130.0544773837663968
 30
0.0
 40
0.0053203560633353
 50
207.1468569979151084
 51
246.7463754297621961
  0
ARC
  5
C825
  8
0
 10
1004.3939443163079659
 20
130.0545563864002929
 30
0.0
 40
0.0054222045870715
 50
293.6406152413779864
 51
332.4661525731166876
  0
ARC
  5
C826
  8
0
 10
1004.39940682762699
 20
130.0589236754333911
 30
0.0
 40
0.0069049085318957
 50
264.561427624321027
 51
317.5702931993454854
  0
ARC
  5
C827
  8
0
 10
1004.4184859483319769
 20
130.0772097321913918
 30
0.0
 40
0.0045310582211306
 50
204.7232744413196031
 51
250.2716826090311031
  0
LINE
  5
C828
  8
0
 10
1004.4169564419539711
 20
129.7926797156490011
 30
0.0
 11
1004.4428294312880325
 21
129.7926797156490011
 31
0.0
  0
LINE
  5
C829
  8
0
 10
1004.4171639543210404
 20
129.8018629114490068
 30
0.0
 11
1004.4426219189209633
 21
129.8018629114490068
 31
0.0
  0
LINE
  5
C82A
  8
0
 10
1004.4171639543210404
 20
129.8018629114490068
 30
0.0
 11
1004.4045509903869515
 21
129.8207823572988104
 31
0.0
  0
LINE
  5
C82B
  8
0
 10
1004.4169564419539711
 20
129.8393905346489987
 30
0.0
 11
1004.4428294312880325
 21
129.8393905346489987
 31
0.0
  0
LINE
  5
C82C
  8
0
 10
1004.4426219189209633
 20
129.8018629114490068
 30
0.0
 11
1004.4552348828540289
 21
129.8207823572988104
 31
0.0
  0
LINE
  5
C82D
  8
0
 10
1004.451214198474986
 20
129.7973555314302132
 30
0.0
 11
1004.4636672609540256
 21
129.8160351251489999
 31
0.0
  0
LINE
  5
C82E
  8
0
 10
1004.4552348828540289
 20
129.8207823572994926
 30
0.0
 11
1004.4428294312880325
 21
129.8393905346489987
 31
0.0
  0
ARC
  5
C82F
  8
0
 10
1004.4406551353069972
 20
129.79764688180029
 30
0.0
 40
0.0054222045870715
 50
293.6406152413779864
 51
332.4661525731166876
  0
ARC
  5
C830
  8
0
 10
1004.4461176466260213
 20
129.8020141708333881
 30
0.0
 40
0.0069049085318957
 50
264.561427624321027
 51
317.5702931993454854
  0
LINE
  5
C831
  8
0
 10
1004.4524461689369446
 20
129.8249654281740106
 30
0.0
 11
1004.4426219189209633
 21
129.8102290532490031
 31
0.0
  0
LINE
  5
C832
  8
0
 10
1004.4426219189209633
 20
129.8102290532490031
 30
0.0
 11
1004.4171639543210404
 21
129.8102290532490031
 31
0.0
  0
LINE
  5
C833
  8
0
 10
1004.4073397043040359
 20
129.8249654281740106
 30
0.0
 11
1004.4171639543210404
 21
129.8102290532490031
 31
0.0
  0
LINE
  5
C834
  8
0
 10
1004.4171639543210404
 20
129.8018629114490068
 30
0.0
 11
1004.4171639543210404
 21
129.8102290532490031
 31
0.0
  0
LINE
  5
C835
  8
0
 10
1004.4426219189209633
 20
129.8018629114490068
 30
0.0
 11
1004.4426219189209633
 21
129.8102290532490031
 31
0.0
  0
ARC
  5
C836
  8
0
 10
1004.3995075651610023
 20
129.8051235777004138
 30
0.0
 40
0.0179549442375811
 50
325.8708233216171948
 51
349.5368738469323944
  0
ARC
  5
C837
  8
0
 10
1004.4599486211479871
 20
129.80522431923211
 30
0.0
 40
0.0176497499229873
 50
190.9790895334147933
 51
214.8435847675534944
  0
ARC
  5
C838
  8
0
 10
1004.4652178257100559
 20
129.8203346696541018
 30
0.0
 40
0.0045705944923242
 50
203.7242931936200989
 51
250.1689389918547874
  0
ARC
  5
C839
  8
0
 10
1004.4607729690150109
 20
129.8263307602045984
 30
0.0
 40
0.0078393349926641
 50
225.053317672713689
 51
271.9043807664464225
  0
LINE
  5
C83A
  8
0
 10
1004.4169564419539711
 20
129.8393905346489987
 30
0.0
 11
1004.4428294312880325
 21
129.8393905346489987
 31
0.0
  0
LINE
  5
C83B
  8
0
 10
1004.4171639543210404
 20
129.8485737304490044
 30
0.0
 11
1004.4426219189209633
 21
129.8485737304490044
 31
0.0
  0
LINE
  5
C83C
  8
0
 10
1004.4171639543210404
 20
129.8485737304490044
 30
0.0
 11
1004.4045509903869515
 21
129.8674931762986944
 31
0.0
  0
LINE
  5
C83D
  8
0
 10
1004.4169564419539711
 20
129.8861013536489963
 30
0.0
 11
1004.4428294312880325
 21
129.8861013536489963
 31
0.0
  0
LINE
  5
C83E
  8
0
 10
1004.4426219189209633
 20
129.8485737304490044
 30
0.0
 11
1004.4552348828540289
 21
129.8674931762986944
 31
0.0
  0
LINE
  5
C83F
  8
0
 10
1004.451214198474986
 20
129.8440663504300971
 30
0.0
 11
1004.4636672609540256
 21
129.8627459441489975
 31
0.0
  0
LINE
  5
C840
  8
0
 10
1004.4552348828540289
 20
129.8674931762994902
 30
0.0
 11
1004.4428294312880325
 21
129.8861013536489963
 31
0.0
  0
ARC
  5
C841
  8
0
 10
1004.4406551353069972
 20
129.8443577008002876
 30
0.0
 40
0.0054222045870715
 50
293.6406152413779864
 51
332.4661525731166876
  0
ARC
  5
C842
  8
0
 10
1004.4461176466260213
 20
129.8487249898334142
 30
0.0
 40
0.0069049085318957
 50
264.561427624321027
 51
317.5702931993454854
  0
LINE
  5
C843
  8
0
 10
1004.4524461689369446
 20
129.8716762471740083
 30
0.0
 11
1004.4426219189209633
 21
129.8569398722490007
 31
0.0
  0
LINE
  5
C844
  8
0
 10
1004.4426219189209633
 20
129.8569398722490007
 30
0.0
 11
1004.4171639543210404
 21
129.8569398722490007
 31
0.0
  0
LINE
  5
C845
  8
0
 10
1004.4073397043040359
 20
129.8716762471740083
 30
0.0
 11
1004.4171639543210404
 21
129.8569398722490007
 31
0.0
  0
LINE
  5
C846
  8
0
 10
1004.4171639543210404
 20
129.8485737304490044
 30
0.0
 11
1004.4171639543210404
 21
129.8569398722490007
 31
0.0
  0
LINE
  5
C847
  8
0
 10
1004.4426219189209633
 20
129.8485737304490044
 30
0.0
 11
1004.4426219189209633
 21
129.8569398722490007
 31
0.0
  0
ARC
  5
C848
  8
0
 10
1004.3995075651610023
 20
129.8518343967004114
 30
0.0
 40
0.0179549442375811
 50
325.8708233216171948
 51
349.5368738469323944
  0
ARC
  5
C849
  8
0
 10
1004.4599486211479871
 20
129.8519351382321076
 30
0.0
 40
0.0176497499229873
 50
190.9790895334147933
 51
214.8435847675534944
  0
ARC
  5
C84A
  8
0
 10
1004.4652178257100559
 20
129.8670454886540995
 30
0.0
 40
0.0045705944923242
 50
203.7242931936200989
 51
250.1689389918547874
  0
ARC
  5
C84B
  8
0
 10
1004.4607729690150109
 20
129.873041579204596
 30
0.0
 40
0.0078393349926641
 50
225.053317672713689
 51
271.9043807664464225
  0
LINE
  5
C84C
  8
0
 10
1004.4169564419539711
 20
129.8861013536489963
 30
0.0
 11
1004.4428294312880325
 21
129.8861013536489963
 31
0.0
  0
LINE
  5
C84D
  8
0
 10
1004.4171639543200172
 20
129.895284549449002
 30
0.0
 11
1004.4426219189200538
 21
129.895284549449002
 31
0.0
  0
LINE
  5
C84E
  8
0
 10
1004.4171639543200172
 20
129.895284549449002
 30
0.0
 11
1004.4045509903869515
 21
129.9142039952988057
 31
0.0
  0
LINE
  5
C84F
  8
0
 10
1004.4169564419539711
 20
129.932812172648994
 30
0.0
 11
1004.4428294312870094
 21
129.932812172648994
 31
0.0
  0
LINE
  5
C850
  8
0
 10
1004.4426219189200538
 20
129.895284549449002
 30
0.0
 11
1004.4552348828540289
 21
129.9142039952988057
 31
0.0
  0
LINE
  5
C851
  8
0
 10
1004.451261809387006
 20
129.8908485857984942
 30
0.0
 11
1004.4636672609540256
 21
129.9094567631489952
 31
0.0
  0
LINE
  5
C852
  8
0
 10
1004.4552348828530057
 20
129.9142039952994878
 30
0.0
 11
1004.4428294312870094
 21
129.932812172648994
 31
0.0
  0
ARC
  5
C853
  8
0
 10
1004.4406551353069972
 20
129.8910685198003137
 30
0.0
 40
0.0054222045870715
 50
293.6406152413779864
 51
332.4661525731166876
  0
ARC
  5
C854
  8
0
 10
1004.4461255195440117
 20
129.8953780725225897
 30
0.0
 40
0.0068481912451884
 50
264.4500716993038054
 51
318.5922298580341021
  0
LINE
  5
C855
  8
0
 10
1004.4524461689369446
 20
129.9183870661740059
 30
0.0
 11
1004.4426219189200538
 21
129.9036506912489983
 31
0.0
  0
LINE
  5
C856
  8
0
 10
1004.4426219189200538
 20
129.9036506912489983
 30
0.0
 11
1004.4171639543200172
 21
129.9036506912489983
 31
0.0
  0
LINE
  5
C857
  8
0
 10
1004.4073397043040359
 20
129.9183870661740059
 30
0.0
 11
1004.4171639543200172
 21
129.9036506912489983
 31
0.0
  0
LINE
  5
C858
  8
0
 10
1004.4171639543200172
 20
129.895284549449002
 30
0.0
 11
1004.4171639543200172
 21
129.9036506912489983
 31
0.0
  0
LINE
  5
C859
  8
0
 10
1004.4426219189200538
 20
129.895284549449002
 30
0.0
 11
1004.4426219189200538
 21
129.9036506912489983
 31
0.0
  0
ARC
  5
C85A
  8
0
 10
1004.3995075651599791
 20
129.898545215700409
 30
0.0
 40
0.0179549442375811
 50
325.8708233216171948
 51
349.5368738469323944
  0
ARC
  5
C85B
  8
0
 10
1004.4599486211469639
 20
129.8986459572321053
 30
0.0
 40
0.0176497499229873
 50
190.9790895334147933
 51
214.8435847675534944
  0
ARC
  5
C85C
  8
0
 10
1004.4652178257100559
 20
129.9137563076540971
 30
0.0
 40
0.0045705944923242
 50
203.7242931936200989
 51
250.1689389918547874
  0
ARC
  5
C85D
  8
0
 10
1004.4607729690139877
 20
129.9197523982045936
 30
0.0
 40
0.0078393349926641
 50
225.053317672713689
 51
271.9043807664464225
  0
LINE
  5
C85E
  8
0
 10
1004.4169564419539711
 20
129.932812172648994
 30
0.0
 11
1004.4428294312880325
 21
129.932812172648994
 31
0.0
  0
LINE
  5
C85F
  8
0
 10
1004.4171639543210404
 20
129.9419953684489997
 30
0.0
 11
1004.4426219189209633
 21
129.9419953684489997
 31
0.0
  0
LINE
  5
C860
  8
0
 10
1004.4171639543210404
 20
129.9419953684489997
 30
0.0
 11
1004.4045509903869515
 21
129.9609148142986896
 31
0.0
  0
LINE
  5
C861
  8
0
 10
1004.4169564419539711
 20
129.9795229916489916
 30
0.0
 11
1004.4428294312880325
 21
129.9795229916489916
 31
0.0
  0
LINE
  5
C862
  8
0
 10
1004.4426219189209633
 20
129.9419953684489997
 30
0.0
 11
1004.4552348828540289
 21
129.9609148142986896
 31
0.0
  0
LINE
  5
C863
  8
0
 10
1004.451261809387006
 20
129.9375594047984919
 30
0.0
 11
1004.4636672609540256
 21
129.9561675821489928
 31
0.0
  0
LINE
  5
C864
  8
0
 10
1004.4552348828540289
 20
129.9609148142994002
 30
0.0
 11
1004.4428294312880325
 21
129.9795229916489916
 31
0.0
  0
ARC
  5
C865
  8
0
 10
1004.4406551353069972
 20
129.9377793388003113
 30
0.0
 40
0.0054222045870715
 50
293.6406152413779864
 51
332.4661525731166876
  0
ARC
  5
C866
  8
0
 10
1004.4461255961999768
 20
129.9420886971323057
 30
0.0
 40
0.0068480051803696
 50
264.4492760553778794
 51
318.5930255054852864
  0
LINE
  5
C867
  8
0
 10
1004.4524461689369446
 20
129.9650978851740035
 30
0.0
 11
1004.4426219189209633
 21
129.950361510248996
 31
0.0
  0
LINE
  5
C868
  8
0
 10
1004.4426219189209633
 20
129.950361510248996
 30
0.0
 11
1004.4171639543210404
 21
129.950361510248996
 31
0.0
  0
LINE
  5
C869
  8
0
 10
1004.4073397043040359
 20
129.9650978851740035
 30
0.0
 11
1004.4171639543210404
 21
129.950361510248996
 31
0.0
  0
LINE
  5
C86A
  8
0
 10
1004.4171639543210404
 20
129.9419953684489997
 30
0.0
 11
1004.4171639543210404
 21
129.950361510248996
 31
0.0
  0
LINE
  5
C86B
  8
0
 10
1004.4426219189209633
 20
129.9419953684489997
 30
0.0
 11
1004.4426219189209633
 21
129.950361510248996
 31
0.0
  0
ARC
  5
C86C
  8
0
 10
1004.3995075651610023
 20
129.945256034700293
 30
0.0
 40
0.0179549442375811
 50
325.8708233216171948
 51
349.5368738469323944
  0
ARC
  5
C86D
  8
0
 10
1004.4599486211479871
 20
129.9453567762319892
 30
0.0
 40
0.0176497499229873
 50
190.9790895334147933
 51
214.8435847675534944
  0
ARC
  5
C86E
  8
0
 10
1004.4652178257100559
 20
129.9604671266540947
 30
0.0
 40
0.0045705944923242
 50
203.7242931936200989
 51
250.1689389918547874
  0
ARC
  5
C86F
  8
0
 10
1004.4607729690150109
 20
129.9664632172045913
 30
0.0
 40
0.0078393349926641
 50
225.053317672713689
 51
271.9043807664464225
  0
LINE
  5
C870
  8
0
 10
1004.4169564419539711
 20
129.9795229917490076
 30
0.0
 11
1004.4428294312880325
 21
129.9795229917490076
 31
0.0
  0
LINE
  5
C871
  8
0
 10
1004.4171639543210404
 20
129.9887061875490133
 30
0.0
 11
1004.4426219189209633
 21
129.9887061875490133
 31
0.0
  0
LINE
  5
C872
  8
0
 10
1004.4171639543210404
 20
129.9887061875490133
 30
0.0
 11
1004.4045509903869515
 21
130.0076256333987885
 31
0.0
  0
LINE
  5
C873
  8
0
 10
1004.4169564419539711
 20
130.0262338107490052
 30
0.0
 11
1004.4428294312880325
 21
130.0262338107490052
 31
0.0
  0
LINE
  5
C874
  8
0
 10
1004.4426219189209633
 20
129.9887061875490133
 30
0.0
 11
1004.4552348828540289
 21
130.0076256333987885
 31
0.0
  0
LINE
  5
C875
  8
0
 10
1004.451214198474986
 20
129.9841988075301913
 30
0.0
 11
1004.4636672609540256
 21
130.0028784012490064
 31
0.0
  0
LINE
  5
C876
  8
0
 10
1004.4552348828540289
 20
130.0076256333994991
 30
0.0
 11
1004.4428294312880325
 21
130.0262338107490052
 31
0.0
  0
ARC
  5
C877
  8
0
 10
1004.4406551353069972
 20
129.9844901579002965
 30
0.0
 40
0.0054222045870715
 50
293.6406152413779864
 51
332.4661525731166876
  0
ARC
  5
C878
  8
0
 10
1004.4461176466260213
 20
129.9888574469333946
 30
0.0
 40
0.0069049085318957
 50
264.561427624321027
 51
317.5702931993454854
  0
LINE
  5
C879
  8
0
 10
1004.4524461689369446
 20
130.0118087042739887
 30
0.0
 11
1004.4426219189209633
 21
129.9970723293490096
 31
0.0
  0
LINE
  5
C87A
  8
0
 10
1004.4426219189209633
 20
129.9970723293490096
 30
0.0
 11
1004.4171639543210404
 21
129.9970723293490096
 31
0.0
  0
LINE
  5
C87B
  8
0
 10
1004.4073397043040359
 20
130.0118087042739887
 30
0.0
 11
1004.4171639543210404
 21
129.9970723293490096
 31
0.0
  0
LINE
  5
C87C
  8
0
 10
1004.4171639543210404
 20
129.9887061875490133
 30
0.0
 11
1004.4171639543210404
 21
129.9970723293490096
 31
0.0
  0
LINE
  5
C87D
  8
0
 10
1004.4426219189209633
 20
129.9887061875490133
 30
0.0
 11
1004.4426219189209633
 21
129.9970723293490096
 31
0.0
  0
ARC
  5
C87E
  8
0
 10
1004.3995075651610023
 20
129.9919668538003918
 30
0.0
 40
0.0179549442375811
 50
325.8708233216171948
 51
349.5368738469323944
  0
ARC
  5
C87F
  8
0
 10
1004.4599486211479871
 20
129.9920675953320028
 30
0.0
 40
0.0176497499229873
 50
190.9790895334147933
 51
214.8435847675534944
  0
ARC
  5
C880
  8
0
 10
1004.4652178257100559
 20
130.0071779457541084
 30
0.0
 40
0.0045705944923242
 50
203.7242931936200989
 51
250.1689389918547874
  0
ARC
  5
C881
  8
0
 10
1004.4607729690150109
 20
130.0131740363046049
 30
0.0
 40
0.0078393349926641
 50
225.053317672713689
 51
271.9043807664464225
  0
LINE
  5
C882
  8
0
 10
1004.4169564419539711
 20
130.0262338107490052
 30
0.0
 11
1004.4428294312880325
 21
130.0262338107490052
 31
0.0
  0
LINE
  5
C883
  8
0
 10
1004.4171639543210404
 20
130.0354170065490109
 30
0.0
 11
1004.4426219189209633
 21
130.0354170065490109
 31
0.0
  0
LINE
  5
C884
  8
0
 10
1004.4171639543210404
 20
130.0354170065490109
 30
0.0
 11
1004.4045509903869515
 21
130.0543364523987862
 31
0.0
  0
LINE
  5
C885
  8
0
 10
1004.4169564419539711
 20
130.0729446297490028
 30
0.0
 11
1004.4428294312880325
 21
130.0729446297490028
 31
0.0
  0
LINE
  5
C886
  8
0
 10
1004.4426219189209633
 20
130.0354170065490109
 30
0.0
 11
1004.4552348828540289
 21
130.0543364523987862
 31
0.0
  0
LINE
  5
C887
  8
0
 10
1004.451214198474986
 20
130.0309096265301889
 30
0.0
 11
1004.4636672609540256
 21
130.049589220249004
 31
0.0
  0
LINE
  5
C888
  8
0
 10
1004.4552348828540289
 20
130.0543364523994967
 30
0.0
 11
1004.4428294312880325
 21
130.0729446297490028
 31
0.0
  0
ARC
  5
C889
  8
0
 10
1004.4406551353069972
 20
130.0312009769002941
 30
0.0
 40
0.0054222045870715
 50
293.6406152413779864
 51
332.4661525731166876
  0
ARC
  5
C88A
  8
0
 10
1004.4461176466260213
 20
130.0355682659333922
 30
0.0
 40
0.0069049085318957
 50
264.561427624321027
 51
317.5702931993454854
  0
LINE
  5
C88B
  8
0
 10
1004.4524461689369446
 20
130.0585195232739864
 30
0.0
 11
1004.4426219189209633
 21
130.0437831483490072
 31
0.0
  0
LINE
  5
C88C
  8
0
 10
1004.4426219189209633
 20
130.0437831483490072
 30
0.0
 11
1004.4171639543210404
 21
130.0437831483490072
 31
0.0
  0
LINE
  5
C88D
  8
0
 10
1004.4073397043040359
 20
130.0585195232739011
 30
0.0
 11
1004.4171639543210404
 21
130.0437831483490072
 31
0.0
  0
LINE
  5
C88E
  8
0
 10
1004.4171639543210404
 20
130.0354170065490109
 30
0.0
 11
1004.4171639543210404
 21
130.0437831483490072
 31
0.0
  0
LINE
  5
C88F
  8
0
 10
1004.4426219189209633
 20
130.0354170065490109
 30
0.0
 11
1004.4426219189209633
 21
130.0437831483490072
 31
0.0
  0
ARC
  5
C890
  8
0
 10
1004.3995075651610023
 20
130.0386776728003895
 30
0.0
 40
0.0179549442375811
 50
325.8708233216171948
 51
349.5368738469323944
  0
ARC
  5
C891
  8
0
 10
1004.4599486211479871
 20
130.0387784143320005
 30
0.0
 40
0.0176497499229873
 50
190.9790895334147933
 51
214.8435847675534944
  0
ARC
  5
C892
  8
0
 10
1004.4652178257100559
 20
130.053888764754106
 30
0.0
 40
0.0045705944923242
 50
203.7242931936200989
 51
250.1689389918547874
  0
ARC
  5
C893
  8
0
 10
1004.4607729690150109
 20
130.0598848553046025
 30
0.0
 40
0.0078393349926641
 50
225.053317672713689
 51
271.9043807664464225
  0
LINE
  5
C894
  8
0
 10
1004.4169564419539711
 20
130.0729446297490028
 30
0.0
 11
1004.4428294312880325
 21
130.0729446297490028
 31
0.0
  0
LINE
  5
C895
  8
0
 10
1004.4171639543210404
 20
130.0821278255490085
 30
0.0
 11
1004.4426219189209633
 21
130.0821278255490085
 31
0.0
  0
LINE
  5
C896
  8
0
 10
1004.4171639543210404
 20
130.0821278255490085
 30
0.0
 11
1004.4045509903869515
 21
130.1010472713988122
 31
0.0
  0
LINE
  5
C897
  8
0
 10
1004.4169564419539711
 20
130.1196554487490005
 30
0.0
 11
1004.4428294312880325
 21
130.1196554487490005
 31
0.0
  0
LINE
  5
C898
  8
0
 10
1004.4426219189209633
 20
130.0821278255490085
 30
0.0
 11
1004.4552348828540289
 21
130.1010472713988122
 31
0.0
  0
LINE
  5
C899
  8
0
 10
1004.451214198474986
 20
130.0776204455301865
 30
0.0
 11
1004.4636672609540256
 21
130.0963000392490017
 31
0.0
  0
LINE
  5
C89A
  8
0
 10
1004.4552348828540289
 20
130.1010472713994943
 30
0.0
 11
1004.4428294312880325
 21
130.1196554487490005
 31
0.0
  0
ARC
  5
C89B
  8
0
 10
1004.4406551353069972
 20
130.0779117959002917
 30
0.0
 40
0.0054222045870715
 50
293.6406152413779864
 51
332.4661525731166876
  0
ARC
  5
C89C
  8
0
 10
1004.4461176466260213
 20
130.0822790849333899
 30
0.0
 40
0.0069049085318957
 50
264.561427624321027
 51
317.5702931993454854
  0
LINE
  5
C89D
  8
0
 10
1004.4524461689369446
 20
130.1052303422740124
 30
0.0
 11
1004.4426219189209633
 21
130.0904939673490048
 31
0.0
  0
LINE
  5
C89E
  8
0
 10
1004.4426219189209633
 20
130.0904939673490048
 30
0.0
 11
1004.4171639543210404
 21
130.0904939673490048
 31
0.0
  0
LINE
  5
C89F
  8
0
 10
1004.4073397043040359
 20
130.1052303422740124
 30
0.0
 11
1004.4171639543210404
 21
130.0904939673490048
 31
0.0
  0
LINE
  5
C8A0
  8
0
 10
1004.4171639543210404
 20
130.0821278255490085
 30
0.0
 11
1004.4171639543210404
 21
130.0904939673490048
 31
0.0
  0
LINE
  5
C8A1
  8
0
 10
1004.4426219189209633
 20
130.0821278255490085
 30
0.0
 11
1004.4426219189209633
 21
130.0904939673490048
 31
0.0
  0
ARC
  5
C8A2
  8
0
 10
1004.3995075651610023
 20
130.0853884918003871
 30
0.0
 40
0.0179549442375811
 50
325.870823334390991
 51
349.5368738469323944
  0
ARC
  5
C8A3
  8
0
 10
1004.4599486211479871
 20
130.0854892333321118
 30
0.0
 40
0.0176497499229873
 50
190.9790895334147933
 51
214.8435847675534944
  0
ARC
  5
C8A4
  8
0
 10
1004.4652178257100559
 20
130.1005995837541036
 30
0.0
 40
0.0045705944923242
 50
203.7242931936200989
 51
250.1689389918547874
  0
ARC
  5
C8A5
  8
0
 10
1004.4607729690150109
 20
130.1065956743046002
 30
0.0
 40
0.0078393349926641
 50
225.053317672713689
 51
271.9043807664464225
  0
LINE
  5
C8A6
  8
0
 10
1004.4169564419539711
 20
130.1196554487490005
 30
0.0
 11
1004.4428294312880325
 21
130.1196554487490005
 31
0.0
  0
LINE
  5
C8A7
  8
0
 10
1004.4171639543210404
 20
130.1288386445490062
 30
0.0
 11
1004.4426219189209633
 21
130.1288386445490062
 31
0.0
  0
ARC
  5
C8A8
  8
0
 10
1004.4406551353069972
 20
130.1246226149002894
 30
0.0
 40
0.0054222045870715
 50
293.6406152413779864
 51
332.4661525731166876
  0
ARC
  5
C8A9
  8
0
 10
1004.4461176466260213
 20
130.1289899039333875
 30
0.0
 40
0.0069049085318957
 50
264.561427624321027
 51
317.5702931993454854
  0
ARC
  5
C8AA
  8
0
 10
1004.4599486211479871
 20
130.1322000523321094
 30
0.0
 40
0.0176497499229873
 50
190.9790895334147933
 51
214.8435847675534944
  0
LINE
  5
C8AB
  8
0
 10
1004.4636672609550487
 20
129.8160351251489999
 30
0.0
 11
1004.4895402502879733
 21
129.8160351251489999
 31
0.0
  0
LINE
  5
C8AC
  8
0
 10
1004.4638747733209811
 20
129.8252183209490056
 30
0.0
 11
1004.4893327379210177
 21
129.8252183209490056
 31
0.0
  0
LINE
  5
C8AD
  8
0
 10
1004.4638747733209811
 20
129.8252183209490056
 30
0.0
 11
1004.451261809387006
 21
129.8441377667986956
 31
0.0
  0
LINE
  5
C8AE
  8
0
 10
1004.4893327379210177
 20
129.8252183209490056
 30
0.0
 11
1004.5019457018539697
 21
129.8441377667986956
 31
0.0
  0
LINE
  5
C8AF
  8
0
 10
1004.4979250174750405
 20
129.820710940930212
 30
0.0
 11
1004.5103780799539663
 21
129.8393905346489987
 31
0.0
  0
LINE
  5
C8B0
  8
0
 10
1004.5019457018539697
 20
129.8441377667994914
 30
0.0
 11
1004.4895402502879733
 21
129.8627459441489975
 31
0.0
  0
ARC
  5
C8B1
  8
0
 10
1004.4873659543070517
 20
129.8210022913002888
 30
0.0
 40
0.0054222045870715
 50
293.6406152413779864
 51
332.4661525731166876
  0
ARC
  5
C8B2
  8
0
 10
1004.4928284656259621
 20
129.8253695803333869
 30
0.0
 40
0.0069049085318957
 50
264.561427624321027
 51
317.5702931993454854
  0
LINE
  5
C8B3
  8
0
 10
1004.4991569879380222
 20
129.8483208376740095
 30
0.0
 11
1004.4893327379210177
 21
129.8335844627490019
 31
0.0
  0
LINE
  5
C8B4
  8
0
 10
1004.4893327379210177
 20
129.8335844627490019
 30
0.0
 11
1004.4638747733209811
 21
129.8335844627490019
 31
0.0
  0
LINE
  5
C8B5
  8
0
 10
1004.4540505233039767
 20
129.8483208376740095
 30
0.0
 11
1004.4638747733209811
 21
129.8335844627490019
 31
0.0
  0
LINE
  5
C8B6
  8
0
 10
1004.4638747733209811
 20
129.8252183209490056
 30
0.0
 11
1004.4638747733209811
 21
129.8335844627490019
 31
0.0
  0
LINE
  5
C8B7
  8
0
 10
1004.4893327379210177
 20
129.8252183209490056
 30
0.0
 11
1004.4893327379210177
 21
129.8335844627490019
 31
0.0
  0
ARC
  5
C8B8
  8
0
 10
1004.4462183841610567
 20
129.8284789872004126
 30
0.0
 40
0.0179549442375811
 50
325.8708233216171948
 51
349.5368738469323944
  0
ARC
  5
C8B9
  8
0
 10
1004.5066594401480415
 20
129.8285797287319951
 30
0.0
 40
0.0176497499229873
 50
190.9790895334147933
 51
214.8435847675534944
  0
ARC
  5
C8BA
  8
0
 10
1004.5119286447099967
 20
129.8436900791541007
 30
0.0
 40
0.0045705944923242
 50
203.7242931936200989
 51
250.1689389918547874
  0
ARC
  5
C8BB
  8
0
 10
1004.5074837880149516
 20
129.8496861697045972
 30
0.0
 40
0.0078393349926641
 50
225.053317672713689
 51
271.9043807664464225
  0
LINE
  5
C8BC
  8
0
 10
1004.4636672609550487
 20
129.8627459441489975
 30
0.0
 11
1004.4895402502879733
 21
129.8627459441489975
 31
0.0
  0
LINE
  5
C8BD
  8
0
 10
1004.4638747733209811
 20
129.8719291399490032
 30
0.0
 11
1004.4893327379210177
 21
129.8719291399490032
 31
0.0
  0
LINE
  5
C8BE
  8
0
 10
1004.4638747733209811
 20
129.8719291399490032
 30
0.0
 11
1004.451261809387006
 21
129.8908485857988069
 31
0.0
  0
LINE
  5
C8BF
  8
0
 10
1004.4893327379210177
 20
129.8719291399490032
 30
0.0
 11
1004.5019457018539697
 21
129.8908485857988069
 31
0.0
  0
LINE
  5
C8C0
  8
0
 10
1004.4979250174750405
 20
129.8674217599302096
 30
0.0
 11
1004.5103780799539663
 21
129.8861013536489963
 31
0.0
  0
LINE
  5
C8C1
  8
0
 10
1004.5019457018539697
 20
129.890848585799489
 30
0.0
 11
1004.4895402502879733
 21
129.9094567631489952
 31
0.0
  0
ARC
  5
C8C2
  8
0
 10
1004.4873659543070517
 20
129.8677131103002864
 30
0.0
 40
0.0054222045870715
 50
293.6406152413779864
 51
332.4661525731166876
  0
ARC
  5
C8C3
  8
0
 10
1004.4928284656259621
 20
129.872080399333413
 30
0.0
 40
0.0069049085318957
 50
264.561427624321027
 51
317.5702931993454854
  0
LINE
  5
C8C4
  8
0
 10
1004.4991569879380222
 20
129.8950316566740071
 30
0.0
 11
1004.4893327379210177
 21
129.8802952817489995
 31
0.0
  0
LINE
  5
C8C5
  8
0
 10
1004.4893327379210177
 20
129.8802952817489995
 30
0.0
 11
1004.4638747733209811
 21
129.8802952817489995
 31
0.0
  0
LINE
  5
C8C6
  8
0
 10
1004.4540505233039767
 20
129.8950316566740071
 30
0.0
 11
1004.4638747733209811
 21
129.8802952817489995
 31
0.0
  0
LINE
  5
C8C7
  8
0
 10
1004.4638747733209811
 20
129.8719291399490032
 30
0.0
 11
1004.4638747733209811
 21
129.8802952817489995
 31
0.0
  0
LINE
  5
C8C8
  8
0
 10
1004.4893327379210177
 20
129.8719291399490032
 30
0.0
 11
1004.4893327379210177
 21
129.8802952817489995
 31
0.0
  0
ARC
  5
C8C9
  8
0
 10
1004.4462183841610567
 20
129.8751898062004102
 30
0.0
 40
0.0179549442375811
 50
325.8708233216171948
 51
349.5368738469323944
  0
ARC
  5
C8CA
  8
0
 10
1004.5066594401480415
 20
129.8752905477321065
 30
0.0
 40
0.0176497499229873
 50
190.9790895334147933
 51
214.8435847675534944
  0
ARC
  5
C8CB
  8
0
 10
1004.5119286447099967
 20
129.8904008981540983
 30
0.0
 40
0.0045705944923242
 50
203.7242931936200989
 51
250.1689389918547874
  0
ARC
  5
C8CC
  8
0
 10
1004.5074837880149516
 20
129.8963969887045948
 30
0.0
 40
0.0078393349926641
 50
225.053317672713689
 51
271.9043807664464225
  0
LINE
  5
C8CD
  8
0
 10
1004.4636672609550487
 20
129.9094567631489952
 30
0.0
 11
1004.4895402502879733
 21
129.9094567631489952
 31
0.0
  0
LINE
  5
C8CE
  8
0
 10
1004.4638747733209811
 20
129.9186399589490009
 30
0.0
 11
1004.4893327379210177
 21
129.9186399589490009
 31
0.0
  0
LINE
  5
C8CF
  8
0
 10
1004.4638747733209811
 20
129.9186399589490009
 30
0.0
 11
1004.451261809387006
 21
129.9375594047988045
 31
0.0
  0
LINE
  5
C8D0
  8
0
 10
1004.4893327379210177
 20
129.9186399589490009
 30
0.0
 11
1004.5019457018539697
 21
129.9375594047988045
 31
0.0
  0
LINE
  5
C8D1
  8
0
 10
1004.497972628436969
 20
129.9142039952984931
 30
0.0
 11
1004.5103780799539663
 21
129.932812172648994
 31
0.0
  0
LINE
  5
C8D2
  8
0
 10
1004.5019457018539697
 20
129.9375594047994866
 30
0.0
 11
1004.4895402502879733
 21
129.9561675821489928
 31
0.0
  0
ARC
  5
C8D3
  8
0
 10
1004.4873659543070517
 20
129.9144239293003125
 30
0.0
 40
0.0054222045870715
 50
293.6406152413779864
 51
332.4661525731166876
  0
ARC
  5
C8D4
  8
0
 10
1004.4928364151760434
 20
129.918733287804514
 30
0.0
 40
0.006848005349528
 50
264.4492763916127842
 51
318.5930248320324836
  0
LINE
  5
C8D5
  8
0
 10
1004.4991569879380222
 20
129.9417424756740047
 30
0.0
 11
1004.4893327379210177
 21
129.9270061007489971
 31
0.0
  0
LINE
  5
C8D6
  8
0
 10
1004.4893327379210177
 20
129.9270061007489971
 30
0.0
 11
1004.4638747733209811
 21
129.9270061007489971
 31
0.0
  0
LINE
  5
C8D7
  8
0
 10
1004.4540505233039767
 20
129.9417424756740047
 30
0.0
 11
1004.4638747733209811
 21
129.9270061007489971
 31
0.0
  0
LINE
  5
C8D8
  8
0
 10
1004.4638747733209811
 20
129.9186399589490009
 30
0.0
 11
1004.4638747733209811
 21
129.9270061007489971
 31
0.0
  0
LINE
  5
C8D9
  8
0
 10
1004.4893327379210177
 20
129.9186399589490009
 30
0.0
 11
1004.4893327379210177
 21
129.9270061007489971
 31
0.0
  0
ARC
  5
C8DA
  8
0
 10
1004.4462183841610567
 20
129.9219006252004078
 30
0.0
 40
0.0179549442375811
 50
325.8708233216171948
 51
349.5368738469323944
  0
ARC
  5
C8DB
  8
0
 10
1004.5066594401480415
 20
129.9220013667321041
 30
0.0
 40
0.0176497499229873
 50
190.9790895334147933
 51
214.8435847675534944
  0
ARC
  5
C8DC
  8
0
 10
1004.5119286447099967
 20
129.9371117171540959
 30
0.0
 40
0.0045705944923242
 50
203.7242931936200989
 51
250.1689389918547874
  0
ARC
  5
C8DD
  8
0
 10
1004.5074837880149516
 20
129.9431078077045925
 30
0.0
 40
0.0078393349926641
 50
225.053317672713689
 51
271.9043807664464225
  0
LINE
  5
C8DE
  8
0
 10
1004.4636672609550487
 20
129.9561675822490088
 30
0.0
 11
1004.4895402502879733
 21
129.9561675822490088
 31
0.0
  0
LINE
  5
C8DF
  8
0
 10
1004.4638747733209811
 20
129.9653507780489861
 30
0.0
 11
1004.4893327379210177
 21
129.9653507780489861
 31
0.0
  0
LINE
  5
C8E0
  8
0
 10
1004.4638747733209811
 20
129.9653507780489861
 30
0.0
 11
1004.451261809387006
 21
129.9842702238987897
 31
0.0
  0
LINE
  5
C8E1
  8
0
 10
1004.4893327379210177
 20
129.9653507780489861
 30
0.0
 11
1004.5019457018539697
 21
129.9842702238987897
 31
0.0
  0
LINE
  5
C8E2
  8
0
 10
1004.497972628436969
 20
129.9609148142984907
 30
0.0
 11
1004.5103780799539663
 21
129.9795229917490076
 31
0.0
  0
LINE
  5
C8E3
  8
0
 10
1004.5019457018539697
 20
129.9842702238995003
 30
0.0
 11
1004.4895402502879733
 21
130.0028784012490064
 31
0.0
  0
ARC
  5
C8E4
  8
0
 10
1004.4873659543070517
 20
129.9611347484002977
 30
0.0
 40
0.0054222045870715
 50
293.6406152413779864
 51
332.4661525731166876
  0
ARC
  5
C8E5
  8
0
 10
1004.4928364151350024
 20
129.9654441072084126
 30
0.0
 40
0.0068480056478724
 50
264.4492769846522719
 51
318.5930225287414146
  0
LINE
  5
C8E6
  8
0
 10
1004.4991569879380222
 20
129.9884532947739899
 30
0.0
 11
1004.4893327379210177
 21
129.9737169198490108
 31
0.0
  0
LINE
  5
C8E7
  8
0
 10
1004.4893327379210177
 20
129.9737169198490108
 30
0.0
 11
1004.4638747733209811
 21
129.9737169198490108
 31
0.0
  0
LINE
  5
C8E8
  8
0
 10
1004.4540505233039767
 20
129.9884532947739899
 30
0.0
 11
1004.4638747733209811
 21
129.9737169198490108
 31
0.0
  0
LINE
  5
C8E9
  8
0
 10
1004.4638747733209811
 20
129.9653507780489861
 30
0.0
 11
1004.4638747733209811
 21
129.9737169198490108
 31
0.0
  0
LINE
  5
C8EA
  8
0
 10
1004.4893327379210177
 20
129.9653507780489861
 30
0.0
 11
1004.4893327379210177
 21
129.9737169198490108
 31
0.0
  0
ARC
  5
C8EB
  8
0
 10
1004.4462183841610567
 20
129.968611444300393
 30
0.0
 40
0.0179549442375811
 50
325.8708233216171948
 51
349.5368738469323944
  0
ARC
  5
C8EC
  8
0
 10
1004.5066594401480415
 20
129.968712185832004
 30
0.0
 40
0.0176497499229873
 50
190.9790895334147933
 51
214.8435847675534944
  0
ARC
  5
C8ED
  8
0
 10
1004.5119286447099967
 20
129.9838225362541095
 30
0.0
 40
0.0045705944923242
 50
203.7242931936200989
 51
250.1689389918547874
  0
ARC
  5
C8EE
  8
0
 10
1004.5074837880149516
 20
129.9898186268046061
 30
0.0
 40
0.0078393349926641
 50
225.053317672713689
 51
271.9043807664464225
  0
LINE
  5
C8EF
  8
0
 10
1004.4636672609550487
 20
130.0028784012490064
 30
0.0
 11
1004.4895402502879733
 21
130.0028784012490064
 31
0.0
  0
LINE
  5
C8F0
  8
0
 10
1004.4638747733209811
 20
130.0120615970490121
 30
0.0
 11
1004.4893327379210177
 21
130.0120615970490121
 31
0.0
  0
LINE
  5
C8F1
  8
0
 10
1004.4638747733209811
 20
130.0120615970490121
 30
0.0
 11
1004.451261809387006
 21
130.0309810428987873
 31
0.0
  0
LINE
  5
C8F2
  8
0
 10
1004.4893327379210177
 20
130.0120615970490121
 30
0.0
 11
1004.5019457018539697
 21
130.0309810428987873
 31
0.0
  0
LINE
  5
C8F3
  8
0
 10
1004.497972628436969
 20
130.0076256333985043
 30
0.0
 11
1004.5103780799539663
 21
130.0262338107490052
 31
0.0
  0
LINE
  5
C8F4
  8
0
 10
1004.5019457018539697
 20
130.0309810428994979
 30
0.0
 11
1004.4895402502879733
 21
130.049589220249004
 31
0.0
  0
ARC
  5
C8F5
  8
0
 10
1004.4873659543070517
 20
130.0078455674002953
 30
0.0
 40
0.0054222045870715
 50
293.6406152413779864
 51
332.4661525731166876
  0
ARC
  5
C8F6
  8
0
 10
1004.4928364151760434
 20
130.0121549259046105
 30
0.0
 40
0.0068480053495306
 50
264.4492763916256877
 51
318.5930248320220244
  0
LINE
  5
C8F7
  8
0
 10
1004.4991569879380222
 20
130.0351641137739875
 30
0.0
 11
1004.4893327379210177
 21
130.0204277388490084
 31
0.0
  0
LINE
  5
C8F8
  8
0
 10
1004.4893327379210177
 20
130.0204277388490084
 30
0.0
 11
1004.4638747733209811
 21
130.0204277388490084
 31
0.0
  0
LINE
  5
C8F9
  8
0
 10
1004.4540505233039767
 20
130.0351641137739875
 30
0.0
 11
1004.4638747733209811
 21
130.0204277388490084
 31
0.0
  0
LINE
  5
C8FA
  8
0
 10
1004.4638747733209811
 20
130.0120615970490121
 30
0.0
 11
1004.4638747733209811
 21
130.0204277388490084
 31
0.0
  0
LINE
  5
C8FB
  8
0
 10
1004.4893327379210177
 20
130.0120615970490121
 30
0.0
 11
1004.4893327379210177
 21
130.0204277388490084
 31
0.0
  0
ARC
  5
C8FC
  8
0
 10
1004.4462183841610567
 20
130.0153222633003907
 30
0.0
 40
0.0179549442375811
 50
325.8708233216171948
 51
349.5368738469323944
  0
ARC
  5
C8FD
  8
0
 10
1004.5066594401480415
 20
130.0154230048320017
 30
0.0
 40
0.0176497499229873
 50
190.9790895334147933
 51
214.8435847675534944
  0
ARC
  5
C8FE
  8
0
 10
1004.5119286447099967
 20
130.0305333552541072
 30
0.0
 40
0.0045705944923242
 50
203.7242931936200989
 51
250.1689389918547874
  0
ARC
  5
C8FF
  8
0
 10
1004.5074837880149516
 20
130.0365294458046037
 30
0.0
 40
0.0078393349926641
 50
225.053317672713689
 51
271.9043807664464225
  0
LINE
  5
C900
  8
0
 10
1004.4636672609550487
 20
130.049589220249004
 30
0.0
 11
1004.4895402502879733
 21
130.049589220249004
 31
0.0
  0
LINE
  5
C901
  8
0
 10
1004.4638747733209811
 20
130.0587724160490097
 30
0.0
 11
1004.4893327379210177
 21
130.0587724160490097
 31
0.0
  0
LINE
  5
C902
  8
0
 10
1004.4638747733209811
 20
130.0587724160490097
 30
0.0
 11
1004.451261809387006
 21
130.0776918618988134
 31
0.0
  0
LINE
  5
C903
  8
0
 10
1004.4893327379210177
 20
130.0587724160490097
 30
0.0
 11
1004.5019457018539697
 21
130.0776918618988134
 31
0.0
  0
LINE
  5
C904
  8
0
 10
1004.4979250174750405
 20
130.0542650360301877
 30
0.0
 11
1004.5103780799539663
 21
130.0729446297490028
 31
0.0
  0
LINE
  5
C905
  8
0
 10
1004.5019457018539697
 20
130.0776918618994955
 30
0.0
 11
1004.4895402502879733
 21
130.0963000392490017
 31
0.0
  0
ARC
  5
C906
  8
0
 10
1004.4873659543070517
 20
130.0545563864002929
 30
0.0
 40
0.0054222045870715
 50
293.6406152413779864
 51
332.4661525731166876
  0
ARC
  5
C907
  8
0
 10
1004.4928284656259621
 20
130.0589236754333911
 30
0.0
 40
0.0069049085318957
 50
264.561427624321027
 51
317.5702931993454854
  0
LINE
  5
C908
  8
0
 10
1004.4991569879380222
 20
130.0818749327740136
 30
0.0
 11
1004.4893327379210177
 21
130.067138557849006
 31
0.0
  0
LINE
  5
C909
  8
0
 10
1004.4893327379210177
 20
130.067138557849006
 30
0.0
 11
1004.4638747733209811
 21
130.067138557849006
 31
0.0
  0
LINE
  5
C90A
  8
0
 10
1004.4540505233039767
 20
130.0818749327740136
 30
0.0
 11
1004.4638747733209811
 21
130.067138557849006
 31
0.0
  0
LINE
  5
C90B
  8
0
 10
1004.4638747733209811
 20
130.0587724160490097
 30
0.0
 11
1004.4638747733209811
 21
130.067138557849006
 31
0.0
  0
LINE
  5
C90C
  8
0
 10
1004.4893327379210177
 20
130.0587724160490097
 30
0.0
 11
1004.4893327379210177
 21
130.067138557849006
 31
0.0
  0
ARC
  5
C90D
  8
0
 10
1004.4462183841610567
 20
130.0620330823003883
 30
0.0
 40
0.0179549442375811
 50
325.8708233216171948
 51
349.5368738469323944
  0
ARC
  5
C90E
  8
0
 10
1004.5066594401480415
 20
130.0621338238319993
 30
0.0
 40
0.0176497499229873
 50
190.9790895334147933
 51
214.8435847675534944
  0
ARC
  5
C90F
  8
0
 10
1004.5119286447099967
 20
130.0772441742541048
 30
0.0
 40
0.0045705944923242
 50
203.7242931936200989
 51
250.1689389918547874
  0
ARC
  5
C910
  8
0
 10
1004.5074837880149516
 20
130.0832402648046013
 30
0.0
 40
0.0078393349926641
 50
225.053317672713689
 51
271.9043807664464225
  0
LINE
  5
C911
  8
0
 10
1004.5103780800050117
 20
129.8861013536489963
 30
0.0
 11
1004.53625106933805
 21
129.8861013536489963
 31
0.0
  0
LINE
  5
C912
  8
0
 10
1004.5105855923709441
 20
129.895284549449002
 30
0.0
 11
1004.5360435569709807
 21
129.895284549449002
 31
0.0
  0
LINE
  5
C913
  8
0
 10
1004.5105855923709441
 20
129.895284549449002
 30
0.0
 11
1004.497972628436969
 21
129.9142039952988057
 31
0.0
  0
LINE
  5
C914
  8
0
 10
1004.5360435569709807
 20
129.895284549449002
 30
0.0
 11
1004.5486565209040464
 21
129.9142039952988057
 31
0.0
  0
LINE
  5
C915
  8
0
 10
1004.5446358365250035
 20
129.8907771694302085
 30
0.0
 11
1004.557088899004043
 21
129.9094567631489952
 31
0.0
  0
LINE
  5
C916
  8
0
 10
1004.5486565209040464
 20
129.9142039952994878
 30
0.0
 11
1004.53625106933805
 21
129.932812172648994
 31
0.0
  0
ARC
  5
C917
  8
0
 10
1004.5340767733570146
 20
129.8910685198003137
 30
0.0
 40
0.0054222045870715
 50
293.6406152413779864
 51
332.4661525731166876
  0
ARC
  5
C918
  8
0
 10
1004.5395392846760387
 20
129.8954358088334118
 30
0.0
 40
0.0069049085318957
 50
264.561427624321027
 51
317.5702931993454854
  0
LINE
  5
C919
  8
0
 10
1004.5458678069879852
 20
129.9183870661740059
 30
0.0
 11
1004.5360435569709807
 21
129.9036506912489983
 31
0.0
  0
LINE
  5
C91A
  8
0
 10
1004.5360435569709807
 20
129.9036506912489983
 30
0.0
 11
1004.5105855923709441
 21
129.9036506912489983
 31
0.0
  0
LINE
  5
C91B
  8
0
 10
1004.5007613423540533
 20
129.9183870661740059
 30
0.0
 11
1004.5105855923709441
 21
129.9036506912489983
 31
0.0
  0
LINE
  5
C91C
  8
0
 10
1004.5105855923709441
 20
129.895284549449002
 30
0.0
 11
1004.5105855923709441
 21
129.9036506912489983
 31
0.0
  0
LINE
  5
C91D
  8
0
 10
1004.5360435569709807
 20
129.895284549449002
 30
0.0
 11
1004.5360435569709807
 21
129.9036506912489983
 31
0.0
  0
ARC
  5
C91E
  8
0
 10
1004.4929292032110197
 20
129.898545215700409
 30
0.0
 40
0.0179549442375811
 50
325.8708233216171948
 51
349.5368738469323944
  0
ARC
  5
C91F
  8
0
 10
1004.5533702591980045
 20
129.8986459572321053
 30
0.0
 40
0.0176497499229873
 50
190.9790895334147933
 51
214.8435847675534944
  0
ARC
  5
C920
  8
0
 10
1004.5586394637599597
 20
129.9137563076540971
 30
0.0
 40
0.0045705944923242
 50
203.7242931936200989
 51
250.1689389918547874
  0
ARC
  5
C921
  8
0
 10
1004.5541946070650283
 20
129.9197523982045936
 30
0.0
 40
0.0078393349926641
 50
225.053317672713689
 51
271.9043807664464225
  0
LINE
  5
C922
  8
0
 10
1004.5103780800050117
 20
129.932812172648994
 30
0.0
 11
1004.53625106933805
 21
129.932812172648994
 31
0.0
  0
LINE
  5
C923
  8
0
 10
1004.5105855923709441
 20
129.9419953684489997
 30
0.0
 11
1004.5360435569709807
 21
129.9419953684489997
 31
0.0
  0
LINE
  5
C924
  8
0
 10
1004.5105855923709441
 20
129.9419953684489997
 30
0.0
 11
1004.497972628436969
 21
129.9609148142986896
 31
0.0
  0
LINE
  5
C925
  8
0
 10
1004.5360435569709807
 20
129.9419953684489997
 30
0.0
 11
1004.5486565209040464
 21
129.9609148142986896
 31
0.0
  0
LINE
  5
C926
  8
0
 10
1004.5446358365250035
 20
129.9374879884302061
 30
0.0
 11
1004.557088899004043
 21
129.9561675821489928
 31
0.0
  0
LINE
  5
C927
  8
0
 10
1004.5486565209040464
 20
129.9609148142994002
 30
0.0
 11
1004.53625106933805
 21
129.9795229916489916
 31
0.0
  0
ARC
  5
C928
  8
0
 10
1004.5340767733570146
 20
129.9377793388003113
 30
0.0
 40
0.0054222045870715
 50
293.6406152413779864
 51
332.4661525731166876
  0
ARC
  5
C929
  8
0
 10
1004.5395392846760387
 20
129.9421466278334094
 30
0.0
 40
0.0069049085318957
 50
264.561427624321027
 51
317.5702931993454854
  0
LINE
  5
C92A
  8
0
 10
1004.5458678069879852
 20
129.9650978851740035
 30
0.0
 11
1004.5360435569709807
 21
129.950361510248996
 31
0.0
  0
LINE
  5
C92B
  8
0
 10
1004.5360435569709807
 20
129.950361510248996
 30
0.0
 11
1004.5105855923709441
 21
129.950361510248996
 31
0.0
  0
LINE
  5
C92C
  8
0
 10
1004.5007613423540533
 20
129.9650978851740035
 30
0.0
 11
1004.5105855923709441
 21
129.950361510248996
 31
0.0
  0
LINE
  5
C92D
  8
0
 10
1004.5105855923709441
 20
129.9419953684489997
 30
0.0
 11
1004.5105855923709441
 21
129.950361510248996
 31
0.0
  0
LINE
  5
C92E
  8
0
 10
1004.5360435569709807
 20
129.9419953684489997
 30
0.0
 11
1004.5360435569709807
 21
129.950361510248996
 31
0.0
  0
ARC
  5
C92F
  8
0
 10
1004.4929292032110197
 20
129.945256034700293
 30
0.0
 40
0.0179549442375811
 50
325.8708233216171948
 51
349.5368738469323944
  0
ARC
  5
C930
  8
0
 10
1004.5533702591980045
 20
129.9453567762319892
 30
0.0
 40
0.0176497499229873
 50
190.9790895334147933
 51
214.8435847675534944
  0
ARC
  5
C931
  8
0
 10
1004.5586394637599597
 20
129.9604671266540947
 30
0.0
 40
0.0045705944923242
 50
203.7242931936200989
 51
250.1689389918547874
  0
ARC
  5
C932
  8
0
 10
1004.5541946070650283
 20
129.9664632172045913
 30
0.0
 40
0.0078393349926641
 50
225.053317672713689
 51
271.9043807664464225
  0
LINE
  5
C933
  8
0
 10
1004.5103780800050117
 20
129.9795229917490076
 30
0.0
 11
1004.53625106933805
 21
129.9795229917490076
 31
0.0
  0
LINE
  5
C934
  8
0
 10
1004.5105855923709441
 20
129.9887061875490133
 30
0.0
 11
1004.5360435569709807
 21
129.9887061875490133
 31
0.0
  0
LINE
  5
C935
  8
0
 10
1004.5105855923709441
 20
129.9887061875490133
 30
0.0
 11
1004.497972628436969
 21
130.0076256333987885
 31
0.0
  0
LINE
  5
C936
  8
0
 10
1004.5360435569709807
 20
129.9887061875490133
 30
0.0
 11
1004.5486565209040464
 21
130.0076256333987885
 31
0.0
  0
LINE
  5
C937
  8
0
 10
1004.5446358365250035
 20
129.9841988075301913
 30
0.0
 11
1004.557088899004043
 21
130.0028784012490064
 31
0.0
  0
LINE
  5
C938
  8
0
 10
1004.5486565209040464
 20
130.0076256333994991
 30
0.0
 11
1004.53625106933805
 21
130.0262338107490052
 31
0.0
  0
ARC
  5
C939
  8
0
 10
1004.5340767733570146
 20
129.9844901579002965
 30
0.0
 40
0.0054222045870715
 50
293.6406152413779864
 51
332.4661525731166876
  0
ARC
  5
C93A
  8
0
 10
1004.5395392846760387
 20
129.9888574469333946
 30
0.0
 40
0.0069049085318957
 50
264.561427624321027
 51
317.5702931993454854
  0
LINE
  5
C93B
  8
0
 10
1004.5458678069879852
 20
130.0118087042739887
 30
0.0
 11
1004.5360435569709807
 21
129.9970723293490096
 31
0.0
  0
LINE
  5
C93C
  8
0
 10
1004.5360435569709807
 20
129.9970723293490096
 30
0.0
 11
1004.5105855923709441
 21
129.9970723293490096
 31
0.0
  0
LINE
  5
C93D
  8
0
 10
1004.5007613423540533
 20
130.0118087042739887
 30
0.0
 11
1004.5105855923709441
 21
129.9970723293490096
 31
0.0
  0
LINE
  5
C93E
  8
0
 10
1004.5105855923709441
 20
129.9887061875490133
 30
0.0
 11
1004.5105855923709441
 21
129.9970723293490096
 31
0.0
  0
LINE
  5
C93F
  8
0
 10
1004.5360435569709807
 20
129.9887061875490133
 30
0.0
 11
1004.5360435569709807
 21
129.9970723293490096
 31
0.0
  0
ARC
  5
C940
  8
0
 10
1004.4929292032110197
 20
129.9919668538003918
 30
0.0
 40
0.0179549442375811
 50
325.8708233216171948
 51
349.5368738469323944
  0
ARC
  5
C941
  8
0
 10
1004.5533702591980045
 20
129.9920675953320028
 30
0.0
 40
0.0176497499229873
 50
190.9790895334147933
 51
214.8435847675534944
  0
ARC
  5
C942
  8
0
 10
1004.5586394637599597
 20
130.0071779457541084
 30
0.0
 40
0.0045705944923242
 50
203.7242931936200989
 51
250.1689389918547874
  0
ARC
  5
C943
  8
0
 10
1004.5541946070650283
 20
130.0131740363046049
 30
0.0
 40
0.0078393349926641
 50
225.053317672713689
 51
271.9043807664464225
  0
LINE
  5
C944
  8
0
 10
1004.4635631867910206
 20
130.09614392800421
 30
0.0
 11
1004.4895402502879733
 21
130.0963000392490017
 31
0.0
  0
LINE
  5
C945
  8
0
 10
1004.4638747733209811
 20
130.1054832351489949
 30
0.0
 11
1004.4893518788170468
 21
130.1054832351489949
 31
0.0
  0
ARC
  5
C946
  8
0
 10
1004.3344110893359584
 20
129.8788090788748093
 30
0.0
 40
0.2758645629867169
 50
68.1940508694680716
 51
89.5721001893936943
  0
ARC
  5
C947
  8
0
 10
1004.3484761682290127
 20
129.9159775889856974
 30
0.0
 40
0.2361320727082801
 50
39.0144695006009314
 51
68.0125322064325246
  0
ARC
  5
C948
  8
0
 10
1004.3903082604830388
 20
129.9498700447788053
 30
0.0
 40
0.1822932159035314
 50
9.6331093330169661
 51
39.0144695006009314
  0
ARC
  5
C949
  8
0
 10
1004.3908054169130537
 20
129.9499544280324983
 30
0.0
 40
0.1817889490604703
 50
328.0683383391875054
 51
9.6331093330153639
  0
ARC
  5
C94A
  8
0
 10
1004.3576307921240414
 20
129.9706292570139112
 30
0.0
 40
0.2208786444195776
 50
289.4077052269697106
 51
328.0683383391875054
  0
ARC
  5
C94B
  8
0
 10
1004.3306768104549747
 20
130.0471363950861985
 30
0.0
 40
0.3019949763374719
 50
271.0994225632007897
 51
289.4077052269697106
  0
ARC
  5
C94C
  8
0
 10
1004.3367576386999644
 20
129.8948765437367001
 30
0.0
 40
0.2731361760010753
 50
43.5558196824115598
 51
90.0600655732782229
  0
ARC
  5
C94D
  8
0
 10
1004.3940826197859906
 20
129.9504789638174032
 30
0.0
 40
0.1932807457576402
 50
5.1703129703963757
 51
43.320192776234002
  0
ARC
  5
C94E
  8
0
 10
1004.3928181004249609
 20
129.9503645441293997
 30
0.0
 40
0.1945504311831768
 50
327.4873894803412782
 51
5.1703129703963757
  0
ARC
  5
C94F
  8
0
 10
1004.335150336242009
 20
130.0001227977573137
 30
0.0
 40
0.2701470250368904
 50
270.2801654797723927
 51
325.1613351696991003
  0
ARC
  5
C950
  8
0
 10
1004.3362437518350134
 20
129.897468465496388
 30
0.0
 40
0.2868581649662704
 50
43.4687100947572276
 51
89.9545508144176438
  0
ARC
  5
C951
  8
0
 10
1004.4125418924719497
 20
129.9626822395607064
 30
0.0
 40
0.1866917671570205
 50
359.2129443102593882
 51
45.0528352371520313
  0
ARC
  5
C952
  8
0
 10
1004.3954328674190037
 20
129.9559927887246999
 30
0.0
 40
0.2038249234366003
 50
334.8351561787093829
 51
1.159628744803028
  0
ARC
  5
C953
  8
0
 10
1004.36305476017003
 20
129.9739072986224073
 30
0.0
 40
0.2407600720991577
 50
295.4400074309248794
 51
334.2529879153294132
  0
ARC
  5
C954
  8
0
 10
1004.333580954399963
 20
130.0358672946196918
 30
0.0
 40
0.3093730907657359
 50
270.5352984449365863
 51
295.4400074309248794
  0
ARC
  5
C955
  8
0
 10
1004.3358010422789448
 20
129.8614068540767903
 30
0.0
 40
0.3352978671433167
 50
44.4589216526828395
 51
89.885466360082944
  0
ARC
  5
C956
  8
0
 10
1004.4090643531139904
 20
129.9342998924591939
 30
0.0
 40
0.2319529567274934
 50
8.8908596964488833
 51
44.2825150142279895
  0
ARC
  5
C957
  8
0
 10
1004.4012411264160392
 20
129.9330760864507965
 30
0.0
 40
0.2398713263267976
 50
329.6894017669990831
 51
8.8908596964488833
  0
ARC
  5
C958
  8
0
 10
1004.36987005317701
 20
129.9514156466896964
 30
0.0
 40
0.2762097867498875
 50
289.3767188946118267
 51
329.6894017669990831
  0
ARC
  5
C959
  8
0
 10
1004.3244957433070113
 20
130.0804302828287007
 30
0.0
 40
0.4129709081781612
 50
271.66172717065092
 51
289.3767188946118267
  0
ARC
  5
C95A
  8
0
 10
1004.3352038997929867
 20
130.0449073780347078
 30
0.0
 40
0.3396188930408131
 50
270.2138184065025825
 51
310.3023751812900741
  0
ARC
  5
C95B
  8
0
 10
1004.4054820147390501
 20
129.9644644884564002
 30
0.0
 40
0.232817676232815
 50
309.9172729529685171
 51
1.3990484476109859
  0
ARC
  5
C95C
  8
0
 10
1004.3976647305270262
 20
129.9821710626659979
 30
0.0
 40
0.2198677791422743
 50
315.7133721022353257
 51
21.4669917213669414
  0
ARC
  5
C95D
  8
0
 10
1004.4038317332940551
 20
129.9900576594314998
 30
0.0
 40
0.2092122147345793
 50
332.5331178872917803
 51
22.4763229195644705
  0
ARC
  5
C95E
  8
0
 10
1004.3920883398319575
 20
129.9817676040665049
 30
0.0
 40
0.2071834274778399
 50
357.1825516082056993
 51
45.4670175204372669
  0
ARC
  5
C95F
  8
0
 10
1004.3282609030629828
 20
129.8271026752047135
 30
0.0
 40
0.4295052774841486
 50
43.5737393654133527
 51
88.9046708081289552
  0
ARC
  5
C960
  8
0
 10
1004.4114247941020039
 20
129.9280806937852901
 30
0.0
 40
0.3000691844307401
 50
0.7044502708900117
 51
40.5490535737626772
  0
ARC
  5
C961
  8
0
 10
1004.3791728866730182
 20
129.9499679426886871
 30
0.0
 40
0.3327963367031186
 50
309.3965647507155836
 51
356.8653837219629281
  0
ARC
  5
C962
  8
0
 10
1004.3306336692289733
 20
130.042997284105212
 30
0.0
 40
0.4360259457698647
 50
270.767113798417995
 51
306.5656796997931792
  0
LINE
  5
C963
  8
0
 10
1004.5449229966959592
 20
129.8730934626690896
 30
0.0
 11
1004.5337542878329486
 21
129.8569398723010977
 31
0.0
  0
LINE
  5
C964
  8
0
 10
1004.5337542878329486
 20
129.8569398723010977
 30
0.0
 11
1004.5105855923210356
 21
129.8569398722490007
 31
0.0
  0
LINE
  5
C965
  8
0
 10
1004.5105855923210356
 20
129.8569398722490007
 30
0.0
 11
1004.5007613423880457
 21
129.8716762472994048
 31
0.0
  0
LINE
  5
C966
  8
0
 10
1004.5337542877939541
 20
129.8569398722490007
 30
0.0
 11
1004.5337542877939541
 21
129.848573730548992
 31
0.0
  0
LINE
  5
C967
  8
0
 10
1004.5337542877939541
 20
129.848573730548992
 30
0.0
 11
1004.5105855923210356
 21
129.848573730548992
 31
0.0
  0
LINE
  5
C968
  8
0
 10
1004.5105855923210356
 20
129.848573730548992
 30
0.0
 11
1004.4979250174750405
 21
129.8674217599304086
 31
0.0
  0
LINE
  5
C969
  8
0
 10
1004.5103780799539663
 20
129.8393905346489987
 30
0.0
 11
1004.5275240814989957
 21
129.8393905346489987
 31
0.0
  0
ARC
  5
C96A
  8
0
 10
1004.5193302520799534
 20
129.851654514155797
 30
0.0
 40
0.0147493740166238
 50
303.7477399933591755
 51
347.9435352650880873
  0
LINE
  5
C96B
  8
0
 10
1004.5105855923210356
 20
129.848573730548992
 30
0.0
 11
1004.5105855923210356
 21
129.8569398722490007
 31
0.0
  0
LINE
  5
C96C
  8
0
 10
1004.5568527185339462
 20
129.9660163172827936
 30
0.0
 11
1004.5718834048469716
 21
129.9660163172827936
 31
0.0
  0
LINE
  5
C96D
  8
0
 10
1004.5568527185339462
 20
129.9660163172827936
 30
0.0
 11
1004.5446358365250035
 21
129.9841988075301913
 31
0.0
  0
LINE
  5
C96E
  8
0
 10
1004.5709456214740385
 20
129.9743824590827899
 30
0.0
 11
1004.5568527185339462
 21
129.9743824590827899
 31
0.0
  0
LINE
  5
C96F
  8
0
 10
1004.5474721613479687
 20
129.9884532947656055
 30
0.0
 11
1004.5568527185339462
 21
129.9743824590827899
 31
0.0
  0
LINE
  5
C970
  8
0
 10
1004.5568527185339462
 20
129.9660163172827936
 30
0.0
 11
1004.5568527185339462
 21
129.9743824590827899
 31
0.0
  0
LINE
  5
C971
  8
0
 10
1004.5568527185339462
 20
129.919305498282796
 30
0.0
 11
1004.5699920936090166
 21
129.919305498282796
 31
0.0
  0
LINE
  5
C972
  8
0
 10
1004.5568527185339462
 20
129.919305498282796
 30
0.0
 11
1004.5446358365250035
 21
129.9374879884304903
 31
0.0
  0
LINE
  5
C973
  8
0
 10
1004.5712235406190302
 20
129.9276716400827922
 30
0.0
 11
1004.5568527185339462
 21
129.9276716400827922
 31
0.0
  0
LINE
  5
C974
  8
0
 10
1004.5474721613819611
 20
129.9417424757156141
 30
0.0
 11
1004.5568527185339462
 21
129.9276716400827922
 31
0.0
  0
LINE
  5
C975
  8
0
 10
1004.5568527185339462
 20
129.919305498282796
 30
0.0
 11
1004.5568527185339462
 21
129.9276716400827922
 31
0.0
  0
LINE
  5
C976
  8
0
 10
1004.5528341367579515
 20
129.878622551907597
 30
0.0
 11
1004.5580148228949611
 21
129.878622551907597
 31
0.0
  0
LINE
  5
C977
  8
0
 10
1004.5528341367579515
 20
129.878622551907597
 30
0.0
 11
1004.5446358365250035
 21
129.8907771694304074
 31
0.0
  0
LINE
  5
C978
  8
0
 10
1004.5613414491799631
 20
129.8869886937075933
 30
0.0
 11
1004.5528341367579515
 21
129.8869886937075933
 31
0.0
  0
LINE
  5
C979
  8
0
 10
1004.5474721613819611
 20
129.8950316567164975
 30
0.0
 11
1004.5528341367579515
 21
129.8869886937075933
 31
0.0
  0
LINE
  5
C97A
  8
0
 10
1004.5528341367579515
 20
129.878622551907597
 30
0.0
 11
1004.5528341367579515
 21
129.8869886937075933
 31
0.0
  0
LINE
  5
C97B
  8
0
 10
1004.5019457018539697
 20
130.0309810428994979
 30
0.0
 11
1004.4895402502879733
 21
130.049589220249004
 31
0.0
  0
LINE
  5
C97C
  8
0
 10
1004.5103780800050117
 20
130.0262338107490052
 30
0.0
 11
1004.53625106933805
 21
130.0262338107490052
 31
0.0
  0
LINE
  5
C97D
  8
0
 10
1004.5105855923709441
 20
130.0354170065490109
 30
0.0
 11
1004.5360435569709807
 21
130.0354170065490109
 31
0.0
  0
LINE
  5
C97E
  8
0
 10
1004.5105855923709441
 20
130.0354170065490109
 30
0.0
 11
1004.497972628436969
 21
130.0543364523987862
 31
0.0
  0
LINE
  5
C97F
  8
0
 10
1004.5360435569709807
 20
130.0354170065490109
 30
0.0
 11
1004.5441782094650307
 21
130.0476189852575999
 31
0.0
  0
LINE
  5
C980
  8
0
 10
1004.5446358365250035
 20
130.0309096265301889
 30
0.0
 11
1004.5496465886129727
 21
130.0384257546627964
 31
0.0
  0
LINE
  5
C981
  8
0
 10
1004.54141439858995
 20
130.0518394107224083
 30
0.0
 11
1004.5360435569709807
 21
130.0437831483490072
 31
0.0
  0
LINE
  5
C982
  8
0
 10
1004.5360435569709807
 20
130.0437831483490072
 30
0.0
 11
1004.5105855923709441
 21
130.0437831483490072
 31
0.0
  0
LINE
  5
C983
  8
0
 10
1004.5007613423540533
 20
130.0585195232739864
 30
0.0
 11
1004.5105855923709441
 21
130.0437831483490072
 31
0.0
  0
LINE
  5
C984
  8
0
 10
1004.5105855923709441
 20
130.0354170065490109
 30
0.0
 11
1004.5105855923709441
 21
130.0437831483490072
 31
0.0
  0
LINE
  5
C985
  8
0
 10
1004.5360435569709807
 20
130.0354170065490109
 30
0.0
 11
1004.5360435569709807
 21
130.0437831483490072
 31
0.0
  0
ARC
  5
C986
  8
0
 10
1004.4929292032110197
 20
130.0386776728003895
 30
0.0
 40
0.0179549442375811
 50
325.8708233216171948
 51
349.5368738469323944
  0
ARC
  5
C987
  8
0
 10
1004.5533702591980045
 20
130.0387784143320005
 30
0.0
 40
0.0176497499229873
 50
190.9790895334147933
 51
214.8435847675534944
  0
ARC
  5
C988
  8
0
 10
1004.5340767733570146
 20
130.0312009769002941
 30
0.0
 40
0.0054222045870715
 50
293.6406152413779864
 51
332.4661525731166876
  0
ARC
  5
C989
  8
0
 10
1004.5395392846760387
 20
130.0355682659333922
 30
0.0
 40
0.0069049085318957
 50
264.561427624321027
 51
317.5702931993454854
  0
ARC
  5
C98A
  8
0
 10
1004.5452216320339858
 20
129.9189969456813003
 30
0.0
 40
0.0116351784638466
 50
322.5216918395631751
 51
1.5196014953072821
  0
LINE
  5
C98B
  8
0
 10
1004.557088899004043
 20
129.9094567631489952
 30
0.0
 11
1004.5680260735509819
 21
129.9094567631489952
 31
0.0
  0
LINE
  5
C98C
  8
0
 10
1004.53625106933805
 20
129.8861013536489963
 30
0.0
 11
1004.5477314651210463
 21
129.8688807600489952
 31
0.0
  0
ARC
  5
C98D
  8
0
 10
1004.5396698960860249
 20
129.879310609543495
 30
0.0
 40
0.0131822098221461
 50
307.7016001132918177
 51
357.0080341772869019
  0
ARC
  5
C98E
  8
0
 10
1004.4946924005259916
 20
129.8513292653869939
 30
0.0
 40
0.0161302981272603
 50
324.013392420148989
 51
350.1639338825793857
  0
LINE
  5
C98F
  8
0
 10
1004.557088899004043
 20
129.9561675821489928
 30
0.0
 11
1004.5724881588459994
 21
129.9561675821489928
 31
0.0
  0
ARC
  5
C990
  8
0
 10
1004.5468008812299558
 20
129.9651952646046027
 30
0.0
 40
0.0100853141096811
 50
319.3716347948721932
 51
4.6696585413902616
  0
LINE
  5
C991
  8
0
 10
1004.557088899004043
 20
130.0028784012490064
 30
0.0
 11
1004.5647242308200475
 21
130.0028784012490064
 31
0.0
  0
LINE
  5
C992
  8
0
 10
1004.5446358365250035
 20
130.0309096265303879
 30
0.0
 11
1004.5572964114210208
 21
130.0120615971489997
 31
0.0
  0
LINE
  5
C993
  8
0
 10
1004.5572964114210208
 20
130.0120615971489997
 30
0.0
 11
1004.5616646942060015
 21
130.0120615971489997
 31
0.0
  0
LINE
  5
C994
  8
0
 10
1004.5474721614129976
 20
130.0351641138618959
 30
0.0
 11
1004.5572964114210208
 21
130.0204277388490084
 31
0.0
  0
LINE
  5
C995
  8
0
 10
1004.5572964114210208
 20
130.0204277388490084
 30
0.0
 11
1004.5583928474379718
 21
130.0204277388490084
 31
0.0
  0
LINE
  5
C996
  8
0
 10
1004.5572964114210208
 20
130.0120615971489997
 30
0.0
 11
1004.5572964114210208
 21
130.0204277388490084
 31
0.0
  0
ARC
  5
C997
  8
0
 10
1004.5439604056830376
 20
130.0137363380702027
 30
0.0
 40
0.0134407516975459
 50
321.3350823909636915
 51
352.8422431886717163
  0
LINE
  5
C998
  8
0
 10
1004.5021213721020104
 20
130.0948241560236056
 30
0.0
 11
1004.5105855923210356
 21
130.0821278256489961
 31
0.0
  0
LINE
  5
C999
  8
0
 10
1004.5105855923210356
 20
130.0821278256489961
 30
0.0
 11
1004.5159213774229556
 21
130.0821278256489961
 31
0.0
  0
LINE
  5
C99A
  8
0
 10
1004.4554477538670199
 20
130.1264899060304003
 30
0.0
 11
1004.4638747733209811
 21
130.1138493768490036
 31
0.0
  0
LINE
  5
C99B
  8
0
 10
1004.4638747733209811
 20
130.1138493768490036
 30
0.0
 11
1004.4773369897740167
 21
130.1138493768490036
 31
0.0
  0
LINE
  5
C99C
  8
0
 10
1004.451214198474986
 20
130.1243312645304115
 30
0.0
 11
1004.4638747733209811
 21
130.1054832351489949
 31
0.0
  0
LINE
  5
C99D
  8
0
 10
1004.4426219189209633
 20
130.1288386445490062
 30
0.0
 11
1004.4426219189209633
 21
130.1325299692269084
 31
0.0
  0
LINE
  5
C99E
  8
0
 10
1004.4426219189209633
 20
130.1288386445490062
 30
0.0
 11
1004.4442663644399545
 21
130.1318076009658
 31
0.0
  0
LINE
  5
C99F
  8
0
 10
1004.451214198474986
 20
130.1243312645304115
 30
0.0
 11
1004.4536108585440388
 21
130.1274132828833103
 31
0.0
  0
LINE
  5
C9A0
  8
0
 10
1004.4638747733209811
 20
130.1054832351489949
 30
0.0
 11
1004.4638747733209811
 21
130.1138493768490036
 31
0.0
  0
ARC
  5
C9A1
  8
0
 10
1004.4556183080760547
 20
130.1050111095777027
 30
0.0
 40
0.0082699528960896
 50
310.9045726971963859
 51
3.272753605494044
  0
ARC
  5
C9A2
  8
0
 10
1004.4851900861129934
 20
130.1035961840530888
 30
0.0
 40
0.0084945663424931
 50
300.8045709655830819
 51
325.3021968375012989
  0
ARC
  5
C9A3
  8
0
 10
1004.4917892740890011
 20
130.1066627743809079
 30
0.0
 40
0.0079114665609993
 50
272.7875375204069996
 51
304.4748397908140873
  0
ARC
  5
C9A4
  8
0
 10
1004.5042834998580474
 20
130.1077979107994054
 30
0.0
 40
0.0151099646020629
 50
188.811761169568598
 51
216.7338076962506079
  0
LINE
  5
C9A5
  8
0
 10
1004.5103780799539663
 20
130.0729446297490028
 30
0.0
 11
1004.5248839454829977
 21
130.0729446297490028
 31
0.0
  0
LINE
  5
C9A6
  8
0
 10
1004.5105855923210356
 20
130.0821278256489961
 30
0.0
 11
1004.5105855923210356
 21
130.0876717658871939
 31
0.0
  0
ARC
  5
C9A7
  8
0
 10
1004.5023325195420512
 20
130.0816542662529116
 30
0.0
 40
0.0082666479787851
 50
310.8933087852641961
 51
3.284017517468512
  0
ARC
  5
C9A8
  8
0
 10
1004.4030072820969508
 20
129.7707964262625921
 30
0.0
 40
0.008173911925782
 50
251.4166816727893945
 51
328.7420276503278274
  0
ARC
  5
C9A9
  8
0
 10
1004.3398227990210216
 20
130.0229039421492132
 30
0.0
 40
0.2576024069001402
 50
285.7073609160012779
 51
294.3070655947344108
  0
ARC
  5
C9AA
  8
0
 10
1004.4519467183630468
 20
129.7882907180400878
 30
0.0
 40
0.0072140582904577
 50
258.1491945503485113
 51
342.2624919912620953
  0
ARC
  5
C9AB
  8
0
 10
1004.3487137341479638
 20
130.004984831575797
 30
0.0
 40
0.2375794993522201
 50
297.6093787074673855
 51
306.673248619245328
  0
ARC
  5
C9AC
  8
0
 10
1004.4937309956519584
 20
129.8166555119520069
 30
0.0
 40
0.0082661479493589
 50
276.0793829636131136
 51
348.4295660901718179
  0
ARC
  5
C9AD
  8
0
 10
1004.3598665256639606
 20
129.9907149272046922
 30
0.0
 40
0.2194534737039135
 50
310.3076606370922832
 51
316.4054119434103995
  0
LINE
  5
C9AE
  8
0
 10
1004.4946064325209818
 20
129.8084358518489978
 30
0.0
 11
1004.4895402502879733
 21
129.8160351251489999
 31
0.0
  0
LINE
  5
C9AF
  8
0
 10
1004.5018291662210004
 20
129.8149975507490126
 30
0.0
 11
1004.5018291662210004
 21
129.8233636923523022
 31
0.0
  0
LINE
  5
C9B0
  8
0
 10
1004.5018291662210004
 20
129.8149975507490126
 30
0.0
 11
1004.4979250174750405
 21
129.820710940930212
 31
0.0
  0
LINE
  5
C9B1
  8
0
 10
1004.5018291662210004
 20
129.8233636923523022
 30
0.0
 11
1004.5005647191890148
 21
129.8246704935012019
 31
0.0
  0
LINE
  5
C9B2
  8
0
 10
1004.4504652108209939
 20
129.7812304225489868
 30
0.0
 11
1004.4428294312880325
 21
129.7926797156490011
 31
0.0
  0
LINE
  5
C9B3
  8
0
 10
1004.4588178365210069
 20
129.7860929072490137
 30
0.0
 11
1004.451214198474986
 21
129.7973555314302132
 31
0.0
  0
LINE
  5
C9B4
  8
0
 10
1004.4588178365210069
 20
129.7860929072490137
 30
0.0
 11
1004.4588178365210069
 21
129.7944590489435939
 31
0.0
  0
LINE
  5
C9B5
  8
0
 10
1004.4588178365210069
 20
129.7944590489435939
 30
0.0
 11
1004.453897871993945
 21
129.8013810417091065
 31
0.0
  0
LINE
  5
C9B6
  8
0
 10
1004.4004023924389912
 20
129.7630486920108126
 30
0.0
 11
1004.3961186122879781
 21
129.7693243061490023
 31
0.0
  0
LINE
  5
C9B7
  8
0
 10
1004.4045033794750452
 20
129.7740001219304133
 30
0.0
 11
1004.4099946663390028
 21
129.7665550470489961
 31
0.0
  0
LINE
  5
C9B8
  8
0
 10
1004.4099946663390028
 20
129.7665550470489961
 30
0.0
 11
1004.4095619846830232
 21
129.7749211886682872
 31
0.0
  0
LINE
  5
C9B9
  8
0
 10
1004.4095619846830232
 20
129.7749211886682872
 30
0.0
 11
1004.4069971709969877
 21
129.7777408092125029
 31
0.0
  0
LINE
  5
C9BA
  8
0
 10
1004.3704531353209859
 20
130.1054832351489949
 30
0.0
 11
1004.3959110999210225
 21
130.1054832351489949
 31
0.0
  0
LINE
  5
C9BB
  8
0
 10
1004.3704531353209859
 20
130.1054832351489949
 30
0.0
 11
1004.3578401713880339
 21
130.1244026809987986
 31
0.0
  0
LINE
  5
C9BC
  8
0
 10
1004.3578401713889434
 20
130.1244026810005892
 30
0.0
 11
1004.3702456229550535
 21
130.1430108583489869
 31
0.0
  0
LINE
  5
C9BD
  8
0
 10
1004.3959110999210225
 20
130.1054832351489949
 30
0.0
 11
1004.4085240638549976
 21
130.1244026809987986
 31
0.0
  0
LINE
  5
C9BE
  8
0
 10
1004.4085240638539744
 20
130.1244026809993954
 30
0.0
 11
1004.3961186122879781
 21
130.1430108583489869
 31
0.0
  0
LINE
  5
C9BF
  8
0
 10
1004.405735349938027
 20
130.1285857518739988
 30
0.0
 11
1004.3959110999210225
 21
130.1138493769489912
 31
0.0
  0
LINE
  5
C9C0
  8
0
 10
1004.3959110999210225
 20
130.1138493769489912
 30
0.0
 11
1004.3704531353209859
 21
130.1138493769489912
 31
0.0
  0
LINE
  5
C9C1
  8
0
 10
1004.3606288853050046
 20
130.1285857518739988
 30
0.0
 11
1004.3704531353209859
 21
130.1138493769489912
 31
0.0
  0
LINE
  5
C9C2
  8
0
 10
1004.3704531353209859
 20
130.1054832351489949
 30
0.0
 11
1004.3704531353209859
 21
130.1138493769489912
 31
0.0
  0
LINE
  5
C9C3
  8
0
 10
1004.3959110999210225
 20
130.1054832351489949
 30
0.0
 11
1004.3959110999210225
 21
130.1138493769489912
 31
0.0
  0
LINE
  5
C9C4
  8
0
 10
1004.4006746959850034
 20
130.0987606691489873
 30
0.0
 11
1004.3659136189570518
 21
130.0987606691489873
 31
0.0
  0
LINE
  5
C9C5
  8
0
 10
1004.3618758278289533
 20
130.1009533969373138
 30
0.0
 11
1004.3494077932880373
 21
130.1196554487490005
 31
0.0
  0
LINE
  5
C9C6
  8
0
 10
1004.3961186122879781
 20
130.1430108582489993
 30
0.0
 11
1004.3702456229550535
 21
130.1430108582489993
 31
0.0
  0
ARC
  5
C9C7
  8
0
 10
1004.3667627318609448
 20
130.1051383174811917
 30
0.0
 40
0.0064339250052392
 50
220.5752339935704924
 51
262.4163041164255787
  0
ARC
  5
C9C8
  8
0
 10
1004.3997135433010044
 20
130.1048189221068867
 30
0.0
 40
0.006134023425346
 50
279.0149426054737205
 51
322.0572441313202035
  0
ARC
  5
C9C9
  8
0
 10
1004.4116039084819931
 20
130.1270155702590046
 30
0.0
 40
0.0040388900967986
 50
220.3107226518029904
 51
276.2119385580705853
  0
ARC
  5
C9CA
  8
0
 10
1004.4245682336829759
 20
130.1361254173156112
 30
0.0
 40
0.018143848486523
 50
226.3348229845726109
 51
245.1954195540473904
  0
ARC
  5
C9CB
  8
0
 10
1004.4064336336230099
 20
130.1330875811985095
 30
0.0
 40
0.0115409377837615
 50
299.0689973409039908
 51
338.3976821440099911
  0
LINE
  5
C9CC
  8
0
 10
1004.4045509903869515
 20
130.1010472713988122
 30
0.0
 11
1004.4169564419539711
 21
130.1196554487490005
 31
0.0
  0
ARC
  5
C9CD
  8
0
 10
1004.3724888223359812
 20
130.1480517762585976
 30
0.0
 40
0.0055174992383572
 50
207.8822072276622066
 51
246.0110226347304092
  0
ARC
  5
C9CE
  8
0
 10
1004.3672910149989548
 20
130.1537570729670108
 30
0.0
 40
0.0082917938809866
 50
231.702306914744014
 51
272.2174662458281773
  0
ARC
  5
C9CF
  8
0
 10
1004.3936964653209998
 20
130.148243315934792
 30
0.0
 40
0.0057658832249855
 50
294.8397997524901939
 51
331.2669703851354939
  0
ARC
  5
C9D0
  8
0
 10
1004.3948057476819713
 20
130.1853682565125041
 30
0.0
 40
0.0400914967088576
 50
275.6493975183255998
 51
281.4392525829978808
  0
LINE
  5
C9D1
  8
0
 10
1004.3987523906209844
 20
130.1454714882490009
 30
0.0
 11
1004.3976430140020284
 21
130.1473290610269089
 31
0.0
  0
LINE
  5
C9D2
  8
0
 10
1004.3621521970210324
 20
130.1472496621489938
 30
0.0
 11
1004.3578689909049899
 21
130.1536744713231997
 31
0.0
  0
ARC
  5
C9D3
  8
0
 10
1004.3501996524639708
 20
130.1571981251846921
 30
0.0
 40
0.0209928189992999
 50
326.0408076490728035
 51
346.4742903002523917
  0
ARC
  5
C9D4
  8
0
 10
1004.3531316796489818
 20
130.1278473136974867
 30
0.0
 40
0.0058339857340714
 50
259.2307115739512824
 51
323.8115889069911191
  0
ARC
  5
C9D5
  8
0
 10
1004.347635572946956
 20
130.124192246109601
 30
0.0
 40
0.0048706565500736
 50
291.3372304345676866
 51
334.7695397030295794
  0
ARC
  5
C9D6
  8
0
 10
1004.3666548541369821
 20
130.1322540970714954
 30
0.0
 40
0.0177855964583063
 50
191.0715532715879874
 51
214.7511210293668
  0
LINE
  5
C9D7
  8
0
 10
1004.3492002809219912
 20
130.1288386446489937
 30
0.0
 11
1004.3621521970210324
 21
130.1472496621489938
 31
0.0
  0
LINE
  5
C9D8
  8
0
 10
1004.3492002809219912
 20
130.1288386446489937
 30
0.0
 11
1004.3492002809219912
 21
130.13720478644899
 31
0.0
  0
LINE
  5
C9D9
  8
0
 10
1004.3492002809219912
 20
130.13720478644899
 30
0.0
 11
1004.3590245309050033
 21
130.1519411613240038
 31
0.0
  0
LINE
  5
C9DA
  8
0
 10
1004.4045509903869515
 20
130.0543364523987862
 30
0.0
 11
1004.4169564419549943
 21
130.0729446297490028
 31
0.0
  0
LINE
  5
C9DB
  8
0
 10
1004.3618132448040114
 20
130.0543364524745868
 30
0.0
 11
1004.3494077932880373
 21
130.0729446297490028
 31
0.0
  0
ARC
  5
C9DC
  8
0
 10
1004.3476672663759928
 20
130.077447503576991
 30
0.0
 40
0.0048275570057087
 50
291.1333567280502166
 51
334.9734110864816898
  0
LINE
  5
C9DD
  8
0
 10
1004.3520415716210437
 20
130.0754052596489885
 30
0.0
 11
1004.3659136189570518
 21
130.0987606691489873
 31
0.0
  0
LINE
  5
C9DE
  8
0
 10
1004.3676118446400096
 20
130.0520498501213922
 30
0.0
 11
1004.3987523906209844
 21
130.0520498501489897
 31
0.0
  0
LINE
  5
C9DF
  8
0
 10
1004.3676118446400096
 20
130.0520498501213922
 30
0.0
 11
1004.3520415716210437
 21
130.0754052596489885
 31
0.0
  0
LINE
  5
C9E0
  8
0
 10
1004.3987523906209844
 20
130.0520498501489897
 30
0.0
 11
1004.4143702143460359
 21
130.0753146801195896
 31
0.0
  0
LINE
  5
C9E1
  8
0
 10
1004.4143702143460359
 20
130.0753146801195896
 30
0.0
 11
1004.3987535538100246
 21
130.0987606691489873
 31
0.0
  0
LINE
  5
C9E2
  8
0
 10
1004.4171639543210404
 20
130.1288386445490062
 30
0.0
 11
1004.4056278562120497
 21
130.1453225480046001
 31
0.0
  0
LINE
  5
C9E3
  8
0
 10
1004.4131731524249744
 20
130.1431909892428962
 30
0.0
 11
1004.4171639543219499
 21
130.13720478644899
 31
0.0
  0
LINE
  5
C9E4
  8
0
 10
1004.4171639543219499
 20
130.13720478644899
 30
0.0
 11
1004.4310181047079595
 21
130.13720478644899
 31
0.0
  0
LINE
  5
C9E5
  8
0
 10
1004.4171639543210404
 20
130.1288386445490062
 30
0.0
 11
1004.4171639543219499
 21
130.13720478644899
 31
0.0
  0
ARC
  5
C9E6
  8
0
 10
1004.3367864307169839
 20
130.0345145387200887
 30
0.0
 40
0.2696148906958993
 50
276.7652156703703099
 51
280.3944444640570168
  0
LINE
  5
C9E7
  8
0
 10
1004.3104544245779834
 20
129.7576881307149108
 30
0.0
 11
1004.3026969742879828
 21
129.7693243061490023
 31
0.0
  0
LINE
  5
C9E8
  8
0
 10
1004.3225976817440142
 20
129.7568690443158061
 30
0.0
 11
1004.3111293524380017
 21
129.7740715383746135
 31
0.0
  0
LINE
  5
C9E9
  8
0
 10
1004.3225976817219589
 20
129.7648901883441965
 30
0.0
 11
1004.3138030670700118
 21
129.7780821103216056
 31
0.0
  0
LINE
  5
C9EA
  8
0
 10
1004.3225976817219589
 20
129.7568690442444108
 30
0.0
 11
1004.3225976817219589
 21
129.7648901883441965
 31
0.0
  0
ARC
  5
C9EB
  8
0
 10
1004.3202682622710427
 20
129.7575738390870015
 30
0.0
 40
0.0024337072029147
 50
282.1809026921152963
 51
343.1661579852469117
  0
ARC
  5
C9EC
  8
0
 10
1004.3182021796709478
 20
129.7671452938105006
 30
0.0
 40
0.0122256142098597
 50
230.6740449689033881
 51
282.1809026921152963
  0
LINE
  5
C9ED
  8
0
 10
1004.3111293524380017
 20
129.7740715383739882
 30
0.0
 11
1004.323534803954999
 21
129.7926797156490863
 31
0.0
  0
LINE
  5
C9EE
  8
0
 10
1004.3026969742879828
 20
129.7693243061490023
 30
0.0
 11
1004.276823984954035
 21
129.7693243061490023
 31
0.0
  0
LINE
  5
C9EF
  8
0
 10
1004.3024894619210272
 20
129.778507501949008
 30
0.0
 11
1004.2770314973209906
 21
129.778507501949008
 31
0.0
  0
LINE
  5
C9F0
  8
0
 10
1004.3024894619210272
 20
129.778507501949008
 30
0.0
 11
1004.3151024258550024
 21
129.7974269477988116
 31
0.0
  0
ARC
  5
C9F1
  8
0
 10
1004.3060292933699884
 20
129.7785091470699115
 30
0.0
 40
0.0067603974313219
 50
264.0691353411809814
 51
318.9731675241176276
  0
ARC
  5
C9F2
  8
0
 10
1004.3005964871859987
 20
129.774212469666395
 30
0.0
 40
0.0053203560633353
 50
293.2536245702377187
 51
332.8531430020848916
  0
ARC
  5
C9F3
  8
0
 10
1004.3254406397320508
 20
129.797359530717614
 30
0.0
 40
0.0050530069351102
 50
206.0516440757313035
 51
247.8415881097247961
  0
ARC
  5
C9F4
  8
0
 10
1004.3199775334519472
 20
129.8012941018805861
 30
0.0
 40
0.0062226646041396
 50
218.4230290250160067
 51
278.5346694141239254
  0
LINE
  5
C9F5
  8
0
 10
1004.3026969742879828
 20
129.8160351251489999
 30
0.0
 11
1004.2768239849549445
 21
129.8160351251489999
 31
0.0
  0
LINE
  5
C9F6
  8
0
 10
1004.3151024258539792
 20
129.7974269478006875
 30
0.0
 11
1004.3026969742879828
 21
129.8160351251489999
 31
0.0
  0
LINE
  5
C9F7
  8
0
 10
1004.2770314973209906
 20
129.778507501949008
 30
0.0
 11
1004.2644185333880387
 21
129.7974269477988116
 31
0.0
  0
LINE
  5
C9F8
  8
0
 10
1004.2684392177669679
 20
129.774000121930186
 30
0.0
 11
1004.255986155288042
 21
129.7926797156490011
 31
0.0
  0
LINE
  5
C9F9
  8
0
 10
1004.2644185333880387
 20
129.7974269477994937
 30
0.0
 11
1004.2768239849549445
 21
129.8160351251489999
 31
0.0
  0
ARC
  5
C9FA
  8
0
 10
1004.2789982809349567
 20
129.7742914723002912
 30
0.0
 40
0.0054222045870715
 50
207.5338474268833124
 51
246.3593847586220136
  0
ARC
  5
C9FB
  8
0
 10
1004.2735357696160463
 20
129.7786587613333893
 30
0.0
 40
0.0069049085318957
 50
222.4297068006544009
 51
275.438572375678973
  0
LINE
  5
C9FC
  8
0
 10
1004.2672072473050093
 20
129.8016100186740118
 30
0.0
 11
1004.2770314973209906
 21
129.7868736437490043
 31
0.0
  0
LINE
  5
C9FD
  8
0
 10
1004.2770314973209906
 20
129.7868736437490043
 30
0.0
 11
1004.3024894619210272
 21
129.7868736437490043
 31
0.0
  0
LINE
  5
C9FE
  8
0
 10
1004.3123137119380317
 20
129.8016100186740118
 30
0.0
 11
1004.3024894619210272
 21
129.7868736437490043
 31
0.0
  0
LINE
  5
C9FF
  8
0
 10
1004.3024894619210272
 20
129.778507501949008
 30
0.0
 11
1004.3024894619210272
 21
129.7868736437490043
 31
0.0
  0
LINE
  5
CA00
  8
0
 10
1004.2770314973209906
 20
129.778507501949008
 30
0.0
 11
1004.2770314973209906
 21
129.7868736437490043
 31
0.0
  0
ARC
  5
CA01
  8
0
 10
1004.3201458510809516
 20
129.7817681682003865
 30
0.0
 40
0.0179549442375811
 50
190.4631261530674919
 51
214.1291766783828052
  0
ARC
  5
CA02
  8
0
 10
1004.2597047950939668
 20
129.7818689097321112
 30
0.0
 40
0.0176497499229873
 50
325.1564152324464771
 51
349.0209104665851783
  0
ARC
  5
CA03
  8
0
 10
1004.2544355905320117
 20
129.796979260154103
 30
0.0
 40
0.0045705944923242
 50
289.8310610081451841
 51
336.2757068063800148
  0
ARC
  5
CA04
  8
0
 10
1004.2588804472270567
 20
129.8029753507045996
 30
0.0
 40
0.0078393349926641
 50
268.0956192335535206
 51
314.9466823272862825
  0
LINE
  5
CA05
  8
0
 10
1004.3111293524380017
 20
129.8207823573739859
 30
0.0
 11
1004.323534803954999
 21
129.8393905346491124
 31
0.0
  0
LINE
  5
CA06
  8
0
 10
1004.3024894619210272
 20
129.8252183209490056
 30
0.0
 11
1004.2770314973209906
 21
129.8252183209490056
 31
0.0
  0
LINE
  5
CA07
  8
0
 10
1004.3024894619210272
 20
129.8252183209490056
 30
0.0
 11
1004.3151024258550024
 21
129.8441377667986956
 31
0.0
  0
ARC
  5
CA08
  8
0
 10
1004.3060292933699884
 20
129.8252199660699091
 30
0.0
 40
0.0067603974313219
 50
264.0691353411809814
 51
318.9731675241176276
  0
ARC
  5
CA09
  8
0
 10
1004.3005964871859987
 20
129.8209232886663926
 30
0.0
 40
0.0053203560633353
 50
293.2536245702377187
 51
332.8531430020848916
  0
ARC
  5
CA0A
  8
0
 10
1004.3254406397320508
 20
129.8440703497176116
 30
0.0
 40
0.0050530069351102
 50
206.0516440757313035
 51
247.8415881097247961
  0
ARC
  5
CA0B
  8
0
 10
1004.3199775334519472
 20
129.8480049208806122
 30
0.0
 40
0.0062226646041396
 50
218.4230290250160067
 51
278.5346694141239254
  0
LINE
  5
CA0C
  8
0
 10
1004.3151024258539792
 20
129.8441377668007135
 30
0.0
 11
1004.3026969742879828
 21
129.8627459441489975
 31
0.0
  0
LINE
  5
CA0D
  8
0
 10
1004.2770314973209906
 20
129.8252183209490056
 30
0.0
 11
1004.2644185333880387
 21
129.8441377667986956
 31
0.0
  0
LINE
  5
CA0E
  8
0
 10
1004.2684392177669679
 20
129.820710940930212
 30
0.0
 11
1004.255986155288042
 21
129.8393905346489987
 31
0.0
  0
LINE
  5
CA0F
  8
0
 10
1004.2644185333880387
 20
129.8441377667994914
 30
0.0
 11
1004.2768239849549445
 21
129.8627459441489975
 31
0.0
  0
ARC
  5
CA10
  8
0
 10
1004.2789982809349567
 20
129.8210022913002888
 30
0.0
 40
0.0054222045870715
 50
207.5338474268833124
 51
246.3593847586220136
  0
ARC
  5
CA11
  8
0
 10
1004.2735357696160463
 20
129.8253695803333869
 30
0.0
 40
0.0069049085318957
 50
222.4297068006544009
 51
275.438572375678973
  0
LINE
  5
CA12
  8
0
 10
1004.2672072473050093
 20
129.8483208376740095
 30
0.0
 11
1004.2770314973209906
 21
129.8335844627490019
 31
0.0
  0
LINE
  5
CA13
  8
0
 10
1004.2770314973209906
 20
129.8335844627490019
 30
0.0
 11
1004.3024894619210272
 21
129.8335844627490019
 31
0.0
  0
LINE
  5
CA14
  8
0
 10
1004.3123137119380317
 20
129.8483208376740095
 30
0.0
 11
1004.3024894619210272
 21
129.8335844627490019
 31
0.0
  0
LINE
  5
CA15
  8
0
 10
1004.3024894619210272
 20
129.8252183209490056
 30
0.0
 11
1004.3024894619210272
 21
129.8335844627490019
 31
0.0
  0
LINE
  5
CA16
  8
0
 10
1004.2770314973209906
 20
129.8252183209490056
 30
0.0
 11
1004.2770314973209906
 21
129.8335844627490019
 31
0.0
  0
ARC
  5
CA17
  8
0
 10
1004.3201458510809516
 20
129.8284789872004126
 30
0.0
 40
0.0179549442375811
 50
190.4631261530674919
 51
214.1291766783828052
  0
ARC
  5
CA18
  8
0
 10
1004.2597047950939668
 20
129.8285797287319951
 30
0.0
 40
0.0176497499229873
 50
325.1564152324464771
 51
349.0209104665851783
  0
ARC
  5
CA19
  8
0
 10
1004.2544355905320117
 20
129.8436900791541007
 30
0.0
 40
0.0045705944923242
 50
289.8310610081451841
 51
336.2757068063800148
  0
ARC
  5
CA1A
  8
0
 10
1004.2588804472270567
 20
129.8496861697045972
 30
0.0
 40
0.0078393349926641
 50
268.0956192335535206
 51
314.9466823272862825
  0
LINE
  5
CA1B
  8
0
 10
1004.3026969742879828
 20
129.8627459441489975
 30
0.0
 11
1004.2768239849549445
 21
129.8627459441489975
 31
0.0
  0
LINE
  5
CA1C
  8
0
 10
1004.3111293524380017
 20
129.8674931763740119
 30
0.0
 11
1004.323534803954999
 21
129.88610135364911
 31
0.0
  0
LINE
  5
CA1D
  8
0
 10
1004.3024894619210272
 20
129.8719291399490032
 30
0.0
 11
1004.2770314973209906
 21
129.8719291399490032
 31
0.0
  0
LINE
  5
CA1E
  8
0
 10
1004.3024894619210272
 20
129.8719291399490032
 30
0.0
 11
1004.3151024258550024
 21
129.8908485857988069
 31
0.0
  0
ARC
  5
CA1F
  8
0
 10
1004.3060292933699884
 20
129.8719307850699067
 30
0.0
 40
0.0067603974313219
 50
264.0691353411809814
 51
318.9731675241176276
  0
ARC
  5
CA20
  8
0
 10
1004.3005964871859987
 20
129.8676341076663903
 30
0.0
 40
0.0053203560633353
 50
293.2536245702377187
 51
332.8531430020848916
  0
ARC
  5
CA21
  8
0
 10
1004.3254406397320508
 20
129.8907811687176093
 30
0.0
 40
0.0050530069351102
 50
206.0516440757313035
 51
247.8415881097247961
  0
ARC
  5
CA22
  8
0
 10
1004.3199775334519472
 20
129.8947157398806098
 30
0.0
 40
0.0062226646041396
 50
218.4230290250160067
 51
278.5346694141239254
  0
LINE
  5
CA23
  8
0
 10
1004.3151024258539792
 20
129.8908485858007111
 30
0.0
 11
1004.3026969742879828
 21
129.9094567631489952
 31
0.0
  0
LINE
  5
CA24
  8
0
 10
1004.2770314973209906
 20
129.8719291399490032
 30
0.0
 11
1004.2644185333880387
 21
129.8908485857988069
 31
0.0
  0
LINE
  5
CA25
  8
0
 10
1004.2684392177669679
 20
129.8674217599302096
 30
0.0
 11
1004.255986155288042
 21
129.8861013536489963
 31
0.0
  0
LINE
  5
CA26
  8
0
 10
1004.2644185333880387
 20
129.890848585799489
 30
0.0
 11
1004.2768239849549445
 21
129.9094567631489952
 31
0.0
  0
ARC
  5
CA27
  8
0
 10
1004.2789982809349567
 20
129.8677131103002864
 30
0.0
 40
0.0054222045870715
 50
207.5338474268833124
 51
246.3593847586220136
  0
ARC
  5
CA28
  8
0
 10
1004.2735357696160463
 20
129.872080399333413
 30
0.0
 40
0.0069049085318957
 50
222.4297068006544009
 51
275.438572375678973
  0
LINE
  5
CA29
  8
0
 10
1004.2672072473050093
 20
129.8950316566740071
 30
0.0
 11
1004.2770314973209906
 21
129.8802952817489995
 31
0.0
  0
LINE
  5
CA2A
  8
0
 10
1004.2770314973209906
 20
129.8802952817489995
 30
0.0
 11
1004.3024894619210272
 21
129.8802952817489995
 31
0.0
  0
LINE
  5
CA2B
  8
0
 10
1004.3123137119380317
 20
129.8950316566740071
 30
0.0
 11
1004.3024894619210272
 21
129.8802952817489995
 31
0.0
  0
LINE
  5
CA2C
  8
0
 10
1004.3024894619210272
 20
129.8719291399490032
 30
0.0
 11
1004.3024894619210272
 21
129.8802952817489995
 31
0.0
  0
LINE
  5
CA2D
  8
0
 10
1004.2770314973209906
 20
129.8719291399490032
 30
0.0
 11
1004.2770314973209906
 21
129.8802952817489995
 31
0.0
  0
ARC
  5
CA2E
  8
0
 10
1004.3201458510809516
 20
129.8751898062004102
 30
0.0
 40
0.0179549442375811
 50
190.4631261530674919
 51
214.1291766783828052
  0
ARC
  5
CA2F
  8
0
 10
1004.2597047950939668
 20
129.8752905477321065
 30
0.0
 40
0.0176497499229873
 50
325.1564152324464771
 51
349.0209104665851783
  0
ARC
  5
CA30
  8
0
 10
1004.2544355905320117
 20
129.8904008981540983
 30
0.0
 40
0.0045705944923242
 50
289.8310610081451841
 51
336.2757068063800148
  0
ARC
  5
CA31
  8
0
 10
1004.2588804472270567
 20
129.8963969887045948
 30
0.0
 40
0.0078393349926641
 50
268.0956192335535206
 51
314.9466823272862825
  0
LINE
  5
CA32
  8
0
 10
1004.3026969742879828
 20
129.9094567631489952
 30
0.0
 11
1004.2768239849549445
 21
129.9094567631489952
 31
0.0
  0
LINE
  5
CA33
  8
0
 10
1004.3111293524380017
 20
129.9142039953740095
 30
0.0
 11
1004.323534803954999
 21
129.9328121726491077
 31
0.0
  0
LINE
  5
CA34
  8
0
 10
1004.3024894619210272
 20
129.9186399589490009
 30
0.0
 11
1004.2770314973209906
 21
129.9186399589490009
 31
0.0
  0
LINE
  5
CA35
  8
0
 10
1004.3024894619210272
 20
129.9186399589490009
 30
0.0
 11
1004.3151024258550024
 21
129.9375594047988045
 31
0.0
  0
ARC
  5
CA36
  8
0
 10
1004.3060292933699884
 20
129.9186416040699044
 30
0.0
 40
0.0067603974313219
 50
264.0691353411809814
 51
318.9731675241176276
  0
ARC
  5
CA37
  8
0
 10
1004.3005964871859987
 20
129.9143449266663879
 30
0.0
 40
0.0053203560633353
 50
293.2536245702377187
 51
332.8531430020848916
  0
ARC
  5
CA38
  8
0
 10
1004.3254406397320508
 20
129.9374919877176069
 30
0.0
 40
0.0050530069351102
 50
206.0516440757313035
 51
247.8415881097247961
  0
ARC
  5
CA39
  8
0
 10
1004.3199775334519472
 20
129.9414265588806074
 30
0.0
 40
0.0062226646041396
 50
218.4230290250160067
 51
278.5346694141239254
  0
LINE
  5
CA3A
  8
0
 10
1004.3151024258539792
 20
129.9375594048005951
 30
0.0
 11
1004.3026969742879828
 21
129.9561675821489928
 31
0.0
  0
LINE
  5
CA3B
  8
0
 10
1004.2770314973209906
 20
129.9186399589490009
 30
0.0
 11
1004.2644185333880387
 21
129.9375594047988045
 31
0.0
  0
LINE
  5
CA3C
  8
0
 10
1004.2684392177669679
 20
129.9141325789302073
 30
0.0
 11
1004.255986155288042
 21
129.932812172648994
 31
0.0
  0
LINE
  5
CA3D
  8
0
 10
1004.2644185333880387
 20
129.9375594047994866
 30
0.0
 11
1004.2768239849549445
 21
129.9561675821489928
 31
0.0
  0
ARC
  5
CA3E
  8
0
 10
1004.2789982809349567
 20
129.9144239293003125
 30
0.0
 40
0.0054222045870715
 50
207.5338474268833124
 51
246.3593847586220136
  0
ARC
  5
CA3F
  8
0
 10
1004.2735357696160463
 20
129.9187912183334106
 30
0.0
 40
0.0069049085318957
 50
222.4297068006544009
 51
275.438572375678973
  0
LINE
  5
CA40
  8
0
 10
1004.2672072473050093
 20
129.9417424756740047
 30
0.0
 11
1004.2770314973209906
 21
129.9270061007489971
 31
0.0
  0
LINE
  5
CA41
  8
0
 10
1004.2770314973209906
 20
129.9270061007489971
 30
0.0
 11
1004.3024894619210272
 21
129.9270061007489971
 31
0.0
  0
LINE
  5
CA42
  8
0
 10
1004.3123137119380317
 20
129.9417424756740047
 30
0.0
 11
1004.3024894619210272
 21
129.9270061007489971
 31
0.0
  0
LINE
  5
CA43
  8
0
 10
1004.3024894619210272
 20
129.9186399589490009
 30
0.0
 11
1004.3024894619210272
 21
129.9270061007489971
 31
0.0
  0
LINE
  5
CA44
  8
0
 10
1004.2770314973209906
 20
129.9186399589490009
 30
0.0
 11
1004.2770314973209906
 21
129.9270061007489971
 31
0.0
  0
ARC
  5
CA45
  8
0
 10
1004.3201458510809516
 20
129.9219006252004078
 30
0.0
 40
0.0179549442375811
 50
190.4631261530674919
 51
214.1291766783828052
  0
ARC
  5
CA46
  8
0
 10
1004.2597047950939668
 20
129.9220013667321041
 30
0.0
 40
0.0176497499229873
 50
325.1564152324464771
 51
349.0209104665851783
  0
ARC
  5
CA47
  8
0
 10
1004.2544355905320117
 20
129.9371117171540959
 30
0.0
 40
0.0045705944923242
 50
289.8310610081451841
 51
336.2757068063800148
  0
ARC
  5
CA48
  8
0
 10
1004.2588804472270567
 20
129.9431078077045925
 30
0.0
 40
0.0078393349926641
 50
268.0956192335535206
 51
314.9466823272862825
  0
LINE
  5
CA49
  8
0
 10
1004.3026969742879828
 20
129.9561675822490088
 30
0.0
 11
1004.2768239849549445
 21
129.9561675822490088
 31
0.0
  0
LINE
  5
CA4A
  8
0
 10
1004.3024894619210272
 20
129.9653507780489861
 30
0.0
 11
1004.2770314973209906
 21
129.9653507780489861
 31
0.0
  0
LINE
  5
CA4B
  8
0
 10
1004.3024894619210272
 20
129.9653507780489861
 30
0.0
 11
1004.3151024258550024
 21
129.9842702238987897
 31
0.0
  0
ARC
  5
CA4C
  8
0
 10
1004.3005964871859987
 20
129.9610557457664015
 30
0.0
 40
0.0053203560633353
 50
293.2536245702377187
 51
332.8531430020848916
  0
ARC
  5
CA4D
  8
0
 10
1004.3199775334519472
 20
129.9881373779805926
 30
0.0
 40
0.0062226646041396
 50
218.4230290250160067
 51
278.5346694141239254
  0
LINE
  5
CA4E
  8
0
 10
1004.3151024258539792
 20
129.984270223900694
 30
0.0
 11
1004.3026969742879828
 21
130.0028784012490064
 31
0.0
  0
LINE
  5
CA4F
  8
0
 10
1004.2770314973209906
 20
129.9653507780489861
 30
0.0
 11
1004.2644185333880387
 21
129.9842702238987897
 31
0.0
  0
LINE
  5
CA50
  8
0
 10
1004.2684392177669679
 20
129.9608433980301925
 30
0.0
 11
1004.255986155288042
 21
129.9795229917490076
 31
0.0
  0
LINE
  5
CA51
  8
0
 10
1004.2644185333880387
 20
129.9842702238995003
 30
0.0
 11
1004.2768239849549445
 21
130.0028784012490064
 31
0.0
  0
ARC
  5
CA52
  8
0
 10
1004.2789982809349567
 20
129.9611347484002977
 30
0.0
 40
0.0054222045870715
 50
207.5338474268833124
 51
246.3593847586220136
  0
ARC
  5
CA53
  8
0
 10
1004.2735357696160463
 20
129.9655020374333958
 30
0.0
 40
0.0069049085318957
 50
222.4297068006544009
 51
275.438572375678973
  0
LINE
  5
CA54
  8
0
 10
1004.2672072473050093
 20
129.9884532947739899
 30
0.0
 11
1004.2770314973209906
 21
129.9737169198490108
 31
0.0
  0
LINE
  5
CA55
  8
0
 10
1004.2770314973209906
 20
129.9737169198490108
 30
0.0
 11
1004.3024894619210272
 21
129.9737169198490108
 31
0.0
  0
LINE
  5
CA56
  8
0
 10
1004.3123137119380317
 20
129.9884532947739899
 30
0.0
 11
1004.3024894619210272
 21
129.9737169198490108
 31
0.0
  0
LINE
  5
CA57
  8
0
 10
1004.3024894619210272
 20
129.9653507780489861
 30
0.0
 11
1004.3024894619210272
 21
129.9737169198490108
 31
0.0
  0
LINE
  5
CA58
  8
0
 10
1004.2770314973209906
 20
129.9653507780489861
 30
0.0
 11
1004.2770314973209906
 21
129.9737169198490108
 31
0.0
  0
ARC
  5
CA59
  8
0
 10
1004.3201458510809516
 20
129.968611444300393
 30
0.0
 40
0.0179549442375811
 50
190.4631261530674919
 51
214.1291766783828052
  0
ARC
  5
CA5A
  8
0
 10
1004.2597047950939668
 20
129.968712185832004
 30
0.0
 40
0.0176497499229873
 50
325.1564152324464771
 51
349.0209104665851783
  0
ARC
  5
CA5B
  8
0
 10
1004.2544355905320117
 20
129.9838225362541095
 30
0.0
 40
0.0045705944923242
 50
289.8310610081451841
 51
336.2757068063800148
  0
ARC
  5
CA5C
  8
0
 10
1004.2588804472270567
 20
129.9898186268046061
 30
0.0
 40
0.0078393349926641
 50
268.0956192335535206
 51
314.9466823272862825
  0
LINE
  5
CA5D
  8
0
 10
1004.3026969742879828
 20
130.0028784012490064
 30
0.0
 11
1004.2768239849549445
 21
130.0028784012490064
 31
0.0
  0
LINE
  5
CA5E
  8
0
 10
1004.3111293524380017
 20
130.0076256334739924
 30
0.0
 11
1004.323534803954999
 21
130.0262338107490905
 31
0.0
  0
LINE
  5
CA5F
  8
0
 10
1004.3024894619210272
 20
130.0120615970490121
 30
0.0
 11
1004.2770314973209906
 21
130.0120615970490121
 31
0.0
  0
LINE
  5
CA60
  8
0
 10
1004.3024894619210272
 20
130.0120615970490121
 30
0.0
 11
1004.3151024258550024
 21
130.0309810428987873
 31
0.0
  0
ARC
  5
CA61
  8
0
 10
1004.3060292933699884
 20
130.0120632421700009
 30
0.0
 40
0.0067603974313219
 50
264.0691353411809814
 51
318.9731675241176276
  0
ARC
  5
CA62
  8
0
 10
1004.3005964871859987
 20
130.0077665647663991
 30
0.0
 40
0.0053203560633353
 50
293.2536245702377187
 51
332.8531430020848916
  0
ARC
  5
CA63
  8
0
 10
1004.3254406397320508
 20
130.0309136258175897
 30
0.0
 40
0.0050530069351102
 50
206.0516440757313035
 51
247.8415881097247961
  0
ARC
  5
CA64
  8
0
 10
1004.3199775334519472
 20
130.0348481969805903
 30
0.0
 40
0.0062226646041396
 50
218.4230290250160067
 51
278.5346694141239254
  0
LINE
  5
CA65
  8
0
 10
1004.3151024258539792
 20
130.0309810429006916
 30
0.0
 11
1004.3026969742879828
 21
130.049589220249004
 31
0.0
  0
LINE
  5
CA66
  8
0
 10
1004.2770314973209906
 20
130.0120615970490121
 30
0.0
 11
1004.2644185333880387
 21
130.0309810428987873
 31
0.0
  0
LINE
  5
CA67
  8
0
 10
1004.2684392177669679
 20
130.0075542170301901
 30
0.0
 11
1004.255986155288042
 21
130.0262338107490052
 31
0.0
  0
LINE
  5
CA68
  8
0
 10
1004.2644185333880387
 20
130.0309810428994979
 30
0.0
 11
1004.2768239849549445
 21
130.049589220249004
 31
0.0
  0
ARC
  5
CA69
  8
0
 10
1004.2789982809349567
 20
130.0078455674002953
 30
0.0
 40
0.0054222045870715
 50
207.5338474268833124
 51
246.3593847586220136
  0
ARC
  5
CA6A
  8
0
 10
1004.2735357696160463
 20
130.0122128564333934
 30
0.0
 40
0.0069049085318957
 50
222.4297068006544009
 51
275.438572375678973
  0
LINE
  5
CA6B
  8
0
 10
1004.2672072473050093
 20
130.0351641137739875
 30
0.0
 11
1004.2770314973209906
 21
130.0204277388490084
 31
0.0
  0
LINE
  5
CA6C
  8
0
 10
1004.2770314973209906
 20
130.0204277388490084
 30
0.0
 11
1004.3024894619210272
 21
130.0204277388490084
 31
0.0
  0
LINE
  5
CA6D
  8
0
 10
1004.3123137119380317
 20
130.0351641137739875
 30
0.0
 11
1004.3024894619210272
 21
130.0204277388490084
 31
0.0
  0
LINE
  5
CA6E
  8
0
 10
1004.3024894619210272
 20
130.0120615970490121
 30
0.0
 11
1004.3024894619210272
 21
130.0204277388490084
 31
0.0
  0
LINE
  5
CA6F
  8
0
 10
1004.2770314973209906
 20
130.0120615970490121
 30
0.0
 11
1004.2770314973209906
 21
130.0204277388490084
 31
0.0
  0
ARC
  5
CA70
  8
0
 10
1004.3201458510809516
 20
130.0153222633003907
 30
0.0
 40
0.0179549442375811
 50
190.4631261530674919
 51
214.1291766783828052
  0
ARC
  5
CA71
  8
0
 10
1004.2597047950939668
 20
130.0154230048320017
 30
0.0
 40
0.0176497499229873
 50
325.1564152324464771
 51
349.0209104665851783
  0
ARC
  5
CA72
  8
0
 10
1004.2544355905320117
 20
130.0305333552541072
 30
0.0
 40
0.0045705944923242
 50
289.8310610081451841
 51
336.2757068063800148
  0
ARC
  5
CA73
  8
0
 10
1004.2588804472270567
 20
130.0365294458046037
 30
0.0
 40
0.0078393349926641
 50
268.0956192335535206
 51
314.9466823272862825
  0
LINE
  5
CA74
  8
0
 10
1004.3026969742879828
 20
130.049589220249004
 30
0.0
 11
1004.2768239849549445
 21
130.049589220249004
 31
0.0
  0
ARC
  5
CA75
  8
0
 10
1004.3060292933699884
 20
130.0587740611699132
 30
0.0
 40
0.0067603974313219
 50
264.0691353411809814
 51
318.9731675241176276
  0
ARC
  5
CA76
  8
0
 10
1004.3005964871859987
 20
130.0544773837663968
 30
0.0
 40
0.0053203560633353
 50
293.2536245702377187
 51
332.8531430020848916
  0
ARC
  5
CA77
  8
0
 10
1004.2789982809349567
 20
130.0545563864002929
 30
0.0
 40
0.0054222045870715
 50
207.5338474268833124
 51
246.3593847586220136
  0
ARC
  5
CA78
  8
0
 10
1004.2735357696160463
 20
130.0589236754333911
 30
0.0
 40
0.0069049085318957
 50
222.4297068006544009
 51
275.438572375678973
  0
ARC
  5
CA79
  8
0
 10
1004.2544566489109457
 20
130.0772097321913918
 30
0.0
 40
0.0045310582211306
 50
289.7283173909689253
 51
335.2767255586804254
  0
LINE
  5
CA7A
  8
0
 10
1004.255986155288042
 20
129.7926797156490011
 30
0.0
 11
1004.2301131659550038
 21
129.7926797156490011
 31
0.0
  0
LINE
  5
CA7B
  8
0
 10
1004.2557786429219959
 20
129.8018629114490068
 30
0.0
 11
1004.2303206783219593
 21
129.8018629114490068
 31
0.0
  0
LINE
  5
CA7C
  8
0
 10
1004.2557786429219959
 20
129.8018629114490068
 30
0.0
 11
1004.2683916068549479
 21
129.8207823572988104
 31
0.0
  0
LINE
  5
CA7D
  8
0
 10
1004.2559861552889515
 20
129.8393905346489987
 30
0.0
 11
1004.2301131659550038
 21
129.8393905346489987
 31
0.0
  0
LINE
  5
CA7E
  8
0
 10
1004.2303206783219593
 20
129.8018629114490068
 30
0.0
 11
1004.2177077143890074
 21
129.8207823572988104
 31
0.0
  0
LINE
  5
CA7F
  8
0
 10
1004.2217283987680503
 20
129.7973555314302132
 30
0.0
 11
1004.2092753362890107
 21
129.8160351251489999
 31
0.0
  0
LINE
  5
CA80
  8
0
 10
1004.2177077143890074
 20
129.8207823572994926
 30
0.0
 11
1004.2301131659550038
 21
129.8393905346489987
 31
0.0
  0
ARC
  5
CA81
  8
0
 10
1004.2322874619360391
 20
129.79764688180029
 30
0.0
 40
0.0054222045870715
 50
207.5338474268833124
 51
246.3593847586220136
  0
ARC
  5
CA82
  8
0
 10
1004.2268249506159918
 20
129.8020141708333881
 30
0.0
 40
0.0069049085318957
 50
222.4297068006544009
 51
275.438572375678973
  0
LINE
  5
CA83
  8
0
 10
1004.2204964283049549
 20
129.8249654281740106
 30
0.0
 11
1004.2303206783219593
 21
129.8102290532490031
 31
0.0
  0
LINE
  5
CA84
  8
0
 10
1004.2303206783219593
 20
129.8102290532490031
 30
0.0
 11
1004.2557786429219959
 21
129.8102290532490031
 31
0.0
  0
LINE
  5
CA85
  8
0
 10
1004.2656028929390004
 20
129.8249654281740106
 30
0.0
 11
1004.2557786429219959
 21
129.8102290532490031
 31
0.0
  0
LINE
  5
CA86
  8
0
 10
1004.2557786429219959
 20
129.8018629114490068
 30
0.0
 11
1004.2557786429219959
 21
129.8102290532490031
 31
0.0
  0
LINE
  5
CA87
  8
0
 10
1004.2303206783219593
 20
129.8018629114490068
 30
0.0
 11
1004.2303206783219593
 21
129.8102290532490031
 31
0.0
  0
ARC
  5
CA88
  8
0
 10
1004.273435032082034
 20
129.8051235777004138
 30
0.0
 40
0.0179549442375811
 50
190.4631261530674919
 51
214.1291766783828052
  0
ARC
  5
CA89
  8
0
 10
1004.2129939760950492
 20
129.80522431923211
 30
0.0
 40
0.0176497499229873
 50
325.1564152324464771
 51
349.0209104665851783
  0
ARC
  5
CA8A
  8
0
 10
1004.2077247715329804
 20
129.8203346696541018
 30
0.0
 40
0.0045705944923242
 50
289.8310610081451841
 51
336.2757068063800148
  0
ARC
  5
CA8B
  8
0
 10
1004.2121696282280254
 20
129.8263307602045984
 30
0.0
 40
0.0078393349926641
 50
268.0956192335535206
 51
314.9466823272862825
  0
LINE
  5
CA8C
  8
0
 10
1004.255986155288042
 20
129.8393905346489987
 30
0.0
 11
1004.2301131659550038
 21
129.8393905346489987
 31
0.0
  0
LINE
  5
CA8D
  8
0
 10
1004.2557786429219959
 20
129.8485737304490044
 30
0.0
 11
1004.2303206783219593
 21
129.8485737304490044
 31
0.0
  0
LINE
  5
CA8E
  8
0
 10
1004.2557786429219959
 20
129.8485737304490044
 30
0.0
 11
1004.2683916068549479
 21
129.8674931762986944
 31
0.0
  0
LINE
  5
CA8F
  8
0
 10
1004.2559861552889515
 20
129.8861013536489963
 30
0.0
 11
1004.2301131659550038
 21
129.8861013536489963
 31
0.0
  0
LINE
  5
CA90
  8
0
 10
1004.2303206783219593
 20
129.8485737304490044
 30
0.0
 11
1004.2177077143890074
 21
129.8674931762986944
 31
0.0
  0
LINE
  5
CA91
  8
0
 10
1004.2217283987680503
 20
129.8440663504300971
 30
0.0
 11
1004.2092753362890107
 21
129.8627459441489975
 31
0.0
  0
LINE
  5
CA92
  8
0
 10
1004.2177077143890074
 20
129.8674931762994902
 30
0.0
 11
1004.2301131659550038
 21
129.8861013536489963
 31
0.0
  0
ARC
  5
CA93
  8
0
 10
1004.2322874619360391
 20
129.8443577008002876
 30
0.0
 40
0.0054222045870715
 50
207.5338474268833124
 51
246.3593847586220136
  0
ARC
  5
CA94
  8
0
 10
1004.2268249506159918
 20
129.8487249898334142
 30
0.0
 40
0.0069049085318957
 50
222.4297068006544009
 51
275.438572375678973
  0
LINE
  5
CA95
  8
0
 10
1004.2204964283049549
 20
129.8716762471740083
 30
0.0
 11
1004.2303206783219593
 21
129.8569398722490007
 31
0.0
  0
LINE
  5
CA96
  8
0
 10
1004.2303206783219593
 20
129.8569398722490007
 30
0.0
 11
1004.2557786429219959
 21
129.8569398722490007
 31
0.0
  0
LINE
  5
CA97
  8
0
 10
1004.2656028929390004
 20
129.8716762471740083
 30
0.0
 11
1004.2557786429219959
 21
129.8569398722490007
 31
0.0
  0
LINE
  5
CA98
  8
0
 10
1004.2557786429219959
 20
129.8485737304490044
 30
0.0
 11
1004.2557786429219959
 21
129.8569398722490007
 31
0.0
  0
LINE
  5
CA99
  8
0
 10
1004.2303206783219593
 20
129.8485737304490044
 30
0.0
 11
1004.2303206783219593
 21
129.8569398722490007
 31
0.0
  0
ARC
  5
CA9A
  8
0
 10
1004.273435032082034
 20
129.8518343967004114
 30
0.0
 40
0.0179549442375811
 50
190.4631261530674919
 51
214.1291766783828052
  0
ARC
  5
CA9B
  8
0
 10
1004.2129939760950492
 20
129.8519351382321076
 30
0.0
 40
0.0176497499229873
 50
325.1564152324464771
 51
349.0209104665851783
  0
ARC
  5
CA9C
  8
0
 10
1004.2077247715329804
 20
129.8670454886540995
 30
0.0
 40
0.0045705944923242
 50
289.8310610081451841
 51
336.2757068063800148
  0
ARC
  5
CA9D
  8
0
 10
1004.2121696282280254
 20
129.873041579204596
 30
0.0
 40
0.0078393349926641
 50
268.0956192335535206
 51
314.9466823272862825
  0
LINE
  5
CA9E
  8
0
 10
1004.2559861552889515
 20
129.8861013536489963
 30
0.0
 11
1004.2301131659550038
 21
129.8861013536489963
 31
0.0
  0
LINE
  5
CA9F
  8
0
 10
1004.2557786429219959
 20
129.895284549449002
 30
0.0
 11
1004.2303206783219593
 21
129.895284549449002
 31
0.0
  0
LINE
  5
CAA0
  8
0
 10
1004.2557786429219959
 20
129.895284549449002
 30
0.0
 11
1004.2683916068559711
 21
129.9142039952988057
 31
0.0
  0
LINE
  5
CAA1
  8
0
 10
1004.2559861552889515
 20
129.932812172648994
 30
0.0
 11
1004.2301131659560269
 21
129.932812172648994
 31
0.0
  0
LINE
  5
CAA2
  8
0
 10
1004.2303206783219593
 20
129.895284549449002
 30
0.0
 11
1004.2177077143890074
 21
129.9142039952988057
 31
0.0
  0
LINE
  5
CAA3
  8
0
 10
1004.2216807878560303
 20
129.8908485857984942
 30
0.0
 11
1004.2092753362890107
 21
129.9094567631489952
 31
0.0
  0
LINE
  5
CAA4
  8
0
 10
1004.2177077143890074
 20
129.9142039952994878
 30
0.0
 11
1004.2301131659560269
 21
129.932812172648994
 31
0.0
  0
ARC
  5
CAA5
  8
0
 10
1004.2322874619360391
 20
129.8910685198003137
 30
0.0
 40
0.0054222045870715
 50
207.5338474268833124
 51
246.3593847586220136
  0
ARC
  5
CAA6
  8
0
 10
1004.2268170776980014
 20
129.8953780725225897
 30
0.0
 40
0.0068481912451884
 50
221.4077701419658126
 51
275.5499283006961946
  0
LINE
  5
CAA7
  8
0
 10
1004.220496428305978
 20
129.9183870661740059
 30
0.0
 11
1004.2303206783219593
 21
129.9036506912489983
 31
0.0
  0
LINE
  5
CAA8
  8
0
 10
1004.2303206783219593
 20
129.9036506912489983
 30
0.0
 11
1004.2557786429219959
 21
129.9036506912489983
 31
0.0
  0
LINE
  5
CAA9
  8
0
 10
1004.2656028929390004
 20
129.9183870661740059
 30
0.0
 11
1004.2557786429219959
 21
129.9036506912489983
 31
0.0
  0
LINE
  5
CAAA
  8
0
 10
1004.2557786429219959
 20
129.895284549449002
 30
0.0
 11
1004.2557786429219959
 21
129.9036506912489983
 31
0.0
  0
LINE
  5
CAAB
  8
0
 10
1004.2303206783219593
 20
129.895284549449002
 30
0.0
 11
1004.2303206783219593
 21
129.9036506912489983
 31
0.0
  0
ARC
  5
CAAC
  8
0
 10
1004.273435032082034
 20
129.898545215700409
 30
0.0
 40
0.0179549442375811
 50
190.4631261530674919
 51
214.1291766783828052
  0
ARC
  5
CAAD
  8
0
 10
1004.2129939760950492
 20
129.8986459572321053
 30
0.0
 40
0.0176497499229873
 50
325.1564152324464771
 51
349.0209104665851783
  0
ARC
  5
CAAE
  8
0
 10
1004.2077247715329804
 20
129.9137563076540971
 30
0.0
 40
0.0045705944923242
 50
289.8310610081451841
 51
336.2757068063800148
  0
ARC
  5
CAAF
  8
0
 10
1004.2121696282280254
 20
129.9197523982045936
 30
0.0
 40
0.0078393349926641
 50
268.0956192335535206
 51
314.9466823272862825
  0
LINE
  5
CAB0
  8
0
 10
1004.255986155288042
 20
129.932812172648994
 30
0.0
 11
1004.2301131659550038
 21
129.932812172648994
 31
0.0
  0
LINE
  5
CAB1
  8
0
 10
1004.2557786429219959
 20
129.9419953684489997
 30
0.0
 11
1004.2303206783219593
 21
129.9419953684489997
 31
0.0
  0
LINE
  5
CAB2
  8
0
 10
1004.2557786429219959
 20
129.9419953684489997
 30
0.0
 11
1004.2683916068549479
 21
129.9609148142986896
 31
0.0
  0
LINE
  5
CAB3
  8
0
 10
1004.2559861552889515
 20
129.9795229916489916
 30
0.0
 11
1004.2301131659550038
 21
129.9795229916489916
 31
0.0
  0
LINE
  5
CAB4
  8
0
 10
1004.2303206783219593
 20
129.9419953684489997
 30
0.0
 11
1004.2177077143890074
 21
129.9609148142986896
 31
0.0
  0
LINE
  5
CAB5
  8
0
 10
1004.2216807878560303
 20
129.9375594047984919
 30
0.0
 11
1004.2092753362890107
 21
129.9561675821489928
 31
0.0
  0
LINE
  5
CAB6
  8
0
 10
1004.2177077143890074
 20
129.9609148142994002
 30
0.0
 11
1004.2301131659550038
 21
129.9795229916489916
 31
0.0
  0
ARC
  5
CAB7
  8
0
 10
1004.2322874619360391
 20
129.9377793388003113
 30
0.0
 40
0.0054222045870715
 50
207.5338474268833124
 51
246.3593847586220136
  0
ARC
  5
CAB8
  8
0
 10
1004.2268170010429458
 20
129.9420886971323057
 30
0.0
 40
0.0068480051803696
 50
221.4069744945147136
 51
275.5507239446221206
  0
LINE
  5
CAB9
  8
0
 10
1004.2204964283049549
 20
129.9650978851740035
 30
0.0
 11
1004.2303206783219593
 21
129.950361510248996
 31
0.0
  0
LINE
  5
CABA
  8
0
 10
1004.2303206783219593
 20
129.950361510248996
 30
0.0
 11
1004.2557786429219959
 21
129.950361510248996
 31
0.0
  0
LINE
  5
CABB
  8
0
 10
1004.2656028929390004
 20
129.9650978851740035
 30
0.0
 11
1004.2557786429219959
 21
129.950361510248996
 31
0.0
  0
LINE
  5
CABC
  8
0
 10
1004.2557786429219959
 20
129.9419953684489997
 30
0.0
 11
1004.2557786429219959
 21
129.950361510248996
 31
0.0
  0
LINE
  5
CABD
  8
0
 10
1004.2303206783219593
 20
129.9419953684489997
 30
0.0
 11
1004.2303206783219593
 21
129.950361510248996
 31
0.0
  0
ARC
  5
CABE
  8
0
 10
1004.273435032082034
 20
129.945256034700293
 30
0.0
 40
0.0179549442375811
 50
190.4631261530674919
 51
214.1291766783828052
  0
ARC
  5
CABF
  8
0
 10
1004.2129939760950492
 20
129.9453567762319892
 30
0.0
 40
0.0176497499229873
 50
325.1564152324464771
 51
349.0209104665851783
  0
ARC
  5
CAC0
  8
0
 10
1004.2077247715329804
 20
129.9604671266540947
 30
0.0
 40
0.0045705944923242
 50
289.8310610081451841
 51
336.2757068063800148
  0
ARC
  5
CAC1
  8
0
 10
1004.2121696282280254
 20
129.9664632172045913
 30
0.0
 40
0.0078393349926641
 50
268.0956192335535206
 51
314.9466823272862825
  0
LINE
  5
CAC2
  8
0
 10
1004.255986155288042
 20
129.9795229917490076
 30
0.0
 11
1004.2301131659550038
 21
129.9795229917490076
 31
0.0
  0
LINE
  5
CAC3
  8
0
 10
1004.2557786429219959
 20
129.9887061875490133
 30
0.0
 11
1004.2303206783219593
 21
129.9887061875490133
 31
0.0
  0
LINE
  5
CAC4
  8
0
 10
1004.2557786429219959
 20
129.9887061875490133
 30
0.0
 11
1004.2683916068549479
 21
130.0076256333987885
 31
0.0
  0
LINE
  5
CAC5
  8
0
 10
1004.2559861552889515
 20
130.0262338107490052
 30
0.0
 11
1004.2301131659550038
 21
130.0262338107490052
 31
0.0
  0
LINE
  5
CAC6
  8
0
 10
1004.2303206783219593
 20
129.9887061875490133
 30
0.0
 11
1004.2177077143890074
 21
130.0076256333987885
 31
0.0
  0
LINE
  5
CAC7
  8
0
 10
1004.2217283987680503
 20
129.9841988075301913
 30
0.0
 11
1004.2092753362890107
 21
130.0028784012490064
 31
0.0
  0
LINE
  5
CAC8
  8
0
 10
1004.2177077143890074
 20
130.0076256333994991
 30
0.0
 11
1004.2301131659550038
 21
130.0262338107490052
 31
0.0
  0
ARC
  5
CAC9
  8
0
 10
1004.2322874619360391
 20
129.9844901579002965
 30
0.0
 40
0.0054222045870715
 50
207.5338474268833124
 51
246.3593847586220136
  0
ARC
  5
CACA
  8
0
 10
1004.2268249506159918
 20
129.9888574469333946
 30
0.0
 40
0.0069049085318957
 50
222.4297068006544009
 51
275.438572375678973
  0
LINE
  5
CACB
  8
0
 10
1004.2204964283049549
 20
130.0118087042739887
 30
0.0
 11
1004.2303206783219593
 21
129.9970723293490096
 31
0.0
  0
LINE
  5
CACC
  8
0
 10
1004.2303206783219593
 20
129.9970723293490096
 30
0.0
 11
1004.2557786429219959
 21
129.9970723293490096
 31
0.0
  0
LINE
  5
CACD
  8
0
 10
1004.2656028929390004
 20
130.0118087042739887
 30
0.0
 11
1004.2557786429219959
 21
129.9970723293490096
 31
0.0
  0
LINE
  5
CACE
  8
0
 10
1004.2557786429219959
 20
129.9887061875490133
 30
0.0
 11
1004.2557786429219959
 21
129.9970723293490096
 31
0.0
  0
LINE
  5
CACF
  8
0
 10
1004.2303206783219593
 20
129.9887061875490133
 30
0.0
 11
1004.2303206783219593
 21
129.9970723293490096
 31
0.0
  0
ARC
  5
CAD0
  8
0
 10
1004.273435032082034
 20
129.9919668538003918
 30
0.0
 40
0.0179549442375811
 50
190.4631261530674919
 51
214.1291766783828052
  0
ARC
  5
CAD1
  8
0
 10
1004.2129939760950492
 20
129.9920675953320028
 30
0.0
 40
0.0176497499229873
 50
325.1564152324464771
 51
349.0209104665851783
  0
ARC
  5
CAD2
  8
0
 10
1004.2077247715329804
 20
130.0071779457541084
 30
0.0
 40
0.0045705944923242
 50
289.8310610081451841
 51
336.2757068063800148
  0
ARC
  5
CAD3
  8
0
 10
1004.2121696282280254
 20
130.0131740363046049
 30
0.0
 40
0.0078393349926641
 50
268.0956192335535206
 51
314.9466823272862825
  0
LINE
  5
CAD4
  8
0
 10
1004.255986155288042
 20
130.0262338107490052
 30
0.0
 11
1004.2301131659550038
 21
130.0262338107490052
 31
0.0
  0
LINE
  5
CAD5
  8
0
 10
1004.2557786429219959
 20
130.0354170065490109
 30
0.0
 11
1004.2303206783219593
 21
130.0354170065490109
 31
0.0
  0
LINE
  5
CAD6
  8
0
 10
1004.2557786429219959
 20
130.0354170065490109
 30
0.0
 11
1004.2683916068549479
 21
130.0543364523987862
 31
0.0
  0
LINE
  5
CAD7
  8
0
 10
1004.2559861552889515
 20
130.0729446297490028
 30
0.0
 11
1004.2301131659550038
 21
130.0729446297490028
 31
0.0
  0
LINE
  5
CAD8
  8
0
 10
1004.2303206783219593
 20
130.0354170065490109
 30
0.0
 11
1004.2177077143890074
 21
130.0543364523987862
 31
0.0
  0
LINE
  5
CAD9
  8
0
 10
1004.2217283987680503
 20
130.0309096265301889
 30
0.0
 11
1004.2092753362890107
 21
130.049589220249004
 31
0.0
  0
LINE
  5
CADA
  8
0
 10
1004.2177077143890074
 20
130.0543364523994967
 30
0.0
 11
1004.2301131659550038
 21
130.0729446297490028
 31
0.0
  0
ARC
  5
CADB
  8
0
 10
1004.2322874619360391
 20
130.0312009769002941
 30
0.0
 40
0.0054222045870715
 50
207.5338474268833124
 51
246.3593847586220136
  0
ARC
  5
CADC
  8
0
 10
1004.2268249506159918
 20
130.0355682659333922
 30
0.0
 40
0.0069049085318957
 50
222.4297068006544009
 51
275.438572375678973
  0
LINE
  5
CADD
  8
0
 10
1004.2204964283049549
 20
130.0585195232739864
 30
0.0
 11
1004.2303206783219593
 21
130.0437831483490072
 31
0.0
  0
LINE
  5
CADE
  8
0
 10
1004.2303206783219593
 20
130.0437831483490072
 30
0.0
 11
1004.2557786429219959
 21
130.0437831483490072
 31
0.0
  0
LINE
  5
CADF
  8
0
 10
1004.2656028929390004
 20
130.0585195232739011
 30
0.0
 11
1004.2557786429219959
 21
130.0437831483490072
 31
0.0
  0
LINE
  5
CAE0
  8
0
 10
1004.2557786429219959
 20
130.0354170065490109
 30
0.0
 11
1004.2557786429219959
 21
130.0437831483490072
 31
0.0
  0
LINE
  5
CAE1
  8
0
 10
1004.2303206783219593
 20
130.0354170065490109
 30
0.0
 11
1004.2303206783219593
 21
130.0437831483490072
 31
0.0
  0
ARC
  5
CAE2
  8
0
 10
1004.273435032082034
 20
130.0386776728003895
 30
0.0
 40
0.0179549442375811
 50
190.4631261530674919
 51
214.1291766783828052
  0
ARC
  5
CAE3
  8
0
 10
1004.2129939760950492
 20
130.0387784143320005
 30
0.0
 40
0.0176497499229873
 50
325.1564152324464771
 51
349.0209104665851783
  0
ARC
  5
CAE4
  8
0
 10
1004.2077247715329804
 20
130.053888764754106
 30
0.0
 40
0.0045705944923242
 50
289.8310610081451841
 51
336.2757068063800148
  0
ARC
  5
CAE5
  8
0
 10
1004.2121696282280254
 20
130.0598848553046025
 30
0.0
 40
0.0078393349926641
 50
268.0956192335535206
 51
314.9466823272862825
  0
LINE
  5
CAE6
  8
0
 10
1004.255986155288042
 20
130.0729446297490028
 30
0.0
 11
1004.2301131659550038
 21
130.0729446297490028
 31
0.0
  0
LINE
  5
CAE7
  8
0
 10
1004.2557786429219959
 20
130.0821278255490085
 30
0.0
 11
1004.2303206783219593
 21
130.0821278255490085
 31
0.0
  0
LINE
  5
CAE8
  8
0
 10
1004.2557786429219959
 20
130.0821278255490085
 30
0.0
 11
1004.2683916068549479
 21
130.1010472713988122
 31
0.0
  0
LINE
  5
CAE9
  8
0
 10
1004.2559861552889515
 20
130.1196554487490005
 30
0.0
 11
1004.2301131659550038
 21
130.1196554487490005
 31
0.0
  0
LINE
  5
CAEA
  8
0
 10
1004.2303206783219593
 20
130.0821278255490085
 30
0.0
 11
1004.2177077143890074
 21
130.1010472713988122
 31
0.0
  0
LINE
  5
CAEB
  8
0
 10
1004.2217283987680503
 20
130.0776204455301865
 30
0.0
 11
1004.2092753362890107
 21
130.0963000392490017
 31
0.0
  0
LINE
  5
CAEC
  8
0
 10
1004.2177077143890074
 20
130.1010472713994943
 30
0.0
 11
1004.2301131659550038
 21
130.1196554487490005
 31
0.0
  0
ARC
  5
CAED
  8
0
 10
1004.2322874619360391
 20
130.0779117959002917
 30
0.0
 40
0.0054222045870715
 50
207.5338474268833124
 51
246.3593847586220136
  0
ARC
  5
CAEE
  8
0
 10
1004.2268249506159918
 20
130.0822790849333899
 30
0.0
 40
0.0069049085318957
 50
222.4297068006544009
 51
275.438572375678973
  0
LINE
  5
CAEF
  8
0
 10
1004.2204964283049549
 20
130.1052303422740124
 30
0.0
 11
1004.2303206783219593
 21
130.0904939673490048
 31
0.0
  0
LINE
  5
CAF0
  8
0
 10
1004.2303206783219593
 20
130.0904939673490048
 30
0.0
 11
1004.2557786429219959
 21
130.0904939673490048
 31
0.0
  0
LINE
  5
CAF1
  8
0
 10
1004.2656028929390004
 20
130.1052303422740124
 30
0.0
 11
1004.2557786429219959
 21
130.0904939673490048
 31
0.0
  0
LINE
  5
CAF2
  8
0
 10
1004.2557786429219959
 20
130.0821278255490085
 30
0.0
 11
1004.2557786429219959
 21
130.0904939673490048
 31
0.0
  0
LINE
  5
CAF3
  8
0
 10
1004.2303206783219593
 20
130.0821278255490085
 30
0.0
 11
1004.2303206783219593
 21
130.0904939673490048
 31
0.0
  0
ARC
  5
CAF4
  8
0
 10
1004.273435032082034
 20
130.0853884918003871
 30
0.0
 40
0.0179549442375811
 50
190.4631261530674919
 51
214.1291766656088953
  0
ARC
  5
CAF5
  8
0
 10
1004.2129939760950492
 20
130.0854892333321118
 30
0.0
 40
0.0176497499229873
 50
325.1564152324464771
 51
349.0209104665851783
  0
ARC
  5
CAF6
  8
0
 10
1004.2077247715329804
 20
130.1005995837541036
 30
0.0
 40
0.0045705944923242
 50
289.8310610081451841
 51
336.2757068063800148
  0
ARC
  5
CAF7
  8
0
 10
1004.2121696282280254
 20
130.1065956743046002
 30
0.0
 40
0.0078393349926641
 50
268.0956192335535206
 51
314.9466823272862825
  0
LINE
  5
CAF8
  8
0
 10
1004.255986155288042
 20
130.1196554487490005
 30
0.0
 11
1004.2301131659550038
 21
130.1196554487490005
 31
0.0
  0
LINE
  5
CAF9
  8
0
 10
1004.2557786429219959
 20
130.1288386445490062
 30
0.0
 11
1004.2303206783219593
 21
130.1288386445490062
 31
0.0
  0
ARC
  5
CAFA
  8
0
 10
1004.2322874619360391
 20
130.1246226149002894
 30
0.0
 40
0.0054222045870715
 50
207.5338474268833124
 51
246.3593847586220136
  0
ARC
  5
CAFB
  8
0
 10
1004.2268249506159918
 20
130.1289899039333875
 30
0.0
 40
0.0069049085318957
 50
222.4297068006544009
 51
275.438572375678973
  0
ARC
  5
CAFC
  8
0
 10
1004.2129939760950492
 20
130.1322000523321094
 30
0.0
 40
0.0176497499229873
 50
325.1564152324464771
 51
349.0209104665851783
  0
LINE
  5
CAFD
  8
0
 10
1004.2092753362879876
 20
129.8160351251489999
 30
0.0
 11
1004.1834023469549493
 21
129.8160351251489999
 31
0.0
  0
LINE
  5
CAFE
  8
0
 10
1004.2090678239220551
 20
129.8252183209490056
 30
0.0
 11
1004.1836098593220186
 21
129.8252183209490056
 31
0.0
  0
LINE
  5
CAFF
  8
0
 10
1004.2090678239220551
 20
129.8252183209490056
 30
0.0
 11
1004.2216807878550071
 21
129.8441377667986956
 31
0.0
  0
LINE
  5
CB00
  8
0
 10
1004.1836098593220186
 20
129.8252183209490056
 30
0.0
 11
1004.1709968953880434
 21
129.8441377667986956
 31
0.0
  0
LINE
  5
CB01
  8
0
 10
1004.1750175797679958
 20
129.820710940930212
 30
0.0
 11
1004.1625645172889563
 21
129.8393905346489987
 31
0.0
  0
LINE
  5
CB02
  8
0
 10
1004.1709968953889529
 20
129.8441377667994914
 30
0.0
 11
1004.1834023469549493
 21
129.8627459441489975
 31
0.0
  0
ARC
  5
CB03
  8
0
 10
1004.1855766429349615
 20
129.8210022913002888
 30
0.0
 40
0.0054222045870715
 50
207.5338474268833124
 51
246.3593847586220136
  0
ARC
  5
CB04
  8
0
 10
1004.1801141316160511
 20
129.8253695803333869
 30
0.0
 40
0.0069049085318957
 50
222.4297068006544009
 51
275.438572375678973
  0
LINE
  5
CB05
  8
0
 10
1004.1737856093050141
 20
129.8483208376740095
 30
0.0
 11
1004.1836098593220186
 21
129.8335844627490019
 31
0.0
  0
LINE
  5
CB06
  8
0
 10
1004.1836098593220186
 20
129.8335844627490019
 30
0.0
 11
1004.2090678239220551
 21
129.8335844627490019
 31
0.0
  0
LINE
  5
CB07
  8
0
 10
1004.2188920739380364
 20
129.8483208376740095
 30
0.0
 11
1004.2090678239220551
 21
129.8335844627490019
 31
0.0
  0
LINE
  5
CB08
  8
0
 10
1004.2090678239220551
 20
129.8252183209490056
 30
0.0
 11
1004.2090678239220551
 21
129.8335844627490019
 31
0.0
  0
LINE
  5
CB09
  8
0
 10
1004.1836098593220186
 20
129.8252183209490056
 30
0.0
 11
1004.1836098593220186
 21
129.8335844627490019
 31
0.0
  0
ARC
  5
CB0A
  8
0
 10
1004.2267242130819795
 20
129.8284789872004126
 30
0.0
 40
0.0179549442375811
 50
190.4631261530674919
 51
214.1291766783828052
  0
ARC
  5
CB0B
  8
0
 10
1004.1662831570949947
 20
129.8285797287319951
 30
0.0
 40
0.0176497499229873
 50
325.1564152324464771
 51
349.0209104665851783
  0
ARC
  5
CB0C
  8
0
 10
1004.1610139525330396
 20
129.8436900791541007
 30
0.0
 40
0.0045705944923242
 50
289.8310610081451841
 51
336.2757068063800148
  0
ARC
  5
CB0D
  8
0
 10
1004.165458809227971
 20
129.8496861697045972
 30
0.0
 40
0.0078393349926641
 50
268.0956192335535206
 51
314.9466823272862825
  0
LINE
  5
CB0E
  8
0
 10
1004.2092753362879876
 20
129.8627459441489975
 30
0.0
 11
1004.1834023469549493
 21
129.8627459441489975
 31
0.0
  0
LINE
  5
CB0F
  8
0
 10
1004.2090678239220551
 20
129.8719291399490032
 30
0.0
 11
1004.1836098593220186
 21
129.8719291399490032
 31
0.0
  0
LINE
  5
CB10
  8
0
 10
1004.2090678239220551
 20
129.8719291399490032
 30
0.0
 11
1004.2216807878550071
 21
129.8908485857988069
 31
0.0
  0
LINE
  5
CB11
  8
0
 10
1004.1836098593220186
 20
129.8719291399490032
 30
0.0
 11
1004.1709968953880434
 21
129.8908485857988069
 31
0.0
  0
LINE
  5
CB12
  8
0
 10
1004.1750175797679958
 20
129.8674217599302096
 30
0.0
 11
1004.1625645172889563
 21
129.8861013536489963
 31
0.0
  0
LINE
  5
CB13
  8
0
 10
1004.1709968953889529
 20
129.890848585799489
 30
0.0
 11
1004.1834023469549493
 21
129.9094567631489952
 31
0.0
  0
ARC
  5
CB14
  8
0
 10
1004.1855766429349615
 20
129.8677131103002864
 30
0.0
 40
0.0054222045870715
 50
207.5338474268833124
 51
246.3593847586220136
  0
ARC
  5
CB15
  8
0
 10
1004.1801141316160511
 20
129.872080399333413
 30
0.0
 40
0.0069049085318957
 50
222.4297068006544009
 51
275.438572375678973
  0
LINE
  5
CB16
  8
0
 10
1004.1737856093050141
 20
129.8950316566740071
 30
0.0
 11
1004.1836098593220186
 21
129.8802952817489995
 31
0.0
  0
LINE
  5
CB17
  8
0
 10
1004.1836098593220186
 20
129.8802952817489995
 30
0.0
 11
1004.2090678239220551
 21
129.8802952817489995
 31
0.0
  0
LINE
  5
CB18
  8
0
 10
1004.2188920739380364
 20
129.8950316566740071
 30
0.0
 11
1004.2090678239220551
 21
129.8802952817489995
 31
0.0
  0
LINE
  5
CB19
  8
0
 10
1004.2090678239220551
 20
129.8719291399490032
 30
0.0
 11
1004.2090678239220551
 21
129.8802952817489995
 31
0.0
  0
LINE
  5
CB1A
  8
0
 10
1004.1836098593220186
 20
129.8719291399490032
 30
0.0
 11
1004.1836098593220186
 21
129.8802952817489995
 31
0.0
  0
ARC
  5
CB1B
  8
0
 10
1004.2267242130819795
 20
129.8751898062004102
 30
0.0
 40
0.0179549442375811
 50
190.4631261530674919
 51
214.1291766783828052
  0
ARC
  5
CB1C
  8
0
 10
1004.1662831570949947
 20
129.8752905477321065
 30
0.0
 40
0.0176497499229873
 50
325.1564152324464771
 51
349.0209104665851783
  0
ARC
  5
CB1D
  8
0
 10
1004.1610139525330396
 20
129.8904008981540983
 30
0.0
 40
0.0045705944923242
 50
289.8310610081451841
 51
336.2757068063800148
  0
ARC
  5
CB1E
  8
0
 10
1004.165458809227971
 20
129.8963969887045948
 30
0.0
 40
0.0078393349926641
 50
268.0956192335535206
 51
314.9466823272862825
  0
LINE
  5
CB1F
  8
0
 10
1004.2092753362879876
 20
129.9094567631489952
 30
0.0
 11
1004.1834023469549493
 21
129.9094567631489952
 31
0.0
  0
LINE
  5
CB20
  8
0
 10
1004.2090678239220551
 20
129.9186399589490009
 30
0.0
 11
1004.1836098593220186
 21
129.9186399589490009
 31
0.0
  0
LINE
  5
CB21
  8
0
 10
1004.2090678239220551
 20
129.9186399589490009
 30
0.0
 11
1004.2216807878550071
 21
129.9375594047988045
 31
0.0
  0
LINE
  5
CB22
  8
0
 10
1004.1836098593220186
 20
129.9186399589490009
 30
0.0
 11
1004.1709968953880434
 21
129.9375594047988045
 31
0.0
  0
LINE
  5
CB23
  8
0
 10
1004.1749699688059536
 20
129.9142039952984931
 30
0.0
 11
1004.1625645172889563
 21
129.932812172648994
 31
0.0
  0
LINE
  5
CB24
  8
0
 10
1004.1709968953889529
 20
129.9375594047994866
 30
0.0
 11
1004.1834023469549493
 21
129.9561675821489928
 31
0.0
  0
ARC
  5
CB25
  8
0
 10
1004.1855766429349615
 20
129.9144239293003125
 30
0.0
 40
0.0054222045870715
 50
207.5338474268833124
 51
246.3593847586220136
  0
ARC
  5
CB26
  8
0
 10
1004.1801061820659697
 20
129.918733287804514
 30
0.0
 40
0.006848005349528
 50
221.406975167967488
 51
275.5507236083872158
  0
LINE
  5
CB27
  8
0
 10
1004.1737856093050141
 20
129.9417424756740047
 30
0.0
 11
1004.1836098593220186
 21
129.9270061007489971
 31
0.0
  0
LINE
  5
CB28
  8
0
 10
1004.1836098593220186
 20
129.9270061007489971
 30
0.0
 11
1004.2090678239220551
 21
129.9270061007489971
 31
0.0
  0
LINE
  5
CB29
  8
0
 10
1004.2188920739380364
 20
129.9417424756740047
 30
0.0
 11
1004.2090678239220551
 21
129.9270061007489971
 31
0.0
  0
LINE
  5
CB2A
  8
0
 10
1004.2090678239220551
 20
129.9186399589490009
 30
0.0
 11
1004.2090678239220551
 21
129.9270061007489971
 31
0.0
  0
LINE
  5
CB2B
  8
0
 10
1004.1836098593220186
 20
129.9186399589490009
 30
0.0
 11
1004.1836098593220186
 21
129.9270061007489971
 31
0.0
  0
ARC
  5
CB2C
  8
0
 10
1004.2267242130819795
 20
129.9219006252004078
 30
0.0
 40
0.0179549442375811
 50
190.4631261530674919
 51
214.1291766783828052
  0
ARC
  5
CB2D
  8
0
 10
1004.1662831570949947
 20
129.9220013667321041
 30
0.0
 40
0.0176497499229873
 50
325.1564152324464771
 51
349.0209104665851783
  0
ARC
  5
CB2E
  8
0
 10
1004.1610139525330396
 20
129.9371117171540959
 30
0.0
 40
0.0045705944923242
 50
289.8310610081451841
 51
336.2757068063800148
  0
ARC
  5
CB2F
  8
0
 10
1004.165458809227971
 20
129.9431078077045925
 30
0.0
 40
0.0078393349926641
 50
268.0956192335535206
 51
314.9466823272862825
  0
LINE
  5
CB30
  8
0
 10
1004.2092753362879876
 20
129.9561675822490088
 30
0.0
 11
1004.1834023469549493
 21
129.9561675822490088
 31
0.0
  0
LINE
  5
CB31
  8
0
 10
1004.2090678239220551
 20
129.9653507780489861
 30
0.0
 11
1004.1836098593220186
 21
129.9653507780489861
 31
0.0
  0
LINE
  5
CB32
  8
0
 10
1004.2090678239220551
 20
129.9653507780489861
 30
0.0
 11
1004.2216807878550071
 21
129.9842702238987897
 31
0.0
  0
LINE
  5
CB33
  8
0
 10
1004.1836098593220186
 20
129.9653507780489861
 30
0.0
 11
1004.1709968953880434
 21
129.9842702238987897
 31
0.0
  0
LINE
  5
CB34
  8
0
 10
1004.1749699688059536
 20
129.9609148142984907
 30
0.0
 11
1004.1625645172889563
 21
129.9795229917490076
 31
0.0
  0
LINE
  5
CB35
  8
0
 10
1004.1709968953889529
 20
129.9842702238995003
 30
0.0
 11
1004.1834023469549493
 21
130.0028784012490064
 31
0.0
  0
ARC
  5
CB36
  8
0
 10
1004.1855766429349615
 20
129.9611347484002977
 30
0.0
 40
0.0054222045870715
 50
207.5338474268833124
 51
246.3593847586220136
  0
ARC
  5
CB37
  8
0
 10
1004.1801061821080339
 20
129.9654441072084126
 30
0.0
 40
0.0068480056478724
 50
221.4069774712585001
 51
275.5507230153477281
  0
LINE
  5
CB38
  8
0
 10
1004.1737856093050141
 20
129.9884532947739899
 30
0.0
 11
1004.1836098593220186
 21
129.9737169198490108
 31
0.0
  0
LINE
  5
CB39
  8
0
 10
1004.1836098593220186
 20
129.9737169198490108
 30
0.0
 11
1004.2090678239220551
 21
129.9737169198490108
 31
0.0
  0
LINE
  5
CB3A
  8
0
 10
1004.2188920739380364
 20
129.9884532947739899
 30
0.0
 11
1004.2090678239220551
 21
129.9737169198490108
 31
0.0
  0
LINE
  5
CB3B
  8
0
 10
1004.2090678239220551
 20
129.9653507780489861
 30
0.0
 11
1004.2090678239220551
 21
129.9737169198490108
 31
0.0
  0
LINE
  5
CB3C
  8
0
 10
1004.1836098593220186
 20
129.9653507780489861
 30
0.0
 11
1004.1836098593220186
 21
129.9737169198490108
 31
0.0
  0
ARC
  5
CB3D
  8
0
 10
1004.2267242130819795
 20
129.968611444300393
 30
0.0
 40
0.0179549442375811
 50
190.4631261530674919
 51
214.1291766783828052
  0
ARC
  5
CB3E
  8
0
 10
1004.1662831570949947
 20
129.968712185832004
 30
0.0
 40
0.0176497499229873
 50
325.1564152324464771
 51
349.0209104665851783
  0
ARC
  5
CB3F
  8
0
 10
1004.1610139525330396
 20
129.9838225362541095
 30
0.0
 40
0.0045705944923242
 50
289.8310610081451841
 51
336.2757068063800148
  0
ARC
  5
CB40
  8
0
 10
1004.165458809227971
 20
129.9898186268046061
 30
0.0
 40
0.0078393349926641
 50
268.0956192335535206
 51
314.9466823272862825
  0
LINE
  5
CB41
  8
0
 10
1004.2092753362879876
 20
130.0028784012490064
 30
0.0
 11
1004.1834023469549493
 21
130.0028784012490064
 31
0.0
  0
LINE
  5
CB42
  8
0
 10
1004.2090678239220551
 20
130.0120615970490121
 30
0.0
 11
1004.1836098593220186
 21
130.0120615970490121
 31
0.0
  0
LINE
  5
CB43
  8
0
 10
1004.2090678239220551
 20
130.0120615970490121
 30
0.0
 11
1004.2216807878550071
 21
130.0309810428987873
 31
0.0
  0
LINE
  5
CB44
  8
0
 10
1004.1836098593220186
 20
130.0120615970490121
 30
0.0
 11
1004.1709968953880434
 21
130.0309810428987873
 31
0.0
  0
LINE
  5
CB45
  8
0
 10
1004.1749699688059536
 20
130.0076256333985043
 30
0.0
 11
1004.1625645172889563
 21
130.0262338107490052
 31
0.0
  0
LINE
  5
CB46
  8
0
 10
1004.1709968953889529
 20
130.0309810428994979
 30
0.0
 11
1004.1834023469549493
 21
130.049589220249004
 31
0.0
  0
ARC
  5
CB47
  8
0
 10
1004.1855766429349615
 20
130.0078455674002953
 30
0.0
 40
0.0054222045870715
 50
207.5338474268833124
 51
246.3593847586220136
  0
ARC
  5
CB48
  8
0
 10
1004.1801061820659697
 20
130.0121549259046105
 30
0.0
 40
0.0068480053495306
 50
221.406975167978004
 51
275.5507236083741986
  0
LINE
  5
CB49
  8
0
 10
1004.1737856093050141
 20
130.0351641137739875
 30
0.0
 11
1004.1836098593220186
 21
130.0204277388490084
 31
0.0
  0
LINE
  5
CB4A
  8
0
 10
1004.1836098593220186
 20
130.0204277388490084
 30
0.0
 11
1004.2090678239220551
 21
130.0204277388490084
 31
0.0
  0
LINE
  5
CB4B
  8
0
 10
1004.2188920739380364
 20
130.0351641137739875
 30
0.0
 11
1004.2090678239220551
 21
130.0204277388490084
 31
0.0
  0
LINE
  5
CB4C
  8
0
 10
1004.2090678239220551
 20
130.0120615970490121
 30
0.0
 11
1004.2090678239220551
 21
130.0204277388490084
 31
0.0
  0
LINE
  5
CB4D
  8
0
 10
1004.1836098593220186
 20
130.0120615970490121
 30
0.0
 11
1004.1836098593220186
 21
130.0204277388490084
 31
0.0
  0
ARC
  5
CB4E
  8
0
 10
1004.2267242130819795
 20
130.0153222633003907
 30
0.0
 40
0.0179549442375811
 50
190.4631261530674919
 51
214.1291766783828052
  0
ARC
  5
CB4F
  8
0
 10
1004.1662831570949947
 20
130.0154230048320017
 30
0.0
 40
0.0176497499229873
 50
325.1564152324464771
 51
349.0209104665851783
  0
ARC
  5
CB50
  8
0
 10
1004.1610139525330396
 20
130.0305333552541072
 30
0.0
 40
0.0045705944923242
 50
289.8310610081451841
 51
336.2757068063800148
  0
ARC
  5
CB51
  8
0
 10
1004.165458809227971
 20
130.0365294458046037
 30
0.0
 40
0.0078393349926641
 50
268.0956192335535206
 51
314.9466823272862825
  0
LINE
  5
CB52
  8
0
 10
1004.2092753362879876
 20
130.049589220249004
 30
0.0
 11
1004.1834023469549493
 21
130.049589220249004
 31
0.0
  0
LINE
  5
CB53
  8
0
 10
1004.2090678239220551
 20
130.0587724160490097
 30
0.0
 11
1004.1836098593220186
 21
130.0587724160490097
 31
0.0
  0
LINE
  5
CB54
  8
0
 10
1004.2090678239220551
 20
130.0587724160490097
 30
0.0
 11
1004.2216807878550071
 21
130.0776918618988134
 31
0.0
  0
LINE
  5
CB55
  8
0
 10
1004.1836098593220186
 20
130.0587724160490097
 30
0.0
 11
1004.1709968953880434
 21
130.0776918618988134
 31
0.0
  0
LINE
  5
CB56
  8
0
 10
1004.1750175797679958
 20
130.0542650360301877
 30
0.0
 11
1004.1625645172889563
 21
130.0729446297490028
 31
0.0
  0
LINE
  5
CB57
  8
0
 10
1004.1709968953889529
 20
130.0776918618994955
 30
0.0
 11
1004.1834023469549493
 21
130.0963000392490017
 31
0.0
  0
ARC
  5
CB58
  8
0
 10
1004.1855766429349615
 20
130.0545563864002929
 30
0.0
 40
0.0054222045870715
 50
207.5338474268833124
 51
246.3593847586220136
  0
ARC
  5
CB59
  8
0
 10
1004.1801141316160511
 20
130.0589236754333911
 30
0.0
 40
0.0069049085318957
 50
222.4297068006544009
 51
275.438572375678973
  0
LINE
  5
CB5A
  8
0
 10
1004.1737856093050141
 20
130.0818749327740136
 30
0.0
 11
1004.1836098593220186
 21
130.067138557849006
 31
0.0
  0
LINE
  5
CB5B
  8
0
 10
1004.1836098593220186
 20
130.067138557849006
 30
0.0
 11
1004.2090678239220551
 21
130.067138557849006
 31
0.0
  0
LINE
  5
CB5C
  8
0
 10
1004.2188920739380364
 20
130.0818749327740136
 30
0.0
 11
1004.2090678239220551
 21
130.067138557849006
 31
0.0
  0
LINE
  5
CB5D
  8
0
 10
1004.2090678239220551
 20
130.0587724160490097
 30
0.0
 11
1004.2090678239220551
 21
130.067138557849006
 31
0.0
  0
LINE
  5
CB5E
  8
0
 10
1004.1836098593220186
 20
130.0587724160490097
 30
0.0
 11
1004.1836098593220186
 21
130.067138557849006
 31
0.0
  0
ARC
  5
CB5F
  8
0
 10
1004.2267242130819795
 20
130.0620330823003883
 30
0.0
 40
0.0179549442375811
 50
190.4631261530674919
 51
214.1291766783828052
  0
ARC
  5
CB60
  8
0
 10
1004.1662831570949947
 20
130.0621338238319993
 30
0.0
 40
0.0176497499229873
 50
325.1564152324464771
 51
349.0209104665851783
  0
ARC
  5
CB61
  8
0
 10
1004.1610139525330396
 20
130.0772441742541048
 30
0.0
 40
0.0045705944923242
 50
289.8310610081451841
 51
336.2757068063800148
  0
ARC
  5
CB62
  8
0
 10
1004.165458809227971
 20
130.0832402648046013
 30
0.0
 40
0.0078393349926641
 50
268.0956192335535206
 51
314.9466823272862825
  0
LINE
  5
CB63
  8
0
 10
1004.1625645172380246
 20
129.8861013536489963
 30
0.0
 11
1004.1366915279049863
 21
129.8861013536489963
 31
0.0
  0
LINE
  5
CB64
  8
0
 10
1004.1623570048719785
 20
129.895284549449002
 30
0.0
 11
1004.1368990402720556
 21
129.895284549449002
 31
0.0
  0
LINE
  5
CB65
  8
0
 10
1004.1623570048719785
 20
129.895284549449002
 30
0.0
 11
1004.1749699688050441
 21
129.9142039952988057
 31
0.0
  0
LINE
  5
CB66
  8
0
 10
1004.1368990402720556
 20
129.895284549449002
 30
0.0
 11
1004.1242860763379667
 21
129.9142039952988057
 31
0.0
  0
LINE
  5
CB67
  8
0
 10
1004.1283067607180328
 20
129.8907771694302085
 30
0.0
 11
1004.1158536982389933
 21
129.9094567631489952
 31
0.0
  0
LINE
  5
CB68
  8
0
 10
1004.1242860763389899
 20
129.9142039952994878
 30
0.0
 11
1004.1366915279049863
 21
129.932812172648994
 31
0.0
  0
ARC
  5
CB69
  8
0
 10
1004.1388658238849985
 20
129.8910685198003137
 30
0.0
 40
0.0054222045870715
 50
207.5338474268833124
 51
246.3593847586220136
  0
ARC
  5
CB6A
  8
0
 10
1004.1334033125659744
 20
129.8954358088334118
 30
0.0
 40
0.0069049085318957
 50
222.4297068006544009
 51
275.438572375678973
  0
LINE
  5
CB6B
  8
0
 10
1004.1270747902550511
 20
129.9183870661740059
 30
0.0
 11
1004.1368990402720556
 21
129.9036506912489983
 31
0.0
  0
LINE
  5
CB6C
  8
0
 10
1004.1368990402720556
 20
129.9036506912489983
 30
0.0
 11
1004.1623570048719785
 21
129.9036506912489983
 31
0.0
  0
LINE
  5
CB6D
  8
0
 10
1004.1721812548879598
 20
129.9183870661740059
 30
0.0
 11
1004.1623570048719785
 21
129.9036506912489983
 31
0.0
  0
LINE
  5
CB6E
  8
0
 10
1004.1623570048719785
 20
129.895284549449002
 30
0.0
 11
1004.1623570048719785
 21
129.9036506912489983
 31
0.0
  0
LINE
  5
CB6F
  8
0
 10
1004.1368990402720556
 20
129.895284549449002
 30
0.0
 11
1004.1368990402720556
 21
129.9036506912489983
 31
0.0
  0
ARC
  5
CB70
  8
0
 10
1004.1800133940320165
 20
129.898545215700409
 30
0.0
 40
0.0179549442375811
 50
190.4631261530674919
 51
214.1291766783828052
  0
ARC
  5
CB71
  8
0
 10
1004.1195723380450318
 20
129.8986459572321053
 30
0.0
 40
0.0176497499229873
 50
325.1564152324464771
 51
349.0209104665851783
  0
ARC
  5
CB72
  8
0
 10
1004.1143031334829629
 20
129.9137563076540971
 30
0.0
 40
0.0045705944923242
 50
289.8310610081451841
 51
336.2757068063800148
  0
ARC
  5
CB73
  8
0
 10
1004.118747990178008
 20
129.9197523982045936
 30
0.0
 40
0.0078393349926641
 50
268.0956192335535206
 51
314.9466823272862825
  0
LINE
  5
CB74
  8
0
 10
1004.1625645172380246
 20
129.932812172648994
 30
0.0
 11
1004.1366915279049863
 21
129.932812172648994
 31
0.0
  0
LINE
  5
CB75
  8
0
 10
1004.1623570048719785
 20
129.9419953684489997
 30
0.0
 11
1004.1368990402720556
 21
129.9419953684489997
 31
0.0
  0
LINE
  5
CB76
  8
0
 10
1004.1623570048719785
 20
129.9419953684489997
 30
0.0
 11
1004.1749699688050441
 21
129.9609148142986896
 31
0.0
  0
LINE
  5
CB77
  8
0
 10
1004.1368990402720556
 20
129.9419953684489997
 30
0.0
 11
1004.1242860763379667
 21
129.9609148142986896
 31
0.0
  0
LINE
  5
CB78
  8
0
 10
1004.1283067607180328
 20
129.9374879884302061
 30
0.0
 11
1004.1158536982389933
 21
129.9561675821489928
 31
0.0
  0
LINE
  5
CB79
  8
0
 10
1004.1242860763389899
 20
129.9609148142994002
 30
0.0
 11
1004.1366915279049863
 21
129.9795229916489916
 31
0.0
  0
ARC
  5
CB7A
  8
0
 10
1004.1388658238849985
 20
129.9377793388003113
 30
0.0
 40
0.0054222045870715
 50
207.5338474268833124
 51
246.3593847586220136
  0
ARC
  5
CB7B
  8
0
 10
1004.1334033125659744
 20
129.9421466278334094
 30
0.0
 40
0.0069049085318957
 50
222.4297068006544009
 51
275.438572375678973
  0
LINE
  5
CB7C
  8
0
 10
1004.1270747902550511
 20
129.9650978851740035
 30
0.0
 11
1004.1368990402720556
 21
129.950361510248996
 31
0.0
  0
LINE
  5
CB7D
  8
0
 10
1004.1368990402720556
 20
129.950361510248996
 30
0.0
 11
1004.1623570048719785
 21
129.950361510248996
 31
0.0
  0
LINE
  5
CB7E
  8
0
 10
1004.1721812548879598
 20
129.9650978851740035
 30
0.0
 11
1004.1623570048719785
 21
129.950361510248996
 31
0.0
  0
LINE
  5
CB7F
  8
0
 10
1004.1623570048719785
 20
129.9419953684489997
 30
0.0
 11
1004.1623570048719785
 21
129.950361510248996
 31
0.0
  0
LINE
  5
CB80
  8
0
 10
1004.1368990402720556
 20
129.9419953684489997
 30
0.0
 11
1004.1368990402720556
 21
129.950361510248996
 31
0.0
  0
ARC
  5
CB81
  8
0
 10
1004.1800133940320165
 20
129.945256034700293
 30
0.0
 40
0.0179549442375811
 50
190.4631261530674919
 51
214.1291766783828052
  0
ARC
  5
CB82
  8
0
 10
1004.1195723380450318
 20
129.9453567762319892
 30
0.0
 40
0.0176497499229873
 50
325.1564152324464771
 51
349.0209104665851783
  0
ARC
  5
CB83
  8
0
 10
1004.1143031334829629
 20
129.9604671266540947
 30
0.0
 40
0.0045705944923242
 50
289.8310610081451841
 51
336.2757068063800148
  0
ARC
  5
CB84
  8
0
 10
1004.118747990178008
 20
129.9664632172045913
 30
0.0
 40
0.0078393349926641
 50
268.0956192335535206
 51
314.9466823272862825
  0
LINE
  5
CB85
  8
0
 10
1004.1625645172380246
 20
129.9795229917490076
 30
0.0
 11
1004.1366915279049863
 21
129.9795229917490076
 31
0.0
  0
LINE
  5
CB86
  8
0
 10
1004.1623570048719785
 20
129.9887061875490133
 30
0.0
 11
1004.1368990402720556
 21
129.9887061875490133
 31
0.0
  0
LINE
  5
CB87
  8
0
 10
1004.1623570048719785
 20
129.9887061875490133
 30
0.0
 11
1004.1749699688050441
 21
130.0076256333987885
 31
0.0
  0
LINE
  5
CB88
  8
0
 10
1004.1368990402720556
 20
129.9887061875490133
 30
0.0
 11
1004.1242860763379667
 21
130.0076256333987885
 31
0.0
  0
LINE
  5
CB89
  8
0
 10
1004.1283067607180328
 20
129.9841988075301913
 30
0.0
 11
1004.1158536982389933
 21
130.0028784012490064
 31
0.0
  0
LINE
  5
CB8A
  8
0
 10
1004.1242860763389899
 20
130.0076256333994991
 30
0.0
 11
1004.1366915279049863
 21
130.0262338107490052
 31
0.0
  0
ARC
  5
CB8B
  8
0
 10
1004.1388658238849985
 20
129.9844901579002965
 30
0.0
 40
0.0054222045870715
 50
207.5338474268833124
 51
246.3593847586220136
  0
ARC
  5
CB8C
  8
0
 10
1004.1334033125659744
 20
129.9888574469333946
 30
0.0
 40
0.0069049085318957
 50
222.4297068006544009
 51
275.438572375678973
  0
LINE
  5
CB8D
  8
0
 10
1004.1270747902550511
 20
130.0118087042739887
 30
0.0
 11
1004.1368990402720556
 21
129.9970723293490096
 31
0.0
  0
LINE
  5
CB8E
  8
0
 10
1004.1368990402720556
 20
129.9970723293490096
 30
0.0
 11
1004.1623570048719785
 21
129.9970723293490096
 31
0.0
  0
LINE
  5
CB8F
  8
0
 10
1004.1721812548879598
 20
130.0118087042739887
 30
0.0
 11
1004.1623570048719785
 21
129.9970723293490096
 31
0.0
  0
LINE
  5
CB90
  8
0
 10
1004.1623570048719785
 20
129.9887061875490133
 30
0.0
 11
1004.1623570048719785
 21
129.9970723293490096
 31
0.0
  0
LINE
  5
CB91
  8
0
 10
1004.1368990402720556
 20
129.9887061875490133
 30
0.0
 11
1004.1368990402720556
 21
129.9970723293490096
 31
0.0
  0
ARC
  5
CB92
  8
0
 10
1004.1800133940320165
 20
129.9919668538003918
 30
0.0
 40
0.0179549442375811
 50
190.4631261530674919
 51
214.1291766783828052
  0
ARC
  5
CB93
  8
0
 10
1004.1195723380450318
 20
129.9920675953320028
 30
0.0
 40
0.0176497499229873
 50
325.1564152324464771
 51
349.0209104665851783
  0
ARC
  5
CB94
  8
0
 10
1004.1143031334829629
 20
130.0071779457541084
 30
0.0
 40
0.0045705944923242
 50
289.8310610081451841
 51
336.2757068063800148
  0
ARC
  5
CB95
  8
0
 10
1004.118747990178008
 20
130.0131740363046049
 30
0.0
 40
0.0078393349926641
 50
268.0956192335535206
 51
314.9466823272862825
  0
LINE
  5
CB96
  8
0
 10
1004.2093794104520157
 20
130.09614392800421
 30
0.0
 11
1004.1834023469549493
 21
130.0963000392490017
 31
0.0
  0
LINE
  5
CB97
  8
0
 10
1004.209067823921032
 20
130.1054832351489949
 30
0.0
 11
1004.1835907184259895
 21
130.1054832351489949
 31
0.0
  0
ARC
  5
CB98
  8
0
 10
1004.3385315079069642
 20
129.8788090788748093
 30
0.0
 40
0.2758645629867285
 50
90.4278998106063341
 51
111.8059491305319
  0
ARC
  5
CB99
  8
0
 10
1004.3244664290140236
 20
129.9159775889856974
 30
0.0
 40
0.2361320727082801
 50
111.9874677935674043
 51
140.9855304993990899
  0
ARC
  5
CB9A
  8
0
 10
1004.2826343367599975
 20
129.9498700447788053
 30
0.0
 40
0.1822932159035314
 50
140.9855304993990899
 51
170.3668906669830108
  0
ARC
  5
CB9B
  8
0
 10
1004.2821371803299826
 20
129.9499544280324983
 30
0.0
 40
0.1817889490604703
 50
170.3668906669846024
 51
211.9316616608124093
  0
ARC
  5
CB9C
  8
0
 10
1004.3153118051189949
 20
129.9706292570139112
 30
0.0
 40
0.2208786444195776
 50
211.9316616608124093
 51
250.5922947730302894
  0
ARC
  5
CB9D
  8
0
 10
1004.3422657867870385
 20
130.0471363950861985
 30
0.0
 40
0.3019949763374719
 50
250.5922947730302894
 51
268.9005774368251878
  0
ARC
  5
CB9E
  8
0
 10
1004.3361849585429582
 20
129.8948765437367001
 30
0.0
 40
0.2731361760010722
 50
89.9399344267218055
 51
136.4441803175884047
  0
ARC
  5
CB9F
  8
0
 10
1004.2788599774570457
 20
129.9504789638174032
 30
0.0
 40
0.1932807457576402
 50
136.6798072237660051
 51
174.8296870296036047
  0
ARC
  5
CBA0
  8
0
 10
1004.2801244968179617
 20
129.9503645441293997
 30
0.0
 40
0.1945504311831768
 50
174.8296870296036047
 51
212.5126105196586934
  0
ARC
  5
CBA1
  8
0
 10
1004.3377922610010273
 20
130.0001227977573137
 30
0.0
 40
0.2701470250368883
 50
214.8386648302918047
 51
269.7198345202992869
  0
ARC
  5
CBA2
  8
0
 10
1004.3366988454080229
 20
129.8974684654963028
 30
0.0
 40
0.2868581649664416
 50
90.0454491922329225
 51
136.5312899052335069
  0
ARC
  5
CBA3
  8
0
 10
1004.2604007047709729
 20
129.9626822395607064
 30
0.0
 40
0.1866917671570205
 50
134.94716476284799
 51
180.7870556897389065
  0
ARC
  5
CBA4
  8
0
 10
1004.2775097298230094
 20
129.9559927887246999
 30
0.0
 40
0.2038249234366003
 50
178.8403712551969988
 51
205.1648438212905887
  0
ARC
  5
CBA5
  8
0
 10
1004.3098878370719831
 20
129.9739072986224073
 30
0.0
 40
0.2407600720991577
 50
205.7470120846707005
 51
244.5599925690752059
  0
ARC
  5
CBA6
  8
0
 10
1004.3393616428420501
 20
130.0358672946196918
 30
0.0
 40
0.3093730907657359
 50
244.5599925690752059
 51
269.4647015550439164
  0
ARC
  5
CBA7
  8
0
 10
1004.3371415549639778
 20
129.8614068540767903
 30
0.0
 40
0.3352978671433069
 50
90.114533639917056
 51
135.5410783473170966
  0
ARC
  5
CBA8
  8
0
 10
1004.2638782441290459
 20
129.9342998924591939
 30
0.0
 40
0.2319529567274934
 50
135.7174849857719892
 51
171.1091403035511007
  0
ARC
  5
CBA9
  8
0
 10
1004.271701470825974
 20
129.9330760864507965
 30
0.0
 40
0.2398713263267976
 50
171.1091403035511007
 51
210.3105982330008885
  0
ARC
  5
CBAA
  8
0
 10
1004.3030725440660262
 20
129.9514156466896964
 30
0.0
 40
0.2762097867498875
 50
210.3105982330008885
 51
250.6232811053882017
  0
ARC
  5
CBAB
  8
0
 10
1004.348446853936025
 20
130.0804302828287007
 30
0.0
 40
0.4129709081781612
 50
250.6232811053882017
 51
268.33827282934908
  0
ARC
  5
CBAC
  8
0
 10
1004.3377386974509591
 20
130.0449073780362994
 30
0.0
 40
0.3396188930427367
 50
229.6976248187700094
 51
269.7861815823328016
  0
ARC
  5
CBAD
  8
0
 10
1004.2674605825039862
 20
129.9644644884564002
 30
0.0
 40
0.232817676232815
 50
178.6009515523890059
 51
230.0827270470313977
  0
ARC
  5
CBAE
  8
0
 10
1004.2752778667160101
 20
129.9821710626659979
 30
0.0
 40
0.2198677791422743
 50
158.5330082786331047
 51
224.2866278977647028
  0
ARC
  5
CBAF
  8
0
 10
1004.2691108639489812
 20
129.9900576594314998
 30
0.0
 40
0.2092122147345793
 50
157.5236770804355046
 51
207.4668821127081912
  0
ARC
  5
CBB0
  8
0
 10
1004.2808542574100557
 20
129.9817676040665049
 30
0.0
 40
0.2071834274778399
 50
134.5329824795626905
 51
182.817448391794386
  0
ARC
  5
CBB1
  8
0
 10
1004.3446137821269986
 20
129.8272569382363884
 30
0.0
 40
0.4293497493506317
 50
91.0866616556669442
 51
136.4349281707926878
  0
ARC
  5
CBB2
  8
0
 10
1004.2615178031410323
 20
129.9280806937852901
 30
0.0
 40
0.3000691844307401
 50
139.4509464262372944
 51
179.2955497291100073
  0
ARC
  5
CBB3
  8
0
 10
1004.2937697105689949
 20
129.9499679426886871
 30
0.0
 40
0.3327963367031186
 50
183.1346162780369866
 51
230.6034352492833932
  0
ARC
  5
CBB4
  8
0
 10
1004.3424907866719877
 20
130.0435356017661945
 30
0.0
 40
0.4365666848831232
 50
233.4572397342566887
 51
269.2099667675399246
  0
LINE
  5
CBB5
  8
0
 10
1004.1280196005469634
 20
129.8730934626690896
 30
0.0
 11
1004.139188309409974
 21
129.8569398723010977
 31
0.0
  0
LINE
  5
CBB6
  8
0
 10
1004.139188309409974
 20
129.8569398723010977
 30
0.0
 11
1004.1623570049209775
 21
129.8569398722490007
 31
0.0
  0
LINE
  5
CBB7
  8
0
 10
1004.1623570049209775
 20
129.8569398722490007
 30
0.0
 11
1004.1721812548549906
 21
129.8716762472994048
 31
0.0
  0
LINE
  5
CBB8
  8
0
 10
1004.1391883094489685
 20
129.8569398722490007
 30
0.0
 11
1004.1391883094489685
 21
129.848573730548992
 31
0.0
  0
LINE
  5
CBB9
  8
0
 10
1004.1391883094489685
 20
129.848573730548992
 30
0.0
 11
1004.1623570049209775
 21
129.848573730548992
 31
0.0
  0
LINE
  5
CBBA
  8
0
 10
1004.1623570049209775
 20
129.848573730548992
 30
0.0
 11
1004.1750175797679958
 21
129.8674217599304086
 31
0.0
  0
LINE
  5
CBBB
  8
0
 10
1004.1625645172889563
 20
129.8393905346489987
 30
0.0
 11
1004.1454185157440406
 21
129.8393905346489987
 31
0.0
  0
ARC
  5
CBBC
  8
0
 10
1004.153612345161946
 20
129.851654514155797
 30
0.0
 40
0.0147493740166238
 50
192.0564647349119127
 51
236.2522600066407961
  0
LINE
  5
CBBD
  8
0
 10
1004.1623570049209775
 20
129.848573730548992
 30
0.0
 11
1004.1623570049209775
 21
129.8569398722490007
 31
0.0
  0
LINE
  5
CBBE
  8
0
 10
1004.1160898787089764
 20
129.9660163172827936
 30
0.0
 11
1004.101059192395951
 21
129.9660163172827936
 31
0.0
  0
LINE
  5
CBBF
  8
0
 10
1004.1160898787089764
 20
129.9660163172827936
 30
0.0
 11
1004.1283067607180328
 21
129.9841988075301913
 31
0.0
  0
LINE
  5
CBC0
  8
0
 10
1004.1019969757679746
 20
129.9743824590827899
 30
0.0
 11
1004.1160898787089764
 21
129.9743824590827899
 31
0.0
  0
LINE
  5
CBC1
  8
0
 10
1004.1254704358940444
 20
129.9884532947656055
 30
0.0
 11
1004.1160898787089764
 21
129.9743824590827899
 31
0.0
  0
LINE
  5
CBC2
  8
0
 10
1004.1160898787089764
 20
129.9660163172827936
 30
0.0
 11
1004.1160898787089764
 21
129.9743824590827899
 31
0.0
  0
LINE
  5
CBC3
  8
0
 10
1004.1160898787089764
 20
129.919305498282796
 30
0.0
 11
1004.1029505036329965
 21
129.919305498282796
 31
0.0
  0
LINE
  5
CBC4
  8
0
 10
1004.1160898787089764
 20
129.919305498282796
 30
0.0
 11
1004.1283067607180328
 21
129.9374879884304903
 31
0.0
  0
LINE
  5
CBC5
  8
0
 10
1004.101719056624006
 20
129.9276716400827922
 30
0.0
 11
1004.1160898787089764
 21
129.9276716400827922
 31
0.0
  0
LINE
  5
CBC6
  8
0
 10
1004.1254704358609615
 20
129.9417424757156141
 30
0.0
 11
1004.1160898787089764
 21
129.9276716400827922
 31
0.0
  0
LINE
  5
CBC7
  8
0
 10
1004.1160898787089764
 20
129.919305498282796
 30
0.0
 11
1004.1160898787089764
 21
129.9276716400827922
 31
0.0
  0
LINE
  5
CBC8
  8
0
 10
1004.1201084604849711
 20
129.878622551907597
 30
0.0
 11
1004.1149277743479615
 21
129.878622551907597
 31
0.0
  0
LINE
  5
CBC9
  8
0
 10
1004.1201084604849711
 20
129.878622551907597
 30
0.0
 11
1004.1283067607180328
 21
129.8907771694304074
 31
0.0
  0
LINE
  5
CBCA
  8
0
 10
1004.1116011480629595
 20
129.8869886937075933
 30
0.0
 11
1004.1201084604849711
 21
129.8869886937075933
 31
0.0
  0
LINE
  5
CBCB
  8
0
 10
1004.125470435860052
 20
129.8950316567164975
 30
0.0
 11
1004.1201084604849711
 21
129.8869886937075933
 31
0.0
  0
LINE
  5
CBCC
  8
0
 10
1004.1201084604849711
 20
129.878622551907597
 30
0.0
 11
1004.1201084604849711
 21
129.8869886937075933
 31
0.0
  0
LINE
  5
CBCD
  8
0
 10
1004.1709968953889529
 20
130.0309810428994979
 30
0.0
 11
1004.1834023469549493
 21
130.049589220249004
 31
0.0
  0
LINE
  5
CBCE
  8
0
 10
1004.1625645172380246
 20
130.0262338107490052
 30
0.0
 11
1004.1366915279049863
 21
130.0262338107490052
 31
0.0
  0
LINE
  5
CBCF
  8
0
 10
1004.1623570048719785
 20
130.0354170065490109
 30
0.0
 11
1004.1368990402720556
 21
130.0354170065490109
 31
0.0
  0
LINE
  5
CBD0
  8
0
 10
1004.1623570048719785
 20
130.0354170065490109
 30
0.0
 11
1004.1749699688050441
 21
130.0543364523987862
 31
0.0
  0
LINE
  5
CBD1
  8
0
 10
1004.1368990402720556
 20
130.0354170065490109
 30
0.0
 11
1004.1287643877780056
 21
130.0476189852575999
 31
0.0
  0
LINE
  5
CBD2
  8
0
 10
1004.1283067607180328
 20
130.0309096265301889
 30
0.0
 11
1004.1232960086290404
 21
130.0384257546627964
 31
0.0
  0
LINE
  5
CBD3
  8
0
 10
1004.1315281986529726
 20
130.0518394107224083
 30
0.0
 11
1004.1368990402720556
 21
130.0437831483490072
 31
0.0
  0
LINE
  5
CBD4
  8
0
 10
1004.1368990402720556
 20
130.0437831483490072
 30
0.0
 11
1004.1623570048719785
 21
130.0437831483490072
 31
0.0
  0
LINE
  5
CBD5
  8
0
 10
1004.1721812548879598
 20
130.0585195232739864
 30
0.0
 11
1004.1623570048719785
 21
130.0437831483490072
 31
0.0
  0
LINE
  5
CBD6
  8
0
 10
1004.1623570048719785
 20
130.0354170065490109
 30
0.0
 11
1004.1623570048719785
 21
130.0437831483490072
 31
0.0
  0
LINE
  5
CBD7
  8
0
 10
1004.1368990402720556
 20
130.0354170065490109
 30
0.0
 11
1004.1368990402720556
 21
130.0437831483490072
 31
0.0
  0
ARC
  5
CBD8
  8
0
 10
1004.1800133940320165
 20
130.0386776728003895
 30
0.0
 40
0.0179549442375811
 50
190.4631261530674919
 51
214.1291766783828052
  0
ARC
  5
CBD9
  8
0
 10
1004.1195723380450318
 20
130.0387784143320005
 30
0.0
 40
0.0176497499229873
 50
325.1564152324464771
 51
349.0209104665851783
  0
ARC
  5
CBDA
  8
0
 10
1004.1388658238849985
 20
130.0312009769002941
 30
0.0
 40
0.0054222045870715
 50
207.5338474268833124
 51
246.3593847586220136
  0
ARC
  5
CBDB
  8
0
 10
1004.1334033125659744
 20
130.0355682659333922
 30
0.0
 40
0.0069049085318957
 50
222.4297068006544009
 51
275.438572375678973
  0
ARC
  5
CBDC
  8
0
 10
1004.1277209652090505
 20
129.9189969456813003
 30
0.0
 40
0.0116351784638466
 50
178.4803985046926869
 51
217.4783081604367965
  0
LINE
  5
CBDD
  8
0
 10
1004.1158536982389933
 20
129.9094567631489952
 30
0.0
 11
1004.1049165236910312
 21
129.9094567631489952
 31
0.0
  0
LINE
  5
CBDE
  8
0
 10
1004.1366915279049863
 20
129.8861013536489963
 30
0.0
 11
1004.1252111321209668
 21
129.8688807600489952
 31
0.0
  0
ARC
  5
CBDF
  8
0
 10
1004.1332727011570114
 20
129.879310609543495
 30
0.0
 40
0.0131822098221461
 50
182.9919658227130981
 51
232.2983998867082107
  0
ARC
  5
CBE0
  8
0
 10
1004.1782501967160215
 20
129.8513292653869939
 30
0.0
 40
0.0161302981272603
 50
189.8360661174205006
 51
215.986607579851011
  0
LINE
  5
CBE1
  8
0
 10
1004.1158536982389933
 20
129.9561675821489928
 30
0.0
 11
1004.1004544383970369
 21
129.9561675821489928
 31
0.0
  0
ARC
  5
CBE2
  8
0
 10
1004.1261417160129668
 20
129.9651952646046027
 30
0.0
 40
0.0100853141096811
 50
175.3303414586096949
 51
220.6283652051276931
  0
LINE
  5
CBE3
  8
0
 10
1004.1158536982389933
 20
130.0028784012490064
 30
0.0
 11
1004.1082183664219656
 21
130.0028784012490064
 31
0.0
  0
LINE
  5
CBE4
  8
0
 10
1004.1283067607180328
 20
130.0309096265303879
 30
0.0
 11
1004.1156461858209923
 21
130.0120615971489997
 31
0.0
  0
LINE
  5
CBE5
  8
0
 10
1004.1156461858209923
 20
130.0120615971489997
 30
0.0
 11
1004.1112779030370348
 21
130.0120615971489997
 31
0.0
  0
LINE
  5
CBE6
  8
0
 10
1004.1254704358300387
 20
130.0351641138618959
 30
0.0
 11
1004.1156461858209923
 21
130.0204277388490084
 31
0.0
  0
LINE
  5
CBE7
  8
0
 10
1004.1156461858209923
 20
130.0204277388490084
 30
0.0
 11
1004.1145497498049508
 21
130.0204277388490084
 31
0.0
  0
LINE
  5
CBE8
  8
0
 10
1004.1156461858209923
 20
130.0120615971489997
 30
0.0
 11
1004.1156461858209923
 21
130.0204277388490084
 31
0.0
  0
ARC
  5
CBE9
  8
0
 10
1004.1289821915589755
 20
130.0137363380702027
 30
0.0
 40
0.0134407516975459
 50
187.1577568113283121
 51
218.6649176090363085
  0
LINE
  5
CBEA
  8
0
 10
1004.1708212251410259
 20
130.0948241560236056
 30
0.0
 11
1004.1623570049209775
 21
130.0821278256489961
 31
0.0
  0
LINE
  5
CBEB
  8
0
 10
1004.1623570049209775
 20
130.0821278256489961
 30
0.0
 11
1004.157021219819967
 21
130.0821278256489961
 31
0.0
  0
LINE
  5
CBEC
  8
0
 10
1004.2174948433749933
 20
130.1264899060304003
 30
0.0
 11
1004.209067823921032
 21
130.1138493768490036
 31
0.0
  0
LINE
  5
CBED
  8
0
 10
1004.209067823921032
 20
130.1138493768490036
 30
0.0
 11
1004.1956056074690196
 21
130.1138493768490036
 31
0.0
  0
LINE
  5
CBEE
  8
0
 10
1004.2217283987680503
 20
130.1243312645304115
 30
0.0
 11
1004.209067823921032
 21
130.1054832351489949
 31
0.0
  0
LINE
  5
CBEF
  8
0
 10
1004.2303206783219593
 20
130.1288386445490062
 30
0.0
 11
1004.2303206783219593
 21
130.1325299692269084
 31
0.0
  0
LINE
  5
CBF0
  8
0
 10
1004.2303206783219593
 20
130.1288386445490062
 30
0.0
 11
1004.2286762328029681
 21
130.1318076009658
 31
0.0
  0
LINE
  5
CBF1
  8
0
 10
1004.2217283987680503
 20
130.1243312645304115
 30
0.0
 11
1004.2193317386989975
 21
130.1274132828833103
 31
0.0
  0
LINE
  5
CBF2
  8
0
 10
1004.209067823921032
 20
130.1054832351489949
 30
0.0
 11
1004.209067823921032
 21
130.1138493768490036
 31
0.0
  0
ARC
  5
CBF3
  8
0
 10
1004.2173242891669815
 20
130.1050111095777027
 30
0.0
 40
0.0082699528960896
 50
176.7272463945058973
 51
229.0954273028036141
  0
ARC
  5
CBF4
  8
0
 10
1004.1877525111300429
 20
130.1035961840530888
 30
0.0
 40
0.0084945663424931
 50
214.6978031624987011
 51
239.1954290344168896
  0
ARC
  5
CBF5
  8
0
 10
1004.1811533231540352
 20
130.1066627743809079
 30
0.0
 40
0.0079114665609993
 50
235.5251602091859127
 51
267.2124624795930004
  0
ARC
  5
CBF6
  8
0
 10
1004.1686590973849889
 20
130.1077979107994054
 30
0.0
 40
0.0151099646020629
 50
323.2661923037495058
 51
351.1882388304313736
  0
LINE
  5
CBF7
  8
0
 10
1004.1625645172889563
 20
130.0729446297490028
 30
0.0
 11
1004.1480586517609481
 21
130.0729446297490028
 31
0.0
  0
LINE
  5
CBF8
  8
0
 10
1004.1623570049209775
 20
130.0821278256489961
 30
0.0
 11
1004.1623570049209775
 21
130.0876717658871939
 31
0.0
  0
ARC
  5
CBF9
  8
0
 10
1004.1706100777009851
 20
130.0816542662529116
 30
0.0
 40
0.0082666479787851
 50
176.7159824825315013
 51
229.1066912147356902
  0
ARC
  5
CBFA
  8
0
 10
1004.2699353151449486
 20
129.7707964262625921
 30
0.0
 40
0.008173911925782
 50
211.2579723496722863
 51
288.5833183272105202
  0
ARC
  5
CBFB
  8
0
 10
1004.3331197982209915
 20
130.0229039421492132
 30
0.0
 40
0.2576024069001402
 50
245.6929344052655892
 51
254.2926390839986936
  0
ARC
  5
CBFC
  8
0
 10
1004.2209958788799895
 20
129.7882907180400878
 30
0.0
 40
0.0072140582904577
 50
197.7375080087379047
 51
281.8508054496514887
  0
ARC
  5
CBFD
  8
0
 10
1004.3242288630949588
 20
130.004984831575797
 30
0.0
 40
0.2375794993522201
 50
233.3267513807547004
 51
242.390621292532586
  0
ARC
  5
CBFE
  8
0
 10
1004.1792116015909642
 20
129.8166555119520069
 30
0.0
 40
0.0082661479493589
 50
191.5704339098282105
 51
263.9206170363868864
  0
ARC
  5
CBFF
  8
0
 10
1004.313076071578962
 20
129.9907149272046922
 30
0.0
 40
0.2194534737039135
 50
223.5945880565896005
 51
229.6923393629076031
  0
LINE
  5
CC00
  8
0
 10
1004.1783361647210313
 20
129.8084358518489978
 30
0.0
 11
1004.1834023469549493
 21
129.8160351251489999
 31
0.0
  0
LINE
  5
CC01
  8
0
 10
1004.1711134310210127
 20
129.8149975507490126
 30
0.0
 11
1004.1711134310210127
 21
129.8233636923523022
 31
0.0
  0
LINE
  5
CC02
  8
0
 10
1004.1711134310210127
 20
129.8149975507490126
 30
0.0
 11
1004.1750175797679958
 21
129.820710940930212
 31
0.0
  0
LINE
  5
CC03
  8
0
 10
1004.1711134310210127
 20
129.8233636923523022
 30
0.0
 11
1004.1723778780540215
 21
129.8246704935012019
 31
0.0
  0
LINE
  5
CC04
  8
0
 10
1004.2224773864210192
 20
129.7812304225489868
 30
0.0
 11
1004.2301131659550038
 21
129.7926797156490011
 31
0.0
  0
LINE
  5
CC05
  8
0
 10
1004.2141247607210062
 20
129.7860929072490137
 30
0.0
 11
1004.2217283987680503
 21
129.7973555314302132
 31
0.0
  0
LINE
  5
CC06
  8
0
 10
1004.2141247607210062
 20
129.7860929072490137
 30
0.0
 11
1004.2141247607210062
 21
129.7944590489435939
 31
0.0
  0
LINE
  5
CC07
  8
0
 10
1004.2141247607210062
 20
129.7944590489435939
 30
0.0
 11
1004.2190447252489776
 21
129.8013810417091065
 31
0.0
  0
LINE
  5
CC08
  8
0
 10
1004.2725402048040451
 20
129.7630486920108126
 30
0.0
 11
1004.2768239849549445
 21
129.7693243061490023
 31
0.0
  0
LINE
  5
CC09
  8
0
 10
1004.2684392177669679
 20
129.7740001219304133
 30
0.0
 11
1004.2629479309040335
 21
129.7665550470489961
 31
0.0
  0
LINE
  5
CC0A
  8
0
 10
1004.2629479309040335
 20
129.7665550470489961
 30
0.0
 11
1004.2633806125600131
 21
129.7749211886682872
 31
0.0
  0
LINE
  5
CC0B
  8
0
 10
1004.2633806125600131
 20
129.7749211886682872
 30
0.0
 11
1004.2659454262460486
 21
129.7777408092125029
 31
0.0
  0
LINE
  5
CC0C
  8
0
 10
1004.3024894619210272
 20
130.1054832351489949
 30
0.0
 11
1004.2770314973209906
 21
130.1054832351489949
 31
0.0
  0
LINE
  5
CC0D
  8
0
 10
1004.3024894619210272
 20
130.1054832351489949
 30
0.0
 11
1004.3151024258550024
 21
130.1244026809987986
 31
0.0
  0
LINE
  5
CC0E
  8
0
 10
1004.3151024258539792
 20
130.1244026810005892
 30
0.0
 11
1004.3026969742879828
 21
130.1430108583489869
 31
0.0
  0
LINE
  5
CC0F
  8
0
 10
1004.2770314973209906
 20
130.1054832351489949
 30
0.0
 11
1004.2644185333880387
 21
130.1244026809987986
 31
0.0
  0
LINE
  5
CC10
  8
0
 10
1004.2644185333880387
 20
130.1244026809993954
 30
0.0
 11
1004.2768239849549445
 21
130.1430108583489869
 31
0.0
  0
LINE
  5
CC11
  8
0
 10
1004.2672072473050093
 20
130.1285857518739988
 30
0.0
 11
1004.2770314973209906
 21
130.1138493769489912
 31
0.0
  0
LINE
  5
CC12
  8
0
 10
1004.2770314973209906
 20
130.1138493769489912
 30
0.0
 11
1004.3024894619210272
 21
130.1138493769489912
 31
0.0
  0
LINE
  5
CC13
  8
0
 10
1004.3123137119380317
 20
130.1285857518739988
 30
0.0
 11
1004.3024894619210272
 21
130.1138493769489912
 31
0.0
  0
LINE
  5
CC14
  8
0
 10
1004.3024894619210272
 20
130.1054832351489949
 30
0.0
 11
1004.3024894619210272
 21
130.1138493769489912
 31
0.0
  0
LINE
  5
CC15
  8
0
 10
1004.2770314973209906
 20
130.1054832351489949
 30
0.0
 11
1004.2770314973209906
 21
130.1138493769489912
 31
0.0
  0
LINE
  5
CC16
  8
0
 10
1004.2722679012580329
 20
130.0987606691489873
 30
0.0
 11
1004.3070289782859845
 21
130.0987606691489873
 31
0.0
  0
LINE
  5
CC17
  8
0
 10
1004.3110667694139693
 20
130.1009533969373138
 30
0.0
 11
1004.323534803954999
 21
130.1196554487490005
 31
0.0
  0
LINE
  5
CC18
  8
0
 10
1004.2768239849549445
 20
130.1430108582489993
 30
0.0
 11
1004.3026969742879828
 21
130.1430108582489993
 31
0.0
  0
ARC
  5
CC19
  8
0
 10
1004.3061798653819778
 20
130.1051383174811917
 30
0.0
 40
0.0064339250052392
 50
277.5836958835744213
 51
319.4247660064294223
  0
ARC
  5
CC1A
  8
0
 10
1004.2732290539420319
 20
130.1048189221068867
 30
0.0
 40
0.006134023425346
 50
217.9427558686797965
 51
260.9850573945262795
  0
ARC
  5
CC1B
  8
0
 10
1004.2613386887610432
 20
130.1270155702590046
 30
0.0
 40
0.0040388900967986
 50
263.7880614419294147
 51
319.6892773481969812
  0
ARC
  5
CC1C
  8
0
 10
1004.2483743635599467
 20
130.1361254173156112
 30
0.0
 40
0.018143848486523
 50
294.8045804459526948
 51
313.6651770154273891
  0
ARC
  5
CC1D
  8
0
 10
1004.2665089636200264
 20
130.1330875811985095
 30
0.0
 40
0.0115409377837615
 50
201.6023178559900089
 51
240.9310026590960092
  0
LINE
  5
CC1E
  8
0
 10
1004.2683916068549479
 20
130.1010472713988122
 30
0.0
 11
1004.2559861552889515
 21
130.1196554487490005
 31
0.0
  0
ARC
  5
CC1F
  8
0
 10
1004.3004537749060319
 20
130.1480517762585976
 30
0.0
 40
0.0055174992383572
 50
293.9889773652694771
 51
332.1177927723363723
  0
ARC
  5
CC20
  8
0
 10
1004.3056515822429446
 20
130.1537570729670108
 30
0.0
 40
0.0082917938809866
 50
267.7825337541718227
 51
308.2976930852560145
  0
ARC
  5
CC21
  8
0
 10
1004.2792461319220365
 20
130.148243315934792
 30
0.0
 40
0.0057658832249855
 50
208.7330296148645061
 51
245.1602002475098061
  0
ARC
  5
CC22
  8
0
 10
1004.2781368495609513
 20
130.1853682565125041
 30
0.0
 40
0.0400914967088576
 50
258.5607474170021192
 51
264.3506024816744002
  0
LINE
  5
CC23
  8
0
 10
1004.2741902066210287
 20
130.1454714882490009
 30
0.0
 11
1004.2752995832410079
 21
130.1473290610269089
 31
0.0
  0
LINE
  5
CC24
  8
0
 10
1004.3107904002209807
 20
130.1472496621489938
 30
0.0
 11
1004.3150736063370232
 21
130.1536744713231997
 31
0.0
  0
ARC
  5
CC25
  8
0
 10
1004.3227429447780423
 20
130.1571981251846921
 30
0.0
 40
0.0209928189992999
 50
193.5257096997476083
 51
213.9591923509271112
  0
ARC
  5
CC26
  8
0
 10
1004.3198109175940544
 20
130.1278473136974867
 30
0.0
 40
0.0058339857340714
 50
216.1884110930089093
 51
280.7692884260486039
  0
ARC
  5
CC27
  8
0
 10
1004.3253070242959666
 20
130.124192246109601
 30
0.0
 40
0.0048706565500736
 50
205.2304602969703069
 51
248.6627695654323134
  0
ARC
  5
CC28
  8
0
 10
1004.3062877431060542
 20
130.1322540970714954
 30
0.0
 40
0.0177855964583063
 50
325.2488789706318926
 51
348.9284467284119273
  0
LINE
  5
CC29
  8
0
 10
1004.3237423163210451
 20
130.1288386446489937
 30
0.0
 11
1004.3107904002209807
 21
130.1472496621489938
 31
0.0
  0
LINE
  5
CC2A
  8
0
 10
1004.3237423163210451
 20
130.1288386446489937
 30
0.0
 11
1004.3237423163210451
 21
130.13720478644899
 31
0.0
  0
LINE
  5
CC2B
  8
0
 10
1004.3237423163210451
 20
130.13720478644899
 30
0.0
 11
1004.313918066338033
 21
130.1519411613240038
 31
0.0
  0
LINE
  5
CC2C
  8
0
 10
1004.2683916068549479
 20
130.0543364523987862
 30
0.0
 11
1004.255986155288042
 21
130.0729446297490028
 31
0.0
  0
LINE
  5
CC2D
  8
0
 10
1004.3111293524380017
 20
130.0543364524745868
 30
0.0
 11
1004.323534803954999
 21
130.0729446297490028
 31
0.0
  0
ARC
  5
CC2E
  8
0
 10
1004.3252753308670435
 20
130.077447503576991
 30
0.0
 40
0.0048275570057087
 50
205.0265889135181965
 51
248.8666432719498971
  0
LINE
  5
CC2F
  8
0
 10
1004.3209010256209694
 20
130.0754052596489885
 30
0.0
 11
1004.3070289782859845
 21
130.0987606691489873
 31
0.0
  0
LINE
  5
CC30
  8
0
 10
1004.3053307526030267
 20
130.0520498501213922
 30
0.0
 11
1004.2741902066210287
 21
130.0520498501489897
 31
0.0
  0
LINE
  5
CC31
  8
0
 10
1004.3053307526030267
 20
130.0520498501213922
 30
0.0
 11
1004.3209010256209694
 21
130.0754052596489885
 31
0.0
  0
LINE
  5
CC32
  8
0
 10
1004.2741902066210287
 20
130.0520498501489897
 30
0.0
 11
1004.2585723828970004
 21
130.0753146801195896
 31
0.0
  0
LINE
  5
CC33
  8
0
 10
1004.2585723828970004
 20
130.0753146801195896
 30
0.0
 11
1004.2741890434330116
 21
130.0987606691489873
 31
0.0
  0
LINE
  5
CC34
  8
0
 10
1004.2557786429219959
 20
130.1288386445490062
 30
0.0
 11
1004.2673147410309866
 21
130.1453225480046001
 31
0.0
  0
LINE
  5
CC35
  8
0
 10
1004.2597694448179482
 20
130.1431909892428962
 30
0.0
 11
1004.2557786429219959
 21
130.13720478644899
 31
0.0
  0
LINE
  5
CC36
  8
0
 10
1004.2557786429219959
 20
130.13720478644899
 30
0.0
 11
1004.2419244925349631
 21
130.13720478644899
 31
0.0
  0
LINE
  5
CC37
  8
0
 10
1004.2557786429219959
 20
130.1288386445490062
 30
0.0
 11
1004.2557786429219959
 21
130.13720478644899
 31
0.0
  0
ARC
  5
CC38
  8
0
 10
1004.3361561665260524
 20
130.0345145387200887
 30
0.0
 40
0.2696148906958993
 50
259.6055555359430969
 51
263.2347843296296901
  0
LINE
  5
CC39
  8
0
 10
1004.3225976817219589
 20
129.7648901883441965
 30
0.0
 11
1004.3503449155209637
 21
129.7648901883441965
 31
0.0
  0
LINE
  5
CC3A
  8
0
 10
1004.323534803954999
 20
129.7926797156490011
 30
0.0
 11
1004.3494077932880373
 21
129.7926797156490863
 31
0.0
  0
LINE
  5
CC3B
  8
0
 10
1004.3492002809219912
 20
129.8018629115489944
 30
0.0
 11
1004.3237423163210451
 21
129.8018629115489944
 31
0.0
  0
LINE
  5
CC3C
  8
0
 10
1004.3492002809219912
 20
129.8102290532490031
 30
0.0
 11
1004.3237423163210451
 21
129.8102290532490031
 31
0.0
  0
LINE
  5
CC3D
  8
0
 10
1004.3492002809219912
 20
129.8102290532490031
 30
0.0
 11
1004.3590245309050033
 21
129.8249654282240044
 31
0.0
  0
LINE
  5
CC3E
  8
0
 10
1004.3492002809219912
 20
129.8018629115489944
 30
0.0
 11
1004.3618132448050346
 21
129.8207823573739859
 31
0.0
  0
LINE
  5
CC3F
  8
0
 10
1004.3237423163210451
 20
129.8018629115489944
 30
0.0
 11
1004.3111293523869563
 21
129.8207823572982988
 31
0.0
  0
LINE
  5
CC40
  8
0
 10
1004.3237423163210451
 20
129.8102290532490031
 30
0.0
 11
1004.313918066338033
 21
129.8249654282240044
 31
0.0
  0
ARC
  5
CC41
  8
0
 10
1004.3154620063279481
 20
129.801400863953603
 30
0.0
 40
0.0082931912777825
 50
310.9834903966720958
 51
3.1938359135904189
  0
ARC
  5
CC42
  8
0
 10
1004.3754052495099813
 20
129.8089767160562928
 30
0.0
 40
0.0271533900885052
 50
195.1879292915479027
 51
210.6347443981748029
  0
LINE
  5
CC43
  8
0
 10
1004.323534803954999
 20
129.8393905346491124
 30
0.0
 11
1004.3494077932880373
 21
129.8393905346489987
 31
0.0
  0
LINE
  5
CC44
  8
0
 10
1004.3237423163210451
 20
129.8018629115489944
 30
0.0
 11
1004.3237423163210451
 21
129.8102290532490031
 31
0.0
  0
LINE
  5
CC45
  8
0
 10
1004.3492002809219912
 20
129.8018629115489944
 30
0.0
 11
1004.3492002809219912
 21
129.8102290532490031
 31
0.0
  0
LINE
  5
CC46
  8
0
 10
1004.3492002809219912
 20
129.848573730548992
 30
0.0
 11
1004.3237423163210451
 21
129.848573730548992
 31
0.0
  0
LINE
  5
CC47
  8
0
 10
1004.3492002809219912
 20
129.8569398722490007
 30
0.0
 11
1004.3237423163210451
 21
129.8569398722490007
 31
0.0
  0
LINE
  5
CC48
  8
0
 10
1004.3492002809219912
 20
129.8569398722490007
 30
0.0
 11
1004.3590245309050033
 21
129.8716762472240021
 31
0.0
  0
LINE
  5
CC49
  8
0
 10
1004.3492002809219912
 20
129.848573730548992
 30
0.0
 11
1004.3618132448040114
 21
129.8674931763746088
 31
0.0
  0
LINE
  5
CC4A
  8
0
 10
1004.3237423163210451
 20
129.848573730548992
 30
0.0
 11
1004.3111293524380017
 21
129.8674931763746088
 31
0.0
  0
LINE
  5
CC4B
  8
0
 10
1004.3237423163210451
 20
129.8569398722490007
 30
0.0
 11
1004.313918066338033
 21
129.8716762472240021
 31
0.0
  0
LINE
  5
CC4C
  8
0
 10
1004.3237423163210451
 20
129.848573730548992
 30
0.0
 11
1004.3237423163210451
 21
129.8569398722490007
 31
0.0
  0
LINE
  5
CC4D
  8
0
 10
1004.3492002809219912
 20
129.848573730548992
 30
0.0
 11
1004.3492002809219912
 21
129.8569398722490007
 31
0.0
  0
LINE
  5
CC4E
  8
0
 10
1004.3492002809219912
 20
129.8952845495489896
 30
0.0
 11
1004.3237423163210451
 21
129.8952845495489896
 31
0.0
  0
LINE
  5
CC4F
  8
0
 10
1004.3492002809219912
 20
129.9036506912489983
 30
0.0
 11
1004.3237423163210451
 21
129.9036506912489983
 31
0.0
  0
LINE
  5
CC50
  8
0
 10
1004.3492002809219912
 20
129.9036506912489983
 30
0.0
 11
1004.3590245309050033
 21
129.9183870662239997
 31
0.0
  0
LINE
  5
CC51
  8
0
 10
1004.3492002809219912
 20
129.8952845495489896
 30
0.0
 11
1004.3618132448040114
 21
129.9142039953746064
 31
0.0
  0
LINE
  5
CC52
  8
0
 10
1004.3237423163210451
 20
129.8952845495489896
 30
0.0
 11
1004.3111293524380017
 21
129.9142039953746064
 31
0.0
  0
LINE
  5
CC53
  8
0
 10
1004.3237423163210451
 20
129.9036506912489983
 30
0.0
 11
1004.313918066338033
 21
129.9183870662239997
 31
0.0
  0
LINE
  5
CC54
  8
0
 10
1004.3237423163210451
 20
129.8952845495489896
 30
0.0
 11
1004.3237423163210451
 21
129.9036506912489983
 31
0.0
  0
LINE
  5
CC55
  8
0
 10
1004.3492002809219912
 20
129.8952845495489896
 30
0.0
 11
1004.3492002809219912
 21
129.9036506912489983
 31
0.0
  0
LINE
  5
CC56
  8
0
 10
1004.3492002809219912
 20
130.0354170066489985
 30
0.0
 11
1004.3237423163210451
 21
130.0354170066489985
 31
0.0
  0
LINE
  5
CC57
  8
0
 10
1004.3492002809219912
 20
130.0437831483490072
 30
0.0
 11
1004.3237423163210451
 21
130.0437831483490072
 31
0.0
  0
LINE
  5
CC58
  8
0
 10
1004.3492002809219912
 20
130.0437831483490072
 30
0.0
 11
1004.3590245309050033
 21
130.0585195233240086
 31
0.0
  0
LINE
  5
CC59
  8
0
 10
1004.3492002809219912
 20
130.0354170066489985
 30
0.0
 11
1004.3618132448050346
 21
130.05433645247399
 31
0.0
  0
LINE
  5
CC5A
  8
0
 10
1004.3237423163210451
 20
130.0354170066489985
 30
0.0
 11
1004.3111293523869563
 21
130.054336452398303
 31
0.0
  0
LINE
  5
CC5B
  8
0
 10
1004.3237423163210451
 20
130.0437831483490072
 30
0.0
 11
1004.313918066338033
 21
130.0585195233240086
 31
0.0
  0
LINE
  5
CC5C
  8
0
 10
1004.3237423163210451
 20
130.0354170066489985
 30
0.0
 11
1004.3237423163210451
 21
130.0437831483490072
 31
0.0
  0
LINE
  5
CC5D
  8
0
 10
1004.3492002809219912
 20
130.0354170066489985
 30
0.0
 11
1004.3492002809219912
 21
130.0437831483490072
 31
0.0
  0
LINE
  5
CC5E
  8
0
 10
1004.3492002809219912
 20
130.0821278256489961
 30
0.0
 11
1004.3237423163210451
 21
130.0821278256489961
 31
0.0
  0
LINE
  5
CC5F
  8
0
 10
1004.3492002809219912
 20
130.0904939673490048
 30
0.0
 11
1004.3237423163210451
 21
130.0904939673490048
 31
0.0
  0
LINE
  5
CC60
  8
0
 10
1004.3492002809219912
 20
130.0904939673490048
 30
0.0
 11
1004.3590245309050033
 21
130.1052303423240062
 31
0.0
  0
LINE
  5
CC61
  8
0
 10
1004.3492002809219912
 20
130.0821278256489961
 30
0.0
 11
1004.3618132448050346
 21
130.1010472714739876
 31
0.0
  0
LINE
  5
CC62
  8
0
 10
1004.3237423163210451
 20
130.0821278256489961
 30
0.0
 11
1004.3111293523869563
 21
130.1010472713983006
 31
0.0
  0
LINE
  5
CC63
  8
0
 10
1004.3237423163210451
 20
130.0904939673490048
 30
0.0
 11
1004.313918066338033
 21
130.1052303423240062
 31
0.0
  0
LINE
  5
CC64
  8
0
 10
1004.3237423163210451
 20
130.0821278256489961
 30
0.0
 11
1004.3237423163210451
 21
130.0904939673490048
 31
0.0
  0
LINE
  5
CC65
  8
0
 10
1004.3492002809219912
 20
130.0821278256489961
 30
0.0
 11
1004.3492002809219912
 21
130.0904939673490048
 31
0.0
  0
ARC
  5
CC66
  8
0
 10
1004.3145591309080373
 20
129.8484932830056096
 30
0.0
 40
0.0091835377797108
 50
313.6754104063414843
 51
0.5019159039467695
  0
ARC
  5
CC67
  8
0
 10
1004.3675735990890416
 20
129.8523774901260026
 30
0.0
 40
0.0187629264083294
 50
191.6964963598312011
 51
214.1261773298975868
  0
LINE
  5
CC68
  8
0
 10
1004.323534803954999
 20
129.8861013536489963
 30
0.0
 11
1004.3494077932880373
 21
129.88610135364911
 31
0.0
  0
LINE
  5
CC69
  8
0
 10
1004.323534803954999
 20
129.932812172648994
 30
0.0
 11
1004.3494077932880373
 21
129.932812172648994
 31
0.0
  0
LINE
  5
CC6A
  8
0
 10
1004.3492002809219912
 20
129.9887061875490133
 30
0.0
 11
1004.3237423163210451
 21
129.9887061875490133
 31
0.0
  0
LINE
  5
CC6B
  8
0
 10
1004.3492002809219912
 20
129.9970723292489936
 30
0.0
 11
1004.3237423163210451
 21
129.9970723292489936
 31
0.0
  0
LINE
  5
CC6C
  8
0
 10
1004.3492002809219912
 20
129.9970723292489936
 30
0.0
 11
1004.3590245309050033
 21
130.0118087042239949
 31
0.0
  0
LINE
  5
CC6D
  8
0
 10
1004.3492002809219912
 20
129.9887061875490133
 30
0.0
 11
1004.3618132448050346
 21
130.0076256333740048
 31
0.0
  0
LINE
  5
CC6E
  8
0
 10
1004.3237423163210451
 20
129.9887061875490133
 30
0.0
 11
1004.3111293523869563
 21
130.0076256332982041
 31
0.0
  0
LINE
  5
CC6F
  8
0
 10
1004.3237423163210451
 20
129.9970723292489936
 30
0.0
 11
1004.313918066338033
 21
130.0118087042239949
 31
0.0
  0
LINE
  5
CC70
  8
0
 10
1004.3237423163210451
 20
129.9887061875490133
 30
0.0
 11
1004.3237423163210451
 21
129.9970723292489936
 31
0.0
  0
LINE
  5
CC71
  8
0
 10
1004.3492002809219912
 20
129.9887061875490133
 30
0.0
 11
1004.3492002809219912
 21
129.9970723292489936
 31
0.0
  0
ARC
  5
CC72
  8
0
 10
1004.3145889626659937
 20
129.895191493621013
 30
0.0
 40
0.0091538266615702
 50
313.594859111855726
 51
0.5824671983819523
  0
ARC
  5
CC73
  8
0
 10
1004.3599404530530137
 20
129.8958621620201086
 30
0.0
 40
0.0107556930773827
 50
183.0784334225207033
 51
222.7442402660709035
  0
LINE
  5
CC74
  8
0
 10
1004.323534803954999
 20
130.0262338107490052
 30
0.0
 11
1004.3494077932880373
 21
130.0262338107490052
 31
0.0
  0
ARC
  5
CC75
  8
0
 10
1004.312482182673989
 20
130.036214380714199
 30
0.0
 40
0.0112883309286861
 50
318.2279026981585162
 51
355.9494236120953019
  0
ARC
  5
CC76
  8
0
 10
1004.3570436894250406
 20
130.0347703027572095
 30
0.0
 40
0.0078700243245862
 50
175.2865163751667126
 51
230.5361573197133112
  0
LINE
  5
CC77
  8
0
 10
1004.323534803954999
 20
130.0729446297490028
 30
0.0
 11
1004.3494077932880373
 21
130.0729446297490028
 31
0.0
  0
LINE
  5
CC78
  8
0
 10
1004.323534803954999
 20
130.1196554487490005
 30
0.0
 11
1004.3494077932880373
 21
130.1196554487490005
 31
0.0
  0
LINE
  5
CC79
  8
0
 10
1004.3237423163210451
 20
130.13720478644899
 30
0.0
 11
1004.3492002809219912
 21
130.13720478644899
 31
0.0
  0
LINE
  5
CC7A
  8
0
 10
1004.3237423163210451
 20
130.1288386446489937
 30
0.0
 11
1004.3492002809219912
 21
130.1288386446489937
 31
0.0
  0
LINE
  5
CC7B
  8
0
 10
1004.3209010256209694
 20
129.935272802549008
 30
0.0
 11
1004.3520415716210437
 21
129.935272802549008
 31
0.0
  0
LINE
  5
CC7C
  8
0
 10
1004.3053307526030267
 20
129.9586282121213969
 30
0.0
 11
1004.3209010256209694
 21
129.9819836216489932
 31
0.0
  0
LINE
  5
CC7D
  8
0
 10
1004.3676118446400096
 20
129.9586282121213969
 30
0.0
 11
1004.3520415716210437
 21
129.9819836216489932
 31
0.0
  0
LINE
  5
CC7E
  8
0
 10
1004.3209010256209694
 20
129.9819836216489932
 30
0.0
 11
1004.3519581605289659
 21
129.9819836216489932
 31
0.0
  0
ARC
  5
CC7F
  8
0
 10
1004.2539958564359495
 20
130.129820893741794
 30
0.0
 40
0.2926907838703705
 50
147.6299065417179008
 51
178.0689069001774953
  0
ARC
  5
CC80
  8
0
 10
1004.3016354113150328
 20
130.0996227823443121
 30
0.0
 40
0.349095155340768
 50
110.8396012402253064
 51
147.6299065417179008
  0
ARC
  5
CC81
  8
0
 10
1004.344486459047971
 20
129.9870510473847105
 30
0.0
 40
0.4695468377851641
 50
90.9780859643051656
 51
110.8396012402253064
  0
ARC
  5
CC82
  8
0
 10
1004.41894674080595
 20
130.129820893741794
 30
0.0
 40
0.2926907838703705
 50
1.9310930998224931
 51
32.3700934582820921
  0
ARC
  5
CC83
  8
0
 10
1004.3713071859280035
 20
130.0996227823443121
 30
0.0
 40
0.349095155340768
 50
32.3700934582820921
 51
69.1603987597746936
  0
ARC
  5
CC84
  8
0
 10
1004.3284561381949516
 20
129.9870510473847105
 30
0.0
 40
0.4695468377851641
 50
69.1603987597746936
 51
89.0219140356948202
  0
LINE
  5
CC85
  8
0
 10
998.2264712985714823
 20
131.6646358343490135
 30
0.0
 11
999.7630787628684175
 21
131.6646358343490135
 31
0.0
  0
LINE
  5
CC86
  8
0
 10
998.2264712985714823
 20
131.5066358343489981
 30
0.0
 11
999.7630787628684175
 21
131.5066358343489981
 31
0.0
  0
LINE
  5
CC87
  8
0
 10
998.2064712985716142
 20
131.6446358343490033
 30
0.0
 11
998.2064712985716142
 21
131.5266358343490083
 31
0.0
  0
ARC
  5
CC88
  8
0
 10
998.2264712985717097
 20
131.6446358343490033
 30
0.0
 40
0.02
 50
90.0000000000065086
 51
179.9999999999951115
  0
ARC
  5
CC89
  8
0
 10
998.2264712985717097
 20
131.5266358343490083
 30
0.0
 40
0.02
 50
180.0000000000015916
 51
269.9999999999935199
  0
ARC
  5
CC8A
  8
0
 10
1000.3364712985710412
 20
131.5856358343490058
 30
0.0
 40
0.530000000000001
 50
193.6265936523045923
 51
166.3734063476954077
  0
ARC
  5
CC8B
  8
0
 10
999.7630787628684175
 20
131.7246358343489874
 30
0.0
 40
0.06
 50
269.9999999999935199
 51
346.3734063476953793
  0
ARC
  5
CC8C
  8
0
 10
999.7630787628684175
 20
131.4466358343489958
 30
0.0
 40
0.06
 50
13.6265936523062106
 51
90.0
  0
ARC
  5
CC92
  8
0
 10
1000.3364712986219729
 20
131.5856358343490058
 30
0.0
 40
0.9949999999999999
 50
184.5539052620275982
 51
175.4460947379708102
  0
LINE
  5
CCA4
  8
0
 10
1010.44647129877103
 20
131.6646358343490135
 30
0.0
 11
1008.9098638344739811
 21
131.6646358343490135
 31
0.0
  0
LINE
  5
CCA5
  8
0
 10
1010.44647129877103
 20
131.5066358343489981
 30
0.0
 11
1008.9098638344739811
 21
131.5066358343489981
 31
0.0
  0
LINE
  5
CCA6
  8
0
 10
1010.4664712987710118
 20
131.6446358343490033
 30
0.0
 11
1010.4664712987710118
 21
131.5266358343490083
 31
0.0
  0
ARC
  5
CCA7
  8
0
 10
1010.44647129877103
 20
131.6446358343490033
 30
0.0
 40
0.02
 50
0.0000000000048853
 51
89.9999999999934914
  0
ARC
  5
CCA8
  8
0
 10
1010.44647129877103
 20
131.5266358343490083
 30
0.0
 40
0.02
 50
270.0000000000064801
 51
359.9999999999984084
  0
ARC
  5
CCA9
  8
0
 10
1008.3364712987710163
 20
131.5856358343490058
 30
0.0
 40
0.530000000000001
 50
13.6265936523046296
 51
346.3734063476953793
  0
ARC
  5
CCAA
  8
0
 10
1008.9098638344739811
 20
131.7246358343489874
 30
0.0
 40
0.06
 50
193.6265936523045923
 51
270.0000000000064801
  0
ARC
  5
CCAB
  8
0
 10
1008.9098638344739811
 20
131.4466358343489958
 30
0.0
 40
0.06
 50
90.0
 51
166.3734063476937877
  0
ARC
  5
CCB1
  8
0
 10
1008.3364712987209941
 20
131.5856358343490058
 30
0.0
 40
0.9949999999999999
 50
4.5539052620292164
 51
355.4460947379723734
  0
ATTDEF
  5
CCBB
  8
DEFPOINTS
 10
1004.33748394623899
 20
131.5839434425558068
 30
0.0
 40
0.001
  1
K-944W-4
  3

  2
MODELNUMBER
 70
     0
1001
ACDBATTR
1070
     0
1070
     1
  0
ATTDEF
  5
CCBC
  8
DEFPOINTS
 10
1004.33748394623899
 20
131.5822767758891985
 30
0.0
 40
0.001
  1
STILLNESS
  3

  2
TRADENAME
 70
     0
1001
ACDBATTR
1070
     0
1070
     1
  0
ATTDEF
  5
CCBD
  8
DEFPOINTS
 10
1004.33748394623899
 20
131.5806101092225049
 30
0.0
 40
0.001
  1
BATHROOM SINK FAUCET
  3

  2
PRODUCT
 70
     0
1001
ACDBATTR
1070
     0
1070
     1
  0
ENDSEC
  0
EOF
