  0
SECTION
  2
HEADER
  9
$ACADVER
  1
AC1009
  9
$INSBASE
 10
4924.8577415419476893
 20
498.3541094240043208
 30
0.0
  9
$EXTMIN
 10
4893.3004328613924372
 20
482.2212258375308807
 30
-0.0015258207003583
  9
$EXTMAX
 10
4956.4197920518945466
 20
498.972495996368707
 30
0.0000000349246037
  9
$LIMMIN
 10
0.0
 20
0.0
  9
$LIMMAX
 10
11.6929133858000007
 20
8.2677165353999982
  9
$ORTHOMODE
 70
     0
  9
$REGENMODE
 70
     1
  9
$FILLMODE
 70
     1
  9
$QTEXTMODE
 70
     0
  9
$MIRRTEXT
 70
     0
  9
$DRAGMODE
 70
     2
  9
$LTSCALE
 40
0.6431102362
  9
$OSMODE
 70
     7
  9
$ATTMODE
 70
     1
  9
$TEXTSIZE
 40
0.2
  9
$TRACEWID
 40
0.05
  9
$TEXTSTYLE
  7
STANDARD
  9
$CLAYER
  8
0
  9
$CELTYPE
  6
BYLAYER
  9
$CECOLOR
 62
   256
  9
$DIMSCALE
 40
1.0
  9
$DIMASZ
 40
0.1875
  9
$DIMEXO
 40
0.0625
  9
$DIMDLI
 40
0.4443307087
  9
$DIMRND
 40
0.0
  9
$DIMDLE
 40
0.0
  9
$DIMEXE
 40
0.125
  9
$DIMTP
 40
0.01
  9
$DIMTM
 40
0.01
  9
$DIMTXT
 40
2.0
  9
$DIMCEN
 40
0.1052362205
  9
$DIMTSZ
 40
0.0
  9
$DIMTOL
 70
     1
  9
$DIMLIM
 70
     0
  9
$DIMTIH
 70
     1
  9
$DIMTOH
 70
     1
  9
$DIMSE1
 70
     0
  9
$DIMSE2
 70
     0
  9
$DIMTAD
 70
     0
  9
$DIMZIN
 70
     0
  9
$DIMBLK
  1

  9
$DIMASO
 70
     1
  9
$DIMSHO
 70
     1
  9
$DIMPOST
  1
\X
  9
$DIMAPOST
  1

  9
$DIMALT
 70
     1
  9
$DIMALTD
 70
     2
  9
$DIMALTF
 40
25.3999999999999986
  9
$DIMLFAC
 40
1.0
  9
$DIMTOFL
 70
     0
  9
$DIMTVP
 40
0.0
  9
$DIMTIX
 70
     0
  9
$DIMSOXD
 70
     0
  9
$DIMSAH
 70
     0
  9
$DIMBLK1
  1

  9
$DIMBLK2
  1

  9
$DIMSTYLE
  2
STANDARD
  9
$DIMCLRD
 70
     0
  9
$DIMCLRE
 70
     0
  9
$DIMCLRT
 70
     0
  9
$DIMTFAC
 40
1.0
  9
$DIMGAP
 40
0.09
  9
$LUNITS
 70
     2
  9
$LUPREC
 70
     4
  9
$SKETCHINC
 40
0.1
  9
$FILLETRAD
 40
0.0
  9
$AUNITS
 70
     0
  9
$AUPREC
 70
     0
  9
$MENU
  1
.
  9
$ELEVATION
 40
0.0
  9
$PELEVATION
 40
0.0
  9
$THICKNESS
 40
0.0
  9
$LIMCHECK
 70
     0
  9
$BLIPMODE
 70
     0
  9
$CHAMFERA
 40
0.0
  9
$CHAMFERB
 40
0.0
  9
$SKPOLY
 70
     0
  9
$TDCREATE
 40
2458060.468368056230247
  9
$TDUPDATE
 40
2459391.5191435189917684
  9
$TDINDWG
 40
1.6686427546
  9
$TDUSRTIMER
 40
1.6686427546
  9
$USRTIMER
 70
     1
  9
$ANGBASE
 50
0.0
  9
$ANGDIR
 70
     0
  9
$PDMODE
 70
     0
  9
$PDSIZE
 40
0.3125
  9
$PLINEWID
 40
0.0
  9
$COORDS
 70
     1
  9
$SPLFRAME
 70
     0
  9
$SPLINETYPE
 70
     6
  9
$SPLINESEGS
 70
     8
  9
$ATTDIA
 70
     1
  9
$ATTREQ
 70
     1
  9
$HANDLING
 70
     1
  9
$HANDSEED
  5
1EDAC
  9
$SURFTAB1
 70
     6
  9
$SURFTAB2
 70
     6
  9
$SURFTYPE
 70
     6
  9
$SURFU
 70
     6
  9
$SURFV
 70
     6
  9
$UCSNAME
  2

  9
$UCSORG
 10
0.0
 20
0.0
 30
0.0
  9
$UCSXDIR
 10
1.0
 20
0.0
 30
0.0
  9
$UCSYDIR
 10
0.0
 20
1.0
 30
0.0
  9
$PUCSNAME
  2

  9
$PUCSORG
 10
0.0
 20
0.0
 30
0.0
  9
$PUCSXDIR
 10
1.0
 20
0.0
 30
0.0
  9
$PUCSYDIR
 10
0.0
 20
1.0
 30
0.0
  9
$USERI1
 70
     0
  9
$USERI2
 70
     0
  9
$USERI3
 70
     0
  9
$USERI4
 70
     0
  9
$USERI5
 70
     0
  9
$USERR1
 40
0.0
  9
$USERR2
 40
0.0
  9
$USERR3
 40
0.0
  9
$USERR4
 40
0.0
  9
$USERR5
 40
0.0
  9
$WORLDVIEW
 70
     1
  9
$SHADEDGE
 70
     3
  9
$SHADEDIF
 70
    70
  9
$TILEMODE
 70
     1
  9
$MAXACTVP
 70
    64
  9
$PLIMCHECK
 70
     0
  9
$PEXTMIN
 10
1.0000000000000000E+20
 20
1.0000000000000000E+20
 30
1.0000000000000000E+20
  9
$PEXTMAX
 10
-1.0000000000000000E+20
 20
-1.0000000000000000E+20
 30
-1.0000000000000000E+20
  9
$PLIMMIN
 10
0.0
 20
0.0
  9
$PLIMMAX
 10
12.0
 20
9.0
  9
$UNITMODE
 70
     0
  9
$VISRETAIN
 70
     1
  9
$PLINEGEN
 70
     0
  9
$PSLTSCALE
 70
     1
  0
ENDSEC
  0
SECTION
  2
TABLES
  0
TABLE
  2
VPORT
 70
     1
  0
VPORT
  2
*ACTIVE
 70
     0
 10
0.0
 20
0.0
 11
1.0
 21
1.0
 12
1013.4947560113299687
 22
358.0172558144107029
 13
0.0
 23
0.0
 14
1.0
 24
1.0
 15
0.0
 25
0.0
 16
0.0
 26
0.0
 36
60.4960186965801583
 17
3911.3653564453120453
 27
132.5796051025390057
 37
0.0
 40
27.0804538988422294
 41
2.3461538461538458
 42
50.0
 43
0.0
 44
0.0
 50
0.0
 51
0.0
 71
     0
 72
   100
 73
     1
 74
     1
 75
     0
 76
     0
 77
     0
 78
     0
  0
ENDTAB
  0
TABLE
  2
LTYPE
 70
     2
  0
LTYPE
  2
CONTINUOUS
 70
     0
  3
Solid line
 72
    65
 73
     0
 40
0.0
  0
LTYPE
  2
PHANTOM2
 70
     0
  3
___ _ _ ___ _ _ ___ _ _ ___ _ _
 72
    65
 73
     6
 40
1.25
 49
0.625
 49
-0.125
 49
0.125
 49
-0.125
 49
0.125
 49
-0.125
  0
ENDTAB
  0
TABLE
  2
LAYER
 70
     2
  0
LAYER
  2
0
 70
     0
 62
   255
  6
CONTINUOUS
  0
LAYER
  2
DEFPOINTS
 70
     0
 62
     7
  6
CONTINUOUS
  0
ENDTAB
  0
TABLE
  2
STYLE
 70
     1
  0
STYLE
  2
STANDARD
 70
     0
 40
0.0
 41
0.8
 50
0.0
 71
     0
 42
0.2
  3
txt
  4

  0
ENDTAB
  0
TABLE
  2
VIEW
 70
     0
  0
ENDTAB
  0
TABLE
  2
UCS
 70
     0
  0
ENDTAB
  0
TABLE
  2
APPID
 70
    11
  0
APPID
  2
ACAD
 70
     0
  0
APPID
  2
ACAD_MLEADERVER
 70
     0
  0
APPID
  2
ACAD_EXEMPT_FROM_CAD_STANDARDS
 70
     0
  0
APPID
  2
ACAD_NAV_VCDISPLAY
 70
     0
  0
APPID
  2
ACAECLAYERSTANDARD
 70
     0
  0
APPID
  2
ACCMTRANSPARENCY
 70
     0
  0
APPID
  2
ACAD_DSTYLE_DIMJAG
 70
     0
  0
APPID
  2
ACAD_DSTYLE_DIMTALN
 70
     0
  0
APPID
  2
ACDBATTR
 70
     0
  0
APPID
  2
ACADANNOTATIVE
 70
     0
  0
APPID
  2
DCO15
 70
     0
  0
ENDTAB
  0
TABLE
  2
DIMSTYLE
 70
     1
  0
DIMSTYLE
  2
STANDARD
 70
     0
  3

  4

  5

  6

  7

 40
1.0
 41
0.1875
 42
0.0625
 43
0.38
 44
0.125
 45
0.0
 46
0.0
 47
0.01
 48
0.01
140
0.15625
141
0.09
142
0.0
143
25.3999999999999986
144
1.0
145
0.0
146
1.0
147
0.09
 71
     1
 72
     0
 73
     1
 74
     1
 75
     0
 76
     0
 77
     0
 78
     4
170
     0
171
     2
172
     0
173
     0
174
     0
175
     0
176
     0
177
     0
178
     0
  0
ENDTAB
  0
ENDSEC
  0
SECTION
  2
BLOCKS
  0
BLOCK
  8
0
  2
$MODEL_SPACE
 70
     0
 10
0.0
 20
0.0
 30
0.0
  3
$MODEL_SPACE
  1

  0
ENDBLK
  5
21
  8
0
  0
BLOCK
 67
     1
  8
0
  2
$PAPER_SPACE
 70
     0
 10
0.0
 20
0.0
 30
0.0
  3
$PAPER_SPACE
  1

  0
ENDBLK
  5
1D
 67
     1
  8
0
  0
ENDSEC
  0
SECTION
  2
ENTITIES
  0
ATTDEF
  5
159BF
  8
DEFPOINTS
 10
4924.8577398876032021
 20
498.3574465583031952
 30
0.0
 40
0.001
  1
K-943T
  3

  2
MODELNUMBER
 70
     0
1001
ACDBATTR
1070
     0
1070
     1
  0
ATTDEF
  5
159C0
  8
DEFPOINTS
 10
4924.8577398876032021
 20
498.355779717924122
 30
0.0
 40
0.001
  1
SOISSONS
  3

  2
TRADENAME
 70
     0
1001
ACDBATTR
1070
     0
1070
     1
  0
ATTDEF
  5
159C1
  8
DEFPOINTS
 10
4924.8577398876032021
 20
498.354113224969808
 30
0.0
 40
0.001
  1
BATH
  3

  2
PRODUCT
 70
     0
1001
ACDBATTR
1070
     0
1070
     1
  0
LINE
  5
1EC95
  8
0
 10
4955.5917966620436346
 20
498.9441094240042958
 30
0.0
 11
4894.1236864218508344
 21
498.9441094240042958
 31
0.0
  0
LINE
  5
1EC96
  8
0
 10
4956.3537415419477838
 20
498.3541094240043208
 30
0.0
 11
4893.3617415419475947
 21
498.3541094240043208
 31
0.0
  0
LINE
  5
1EC97
  8
0
 10
4946.5312415418484306
 20
482.4881094240042785
 30
0.0
 11
4943.5782415419471363
 21
482.4881094240042785
 31
0.0
  0
LINE
  5
1EC98
  8
0
 10
4941.5470344568084329
 20
482.7381094240042785
 30
0.0
 11
4939.933686573273917
 21
482.7381094240042785
 31
0.0
  0
LINE
  5
1EC99
  8
0
 10
4939.6702415419467798
 20
482.2381094240042785
 30
0.0
 11
4939.0452417021124347
 21
482.2381094240042785
 31
0.0
  0
LINE
  5
1EC9A
  8
0
 10
4941.635671461446691
 20
483.3429648708042805
 30
0.0
 11
4941.6069522287471045
 21
482.794969266604312
 31
0.0
  0
ARC
  5
1EC9B
  8
0
 10
4941.5470344568084329
 20
482.7981094238515993
 30
0.0
 40
0.0599999998473792
 50
270.0
 51
357.0000001139927122
  0
LINE
  5
1EC9C
  8
0
 10
4940.9848257260473474
 20
483.5312293202043179
 30
0.0
 11
4941.0054429390465884
 21
482.794969266604312
 31
0.0
  0
LINE
  5
1EC9D
  8
0
 10
4939.7278370786470987
 20
483.7496105075043147
 30
0.0
 11
4939.6634112363472013
 21
482.2381094850043155
 31
0.0
  0
LINE
  5
1EC9E
  8
0
 10
4939.6702415419467798
 20
482.2381094240042785
 30
0.0
 11
4939.6840291671478553
 21
482.5011929861042859
 31
0.0
  0
ARC
  5
1EC9F
  8
0
 10
4939.933686573272098
 20
482.488109423939477
 30
0.0
 40
0.2500000000648303
 50
89.9999999998436664
 51
177.0000979723737942
  0
ARC
  5
1ECA0
  8
0
 10
4941.0717410429560914
 20
482.7948557551844146
 30
0.0
 40
0.0662982010817284
 50
179.9019018863953931
 51
238.862148085066508
  0
ARC
  5
1ECA1
  8
0
 10
4940.8836677074814361
 20
483.8313485710324926
 30
0.0
 40
0.1947567281407117
 50
259.6974924220658067
 51
281.3621416486658973
  0
ARC
  5
1ECA2
  8
0
 10
4941.1427039620211872
 20
482.5422764937217721
 30
0.0
 40
1.120084175417041
 50
79.7628730735525835
 51
101.3621416486658973
  0
ARC
  5
1ECA3
  8
0
 10
4938.8321252770447245
 20
469.748193409728799
 30
0.0
 40
14.1211355105813698
 50
79.2797327448925273
 51
79.7628730735525835
  0
ARC
  5
1ECA4
  8
0
 10
4941.6908469544059699
 20
483.3396715626134892
 30
0.0
 40
0.0552736908669649
 50
80.7082511445285462
 51
176.5841889920646963
  0
ARC
  5
1ECA5
  8
0
 10
4941.6424372407482224
 20
483.5476680119870139
 30
0.0
 40
0.1638093776143022
 50
290.4876943784624928
 51
308.6630609973386754
  0
ARC
  5
1ECA6
  8
0
 10
4941.7125655528616335
 20
483.4600178230984966
 30
0.0
 40
0.0515572695172111
 50
308.6630609973386754
 51
44.6254760347575399
  0
ARC
  5
1ECA7
  8
0
 10
4941.5718592604298465
 20
483.3404013474453222
 30
0.0
 40
0.2361251180161915
 50
41.2970664675747869
 51
63.5650003029172623
  0
ARC
  5
1ECA8
  8
0
 10
4941.3325936779292533
 20
482.8647804557351151
 30
0.0
 40
0.7685359706170499
 50
63.3778755550479715
 51
80.5439848003383645
  0
ARC
  5
1ECA9
  8
0
 10
4940.8182244137669841
 20
483.5080616600214967
 30
0.0
 40
0.1682044521755631
 50
7.9168084463029214
 51
51.889587432557029
  0
LINE
  5
1ECAA
  8
0
 10
4940.8488363868473243
 20
483.6397318644043253
 30
0.0
 11
4939.8987311185474027
 21
483.827386171004207
 31
0.0
  0
ARC
  5
1ECAB
  8
0
 10
4939.924474803715384
 20
483.9696669183585982
 30
0.0
 40
0.1445909692675146
 50
232.7470168664816867
 51
259.744098373968427
  0
ARC
  5
1ECAC
  8
0
 10
4939.6131070464125514
 20
483.5417475850763935
 30
0.0
 40
0.3846650717468699
 50
54.4147733472335204
 51
89.8896122732182334
  0
LINE
  5
1ECAD
  8
0
 10
4939.6138481529478668
 20
483.9264119429042807
 30
0.0
 11
4939.108849572948202
 21
483.9434877871042886
 31
0.0
  0
LINE
  5
1ECAE
  8
0
 10
4937.1684487872516911
 20
482.7381094240042785
 30
0.0
 11
4938.781796670786207
 21
482.7381094240042785
 31
0.0
  0
LINE
  5
1ECAF
  8
0
 10
4937.0710859473483652
 20
483.5094606687043211
 30
0.0
 11
4937.1085310153130195
 21
482.794969266604312
 31
0.0
  0
ARC
  5
1ECB0
  8
0
 10
4937.1684487872516911
 20
482.7981094238515993
 30
0.0
 40
0.059999999847381
 50
182.9999998860039057
 51
270.0
  0
LINE
  5
1ECB1
  8
0
 10
4937.7336624561476128
 20
483.6385442050042798
 30
0.0
 11
4937.710040305012626
 21
482.794969266604312
 31
0.0
  0
LINE
  5
1ECB2
  8
0
 10
4938.98635470924728
 20
483.7816735788043161
 30
0.0
 11
4939.0520720077120131
 21
482.2381094850043155
 31
0.0
  0
LINE
  5
1ECB3
  8
0
 10
4939.0452417021124347
 20
482.2381094240042785
 30
0.0
 11
4939.0314540769122686
 21
482.5011929861042859
 31
0.0
  0
ARC
  5
1ECB4
  8
0
 10
4938.7817966707871165
 20
482.488109423939477
 30
0.0
 40
0.2500000000648303
 50
2.9999020276261792
 51
90.0000000001563336
  0
ARC
  5
1ECB5
  8
0
 10
4937.6437422011040326
 20
482.7948557551844146
 30
0.0
 40
0.0662982010817284
 50
301.137851914933492
 51
0.0980981136045683
  0
ARC
  5
1ECB6
  8
0
 10
4937.0035053411520494
 20
483.5090884069485924
 30
0.0
 40
0.0675816314732769
 50
0.3156055109933346
 51
105.5659602357961973
  0
ARC
  5
1ECB7
  8
0
 10
4937.032322036633559
 20
483.6502921366858914
 30
0.0
 40
0.0894194320391296
 50
211.1710804242694905
 51
238.3265927491655134
  0
ARC
  5
1ECB8
  8
0
 10
4936.9908989595305684
 20
483.6252339972745062
 30
0.0
 40
0.0410068131527203
 50
148.8956842849381985
 51
211.1710804242694905
  0
ARC
  5
1ECB9
  8
0
 10
4937.121732583764242
 20
483.5230491537482749
 30
0.0
 40
0.2067790125684948
 50
108.6048218545461026
 51
143.3716643788519036
  0
ARC
  5
1ECBA
  8
0
 10
4937.3403200107750308
 20
482.9773897084755276
 30
0.0
 40
0.7943500748772444
 50
95.6685828597201464
 51
110.9913782011517043
  0
LINE
  5
1ECBB
  8
0
 10
4937.2618587863271387
 20
483.7678553166555275
 30
0.0
 11
4937.3790501753483113
 21
483.7811741912042862
 31
0.0
  0
ARC
  5
1ECBC
  8
0
 10
4937.5059702566859414
 20
482.6691826230314746
 30
0.0
 40
1.1192113092416649
 50
74.5416943456339993
 51
96.5114263554097107
  0
ARC
  5
1ECBD
  8
0
 10
4937.8521357721947425
 20
483.9209517134086127
 30
0.0
 40
0.1795405607285434
 50
254.5416943456339993
 51
276.5468965290506844
  0
LINE
  5
1ECBE
  8
0
 10
4937.8726063429467104
 20
483.7425819607042854
 30
0.0
 11
4938.8227726533477835
 21
483.8638748495043274
 31
0.0
  0
ARC
  5
1ECBF
  8
0
 10
4938.8081529640767258
 20
483.9987697481212763
 30
0.0
 40
0.1356848148734834
 50
276.1854806473979238
 51
304.341878369452786
  0
ARC
  5
1ECC0
  8
0
 10
4939.0741696419518121
 20
483.6094155035943913
 30
0.0
 40
0.3358675158798877
 50
84.0733729561334968
 51
124.3418783694528003
  0
ARC
  5
1ECC1
  8
0
 10
4938.8402199336906051
 20
483.7419882452269917
 30
0.0
 40
0.1514275349073134
 50
15.1932062424649601
 51
72.9193715276950485
  0
ARC
  5
1ECC2
  8
0
 10
4939.8742079240182647
 20
483.7066525995613802
 30
0.0
 40
0.1525444401786492
 50
104.1375841764293
 51
163.6437335510474043
  0
ARC
  5
1ECC3
  8
0
 10
4937.9017228679576874
 20
483.6075029030416204
 30
0.0
 40
0.1709030849498405
 50
124.7610603871404038
 51
169.535223352808913
  0
LINE
  5
1ECC4
  8
0
 10
4916.6720343767256054
 20
483.4881094240042785
 30
0.0
 11
4915.0586864931910895
 21
483.4881094240042785
 31
0.0
  0
LINE
  5
1ECC5
  8
0
 10
4914.7952414618648618
 20
482.9881094240042785
 30
0.0
 11
4914.1702416220314262
 21
482.9881094240042785
 31
0.0
  0
LINE
  5
1ECC6
  8
0
 10
4916.7630965020471194
 20
484.1392374020043121
 30
0.0
 11
4916.731952148666096
 21
483.5449692666044257
 31
0.0
  0
ARC
  5
1ECC7
  8
0
 10
4916.6720343767256054
 20
483.548109423851713
 30
0.0
 40
0.0599999998473792
 50
270.0
 51
357.0000001139927122
  0
LINE
  5
1ECC8
  8
0
 10
4916.1089891790470574
 20
484.3111031965042912
 30
0.0
 11
4916.130442858963761
 21
483.5449692666044257
 31
0.0
  0
LINE
  5
1ECC9
  8
0
 10
4914.8533794453469454
 20
484.5128884130043048
 30
0.0
 11
4914.7884111562652834
 21
482.9881094850043155
 31
0.0
  0
LINE
  5
1ECCA
  8
0
 10
4914.7952414618648618
 20
482.9881094240042785
 30
0.0
 11
4914.8090290870650279
 21
483.2511929861042859
 31
0.0
  0
ARC
  5
1ECCB
  8
0
 10
4915.0586864931910895
 20
483.238109423939477
 30
0.0
 40
0.2500000000648303
 50
89.9999999998436664
 51
177.0000979723737942
  0
ARC
  5
1ECCC
  8
0
 10
4916.1967409628741734
 20
483.5448557551845283
 30
0.0
 40
0.0662982010817284
 50
179.9019018863953931
 51
238.862148085066508
  0
ARC
  5
1ECCD
  8
0
 10
4916.0095179334293789
 20
484.630431603754289
 30
0.0
 40
0.2118074096402091
 50
260.4639206581906024
 51
280.0055221465869977
  0
ARC
  5
1ECCE
  8
0
 10
4916.2626981503672141
 20
483.2385766240537919
 30
0.0
 40
1.202890587508985
 50
80.2027041479054645
 51
100.3629728084042938
  0
ARC
  5
1ECCF
  8
0
 10
4922.1294857053726446
 20
517.2937320575132389
 30
0.0
 40
33.3539150313958928
 50
260.2262402480433252
 51
260.430325286130028
  0
ARC
  5
1ECD0
  8
0
 10
4916.8412187075609836
 20
484.1370583615076839
 30
0.0
 40
0.0781525892839644
 50
74.2831254410658062
 51
178.4022793486576006
  0
ARC
  5
1ECD1
  8
0
 10
4916.8533410799900594
 20
484.254928106359273
 30
0.0
 40
0.0387790835282239
 50
315.9132123540774728
 51
20.9821593697836413
  0
ARC
  5
1ECD2
  8
0
 10
4916.6661898028041833
 20
484.0843402943733054
 30
0.0
 40
0.2896891336014825
 50
39.5535329081703111
 51
73.1490492247973521
  0
ARC
  5
1ECD3
  8
0
 10
4916.4324228276545909
 20
483.4643744595751969
 30
0.0
 40
0.951818101985757
 50
70.4987537607941732
 51
80.8060095072256672
  0
ARC
  5
1ECD4
  8
0
 10
4915.9472765987848106
 20
484.2926916147167162
 30
0.0
 40
0.1627573192178412
 50
6.4953692624506054
 51
52.5172896980845181
  0
LINE
  5
1ECD5
  8
0
 10
4915.9744280878476275
 20
484.4215510601043206
 30
0.0
 11
4915.0242096239471721
 21
484.5948876224043147
 31
0.0
  0
ARC
  5
1ECD6
  8
0
 10
4915.0488229441725707
 20
484.745632242520287
 30
0.0
 40
0.1527408132310771
 50
235.5019206234645992
 51
260.7266749404431039
  0
ARC
  5
1ECD7
  8
0
 10
4914.7384045072230947
 20
484.2729095371267931
 30
0.0
 40
0.4128375237980714
 50
57.1551068273216387
 51
89.9486158705050656
  0
LINE
  5
1ECD8
  8
0
 10
4914.7387747490465699
 20
484.6857468949044119
 30
0.0
 11
4914.2348723455470463
 21
484.7041941874043118
 31
0.0
  0
LINE
  5
1ECD9
  8
0
 10
4912.2934487071688636
 20
483.4881094240042785
 30
0.0
 11
4913.9067965907033795
 21
483.4881094240042785
 31
0.0
  0
LINE
  5
1ECDA
  8
0
 10
4912.1890798558461029
 20
484.3931448571042893
 30
0.0
 11
4912.2335308550473201
 21
483.5449692666044257
 31
0.0
  0
ARC
  5
1ECDB
  8
0
 10
4912.2934487653319593
 20
483.5481095696371767
 30
0.0
 40
0.0600001456329099
 50
183.0001319956953125
 51
269.9999444590122835
  0
LINE
  5
1ECDC
  8
0
 10
4912.8604885758477394
 20
484.4537566581042825
 30
0.0
 11
4912.8350402249297986
 21
483.5449692666044257
 31
0.0
  0
LINE
  5
1ECDD
  8
0
 10
4914.1106695950466019
 20
484.5484894822042747
 30
0.0
 11
4914.1770719276300952
 21
482.9881094850043155
 31
0.0
  0
LINE
  5
1ECDE
  8
0
 10
4914.1702416220314262
 20
482.9881094240042785
 30
0.0
 11
4914.1564539968312602
 21
483.2511929861042859
 31
0.0
  0
ARC
  5
1ECDF
  8
0
 10
4913.9067965907051985
 20
483.238109423939477
 30
0.0
 40
0.2500000000648303
 50
2.9999020276261792
 51
90.0000000001563336
  0
ARC
  5
1ECE0
  8
0
 10
4912.7687421210230241
 20
483.5448557551845283
 30
0.0
 40
0.0662982010817284
 50
301.137851914933492
 51
0.0980981136045683
  0
ARC
  5
1ECE1
  8
0
 10
4912.1396623181262839
 20
484.3909551990381033
 30
0.0
 40
0.0494660250761861
 50
2.5370781999164689
 51
114.8591488214072029
  0
ARC
  5
1ECE2
  8
0
 10
4912.158472109320428
 20
484.5042925914049761
 30
0.0
 40
0.0739760685350176
 50
156.9094801722550869
 51
208.9425742783056137
  0
ARC
  5
1ECE3
  8
0
 10
4912.1955012286398414
 20
484.476492472768598
 30
0.0
 40
0.1194536883229098
 50
116.4834105857465971
 51
151.6014444545164963
  0
ARC
  5
1ECE4
  8
0
 10
4912.3824015255486302
 20
484.0350385332208134
 30
0.0
 40
0.5986599908766611
 50
88.4364028072469637
 51
113.6518519267258966
  0
LINE
  5
1ECE5
  8
0
 10
4912.3987368805474034
 20
484.6334756150042722
 30
0.0
 11
4912.5149378347477978
 21
484.6343243068042739
 31
0.0
  0
ARC
  5
1ECE6
  8
0
 10
4912.5206727402328397
 20
483.3803162456727023
 30
0.0
 40
1.2540211746712671
 50
70.5244272799143488
 51
90.2620266963922973
  0
ARC
  5
1ECE7
  8
0
 10
4912.9949011972939843
 20
484.7263122002697173
 30
0.0
 40
0.1730800375240967
 50
251.0762205863991028
 51
272.8775390840776254
  0
LINE
  5
1ECE8
  8
0
 10
4913.0035900611774196
 20
484.553450396988012
 30
0.0
 11
4913.9490393688483891
 21
484.6354452461043252
 31
0.0
  0
ARC
  5
1ECE9
  8
0
 10
4913.9378057208195969
 20
484.7762237206708846
 30
0.0
 40
0.1412259669796182
 50
274.562343003365811
 51
301.0992135743168774
  0
ARC
  5
1ECEA
  8
0
 10
4914.2035507891159796
 20
484.3096900127264917
 30
0.0
 40
0.3957456048215299
 50
85.4605386964209259
 51
119.1553104619963932
  0
ARC
  5
1ECEB
  8
0
 10
4913.9660757150131758
 20
484.5133609582319991
 30
0.0
 40
0.1487998768137262
 50
13.6552338080248301
 51
72.5277432579937766
  0
ARC
  5
1ECEC
  8
0
 10
4914.998246544911126
 20
484.4741680464813953
 30
0.0
 40
0.1499524702010524
 50
103.8645541190490036
 51
165.0356730958000924
  0
ARC
  5
1ECED
  8
0
 10
4913.0303693215037129
 20
484.4141311368729248
 30
0.0
 40
0.1744409633017105
 50
121.6752721721648953
 51
166.8702380671327035
  0
ARC
  5
1ECEE
  8
0
 10
4944.7772415419476602
 20
482.5781094240043103
 30
0.0
 40
0.0900000000000004
 50
270.0
 51
0.0
  0
ARC
  5
1ECEF
  8
0
 10
4944.7519103255708615
 20
482.6131094240913058
 30
0.0
 40
0.1250000000870932
 50
210.0000000230556054
 51
269.9999999893174163
  0
LINE
  5
1ECF0
  8
0
 10
4944.8672415419478057
 20
482.5781094240043103
 30
0.0
 11
4944.8672415419478057
 21
482.8006089328042094
 31
0.0
  0
ARC
  5
1ECF1
  8
0
 10
4945.0547415419478057
 20
482.80060942400371
 30
0.0
 40
0.1875000000006079
 50
359.9998591289605088
 51
180.0001500994771959
  0
LINE
  5
1ECF2
  8
0
 10
4945.2422415419468962
 20
482.800608963004322
 30
0.0
 11
4945.2422415419468962
 21
482.5781094240043103
 31
0.0
  0
ARC
  5
1ECF3
  8
0
 10
4945.3322415419470417
 20
482.5781094240043103
 30
0.0
 40
0.0899999999999928
 50
180.0
 51
270.0
  0
ARC
  5
1ECF4
  8
0
 10
4945.357572758223796
 20
482.6131094240913058
 30
0.0
 40
0.1250000000870543
 50
270.0000000106825837
 51
329.999999976955678
  0
LINE
  5
1ECF5
  8
0
 10
4945.4658259337484196
 20
482.5506094240042785
 30
0.0
 11
4945.8988813214473339
 21
483.300683358004278
 31
0.0
  0
LINE
  5
1ECF6
  8
0
 10
4944.6436571500471473
 20
482.5506094240042785
 30
0.0
 11
4944.2373454833468713
 21
483.2543618745042977
 31
0.0
  0
ARC
  5
1ECF7
  8
0
 10
4944.1649281487489134
 20
483.2114038543886068
 30
0.0
 40
0.084200129706241
 50
30.6764515156288695
 51
92.6196192985026272
  0
ARC
  5
1ECF8
  8
0
 10
4944.1727009415280918
 20
483.3025755456544061
 30
0.0
 40
0.0135973799487805
 50
130.1166893079654017
 51
211.2775832003677863
  0
ARC
  5
1ECF9
  8
0
 10
4944.2377418180676614
 20
483.201302443111274
 30
0.0
 40
0.1338555130647075
 50
96.6641601777362354
 51
123.4602230703048065
  0
ARC
  5
1ECFA
  8
0
 10
4944.2913887656068255
 20
482.8631576060225825
 30
0.0
 40
0.4761484802331332
 50
88.4751064704465335
 51
98.3542181778911413
  0
ARC
  5
1ECFB
  8
0
 10
4944.7197930088286739
 20
496.1440352327310848
 30
0.0
 40
12.8116445167453996
 50
268.1404458137665756
 51
274.9411261650533902
  0
ARC
  5
1ECFC
  8
0
 10
4945.8751473299962527
 20
482.7801304677570897
 30
0.0
 40
0.6021094013319976
 50
86.8050361475312542
 51
94.9411261650534186
  0
ARC
  5
1ECFD
  8
0
 10
4945.9020773314960024
 20
483.2625696714979995
 30
0.0
 40
0.1189191589979646
 50
59.0821500094952299
 51
86.8050361475312542
  0
ARC
  5
1ECFE
  8
0
 10
4945.9524969252506708
 20
483.3498730239762153
 30
0.0
 40
0.0181858662311014
 50
325.9487031625486111
 51
54.0284121596698625
  0
ARC
  5
1ECFF
  8
0
 10
4945.96775394436645
 20
483.2593844359607829
 30
0.0
 40
0.0803059098057563
 50
90.1351050600888755
 51
149.0513252510666007
  0
ARC
  5
1ED00
  8
0
 10
4955.5917966620436346
 20
498.1571094239955073
 30
0.0
 40
0.7870000000088364
 50
14.4963105772346399
 51
89.9999999997915552
  0
ARC
  5
1ED01
  8
0
 10
4953.1850739241681367
 20
496.4656578259127855
 30
0.0
 40
2.0819719989878398
 50
114.8992575704275936
 51
145.7626730241115922
  0
LINE
  5
1ED02
  8
0
 10
4951.463878080547147
 20
497.63702125050429
 30
0.0
 11
4951.3048064190470541
 21
497.4120600402043237
 31
0.0
  0
ARC
  5
1ED03
  8
0
 10
4950.9766919279682043
 20
497.6141423851348122
 30
0.0
 40
0.3853522977596574
 50
272.3327229058696162
 51
328.3715110415324716
  0
LINE
  5
1ED04
  8
0
 10
4950.9923767099471661
 20
497.2291094242042959
 30
0.0
 11
4950.8479943948477739
 21
497.2291094240043208
 31
0.0
  0
ARC
  5
1ED05
  8
0
 10
4950.8479943947868378
 20
497.2725058716800959
 30
0.0
 40
0.0433964476757911
 50
216.593009504148398
 51
270.0000000793638719
  0
ARC
  5
1ED06
  8
0
 10
4950.8980548369072494
 20
497.3094872516222154
 30
0.0
 40
0.1056351899213248
 50
185.4846208444409967
 51
216.5114394327407012
  0
ARC
  5
1ED07
  8
0
 10
4950.9795883581164162
 20
497.321370225831572
 30
0.0
 40
0.1879745266380361
 50
171.9888556143594087
 51
186.7148259884436925
  0
LINE
  5
1ED08
  8
0
 10
4950.793448278647702
 20
497.347567429504295
 30
0.0
 11
4950.9027701061468179
 21
498.1568240573042772
 31
0.0
  0
ARC
  5
1ED09
  8
0
 10
4951.7367715832242538
 20
498.0467832670377106
 30
0.0
 40
0.8412297184997756
 50
158.5721287897551974
 51
172.4836306219881124
  0
LINE
  5
1ED0A
  8
0
 10
4896.3254585019476508
 20
498.3541094240043208
 30
0.0
 11
4906.0252095197465678
 21
486.7944152954041215
 31
0.0
  0
ARC
  5
1ED0B
  8
0
 10
4912.2921952654251072
 20
492.068569447474772
 30
0.0
 40
8.1909591841449352
 50
220.0832104304537893
 51
241.5946410565543943
  0
ARC
  5
1ED0C
  8
0
 10
4912.2896209865557466
 20
492.0627077029006955
 30
0.0
 40
8.1845785853211606
 50
241.5909719519821977
 51
268.0012201356470882
  0
LINE
  5
1ED0D
  8
0
 10
4912.0041575008472137
 20
483.8831088608043274
 30
0.0
 11
4912.2161977689338528
 21
483.8757042515047146
 31
0.0
  0
LINE
  5
1ED0E
  8
0
 10
4916.7410043191657678
 20
483.7176945249871096
 30
0.0
 11
4937.0974276835322598
 21
483.0068325512153251
 31
0.0
  0
LINE
  5
1ED0F
  8
0
 10
4941.6097973354853821
 20
482.8492571371064059
 30
0.0
 11
4943.102281501647667
 21
482.7971384295042867
 31
0.0
  0
LINE
  5
1ED10
  8
0
 10
4943.102281501647667
 20
482.7971384295042867
 30
0.0
 11
4944.5009560834523654
 21
482.7977749216664733
 31
0.0
  0
LINE
  5
1ED11
  8
0
 10
4944.8672415419478057
 20
482.7979416064882798
 30
0.0
 11
4945.2422415419468962
 21
482.7981122570197954
 31
0.0
  0
LINE
  5
1ED12
  8
0
 10
4945.6088180730130262
 20
482.7982790742995007
 30
0.0
 11
4946.3731226178470024
 21
482.7986268849043086
 31
0.0
  0
ARC
  5
1ED13
  8
0
 10
4943.0830513457385678
 20
482.2464740170516961
 30
0.0
 40
0.5510000002844631
 50
26.01074903703568
 51
87.9999448215364168
  0
ARC
  5
1ED14
  8
0
 10
4946.3954550825346814
 20
487.4692120902968213
 30
0.0
 40
4.6706385965743751
 50
269.7260415632766239
 51
276.8877363150115229
  0
ARC
  5
1ED15
  8
0
 10
4946.2572469403048672
 20
487.0851685758166809
 30
0.0
 40
4.3098395142748931
 50
279.3248537366358732
 51
306.4099396687042258
  0
LINE
  5
1ED16
  8
0
 10
4948.607657007247326
 20
483.5811940089042764
 30
0.0
 11
4950.0882827838477169
 21
483.8422682816042766
 31
0.0
  0
ARC
  5
1ED17
  8
0
 10
4950.0721335034359072
 20
483.9338554025537178
 30
0.0
 40
0.0929999999010397
 50
279.9999999410056262
 51
352.5000000088447223
  0
LINE
  5
1ED18
  8
0
 10
4950.1643378754470177
 20
483.9217164667044244
 30
0.0
 11
4950.5378783313553868
 21
486.759037921265417
 31
0.0
  0
LINE
  5
1ED19
  8
0
 10
4950.369924048746725
 20
485.483298488404273
 30
0.0
 11
4950.369924048746725
 21
485.483298488404273
 31
0.0
  0
ARC
  5
1ED1A
  8
0
 10
4949.7834388530891374
 20
482.4111189563689095
 30
0.0
 40
1.6587762289035011
 50
126.0192689945855022
 51
135.1393838329013022
  0
ARC
  5
1ED1B
  8
0
 10
4946.2231879694190866
 20
487.1944017835378986
 30
0.0
 40
4.3041841090188697
 50
306.9079257218069756
 51
339.1312622043665215
  0
ARC
  5
1ED1C
  8
0
 10
4945.1090424227986659
 20
487.6191561873746991
 30
0.0
 40
5.4965500774332741
 50
339.1312622043665215
 51
350.9971673760135786
  0
LINE
  5
1ED1D
  8
0
 10
4950.5252525472469642
 20
486.4854820683042931
 30
0.0
 11
4952.156981200347218
 21
498.095834721704307
 31
0.0
  0
ARC
  5
1ED1E
  8
0
 10
4952.8452175083257316
 20
497.9991094243417251
 30
0.0
 40
0.6949999991160098
 50
153.135406928594989
 51
172.0000006394984098
  0
ARC
  5
1ED1F
  8
0
 10
4946.3029896484831625
 20
487.0776970529431082
 30
0.0
 40
4.2635926839129921
 50
346.5020199340808063
 51
352.0157743951505722
  0
ARC
  5
1ED20
  8
0
 10
4947.0448374999559746
 20
482.2885589909736836
 30
0.0
 40
0.5510001665231837
 50
99.3226987519577307
 51
158.7670678591906892
  0
ARC
  5
1ED21
  8
0
 10
4894.1236864218508344
 20
498.1571094239955073
 30
0.0
 40
0.7870000000088329
 50
90.0000000075038855
 51
165.5036894227654045
  0
LINE
  5
1ED23
  8
0
 10
4898.6282508008471268
 20
498.3541094240043208
 30
0.0
 11
4899.5015729077476863
 21
498.1363343236042738
 31
0.0
  0
ARC
  5
1ED24
  8
0
 10
4899.5118312688546212
 20
498.1704115840439044
 30
0.0
 40
0.0355878301062084
 50
253.2465006743711911
 51
5.5380539245836991
  0
ARC
  5
1ED25
  8
0
 10
4899.3826471298416436
 20
498.1558478632542801
 30
0.0
 40
0.1655869042262825
 50
6.239996484536408
 51
29.2675142496430816
  0
ARC
  5
1ED26
  8
0
 10
4899.1815663227625919
 20
498.0621133012942892
 30
0.0
 40
0.387178078947703
 50
26.8195816218156082
 51
33.9716179548283819
  0
LINE
  5
1ED27
  8
0
 10
4899.5026587071470203
 20
498.2784615056042981
 30
0.0
 11
4899.4699542427297274
 21
498.3541094240043208
 31
0.0
  0
ARC
  5
1ED28
  8
0
 10
4912.2159407318504236
 20
484.5365460307774015
 30
0.0
 40
0.1398762672632333
 50
209.1122388982275879
 51
226.052839209325299
  0
ARC
  5
1ED29
  8
0
 10
4916.7691110568730437
 20
484.34344182359348
 30
0.0
 40
0.1609404879930673
 50
305.4210274867365911
 51
314.1416472200095882
  0
ENDSEC
  0
EOF
