  0
SECTION
  2
HEADER
  9
$ACADVER
  1
AC1009
  9
$INSBASE
 10
3628.0915948825841042
 20
377.7274867722474028
 30
0.0
  9
$EXTMIN
 10
3594.6270279534837755
 20
377.721068683523697
 30
0.0
  9
$EXTMAX
 10
3661.5561618117831131
 20
399.4823896894473023
 30
0.0
  9
$LIMMIN
 10
0.0
 20
0.0
  9
$LIMMAX
 10
11.6929133858000007
 20
8.2677165353999982
  9
$ORTHOMODE
 70
     0
  9
$REGENMODE
 70
     1
  9
$FILLMODE
 70
     1
  9
$QTEXTMODE
 70
     0
  9
$MIRRTEXT
 70
     0
  9
$DRAGMODE
 70
     2
  9
$LTSCALE
 40
0.6431102362
  9
$OSMODE
 70
  4095
  9
$ATTMODE
 70
     1
  9
$TEXTSIZE
 40
0.2
  9
$TRACEWID
 40
0.05
  9
$TEXTSTYLE
  7
STANDARD
  9
$CLAYER
  8
0
  9
$CELTYPE
  6
BYLAYER
  9
$CECOLOR
 62
   256
  9
$DIMSCALE
 40
1.0
  9
$DIMASZ
 40
0.1875
  9
$DIMEXO
 40
0.0625
  9
$DIMDLI
 40
0.4443307087
  9
$DIMRND
 40
0.0
  9
$DIMDLE
 40
0.0
  9
$DIMEXE
 40
0.125
  9
$DIMTP
 40
0.01
  9
$DIMTM
 40
0.01
  9
$DIMTXT
 40
2.0
  9
$DIMCEN
 40
0.1052362205
  9
$DIMTSZ
 40
0.0
  9
$DIMTOL
 70
     1
  9
$DIMLIM
 70
     0
  9
$DIMTIH
 70
     1
  9
$DIMTOH
 70
     1
  9
$DIMSE1
 70
     0
  9
$DIMSE2
 70
     0
  9
$DIMTAD
 70
     0
  9
$DIMZIN
 70
     0
  9
$DIMBLK
  1

  9
$DIMASO
 70
     1
  9
$DIMSHO
 70
     1
  9
$DIMPOST
  1
\X
  9
$DIMAPOST
  1

  9
$DIMALT
 70
     1
  9
$DIMALTD
 70
     2
  9
$DIMALTF
 40
25.3999999999999986
  9
$DIMLFAC
 40
1.0
  9
$DIMTOFL
 70
     0
  9
$DIMTVP
 40
0.0
  9
$DIMTIX
 70
     0
  9
$DIMSOXD
 70
     0
  9
$DIMSAH
 70
     0
  9
$DIMBLK1
  1

  9
$DIMBLK2
  1

  9
$DIMSTYLE
  2
STANDARD
  9
$DIMCLRD
 70
     0
  9
$DIMCLRE
 70
     0
  9
$DIMCLRT
 70
     0
  9
$DIMTFAC
 40
1.0
  9
$DIMGAP
 40
0.09
  9
$LUNITS
 70
     2
  9
$LUPREC
 70
     4
  9
$SKETCHINC
 40
0.1
  9
$FILLETRAD
 40
0.0
  9
$AUNITS
 70
     0
  9
$AUPREC
 70
     0
  9
$MENU
  1
.
  9
$ELEVATION
 40
0.0
  9
$PELEVATION
 40
0.0
  9
$THICKNESS
 40
0.0
  9
$LIMCHECK
 70
     0
  9
$BLIPMODE
 70
     0
  9
$CHAMFERA
 40
0.0
  9
$CHAMFERB
 40
0.0
  9
$SKPOLY
 70
     0
  9
$TDCREATE
 40
2458060.468368056230247
  9
$TDUPDATE
 40
2458961.6506018522195518
  9
$TDINDWG
 40
0.5099376157
  9
$TDUSRTIMER
 40
0.5099376157
  9
$USRTIMER
 70
     1
  9
$ANGBASE
 50
0.0
  9
$ANGDIR
 70
     0
  9
$PDMODE
 70
     0
  9
$PDSIZE
 40
0.3125
  9
$PLINEWID
 40
0.0
  9
$COORDS
 70
     1
  9
$SPLFRAME
 70
     0
  9
$SPLINETYPE
 70
     6
  9
$SPLINESEGS
 70
     8
  9
$ATTDIA
 70
     1
  9
$ATTREQ
 70
     1
  9
$HANDLING
 70
     1
  9
$HANDSEED
  5
7FC3
  9
$SURFTAB1
 70
     6
  9
$SURFTAB2
 70
     6
  9
$SURFTYPE
 70
     6
  9
$SURFU
 70
     6
  9
$SURFV
 70
     6
  9
$UCSNAME
  2

  9
$UCSORG
 10
0.0
 20
0.0
 30
0.0
  9
$UCSXDIR
 10
1.0
 20
0.0
 30
0.0
  9
$UCSYDIR
 10
0.0
 20
1.0
 30
0.0
  9
$PUCSNAME
  2

  9
$PUCSORG
 10
0.0
 20
0.0
 30
0.0
  9
$PUCSXDIR
 10
1.0
 20
0.0
 30
0.0
  9
$PUCSYDIR
 10
0.0
 20
1.0
 30
0.0
  9
$USERI1
 70
     0
  9
$USERI2
 70
     0
  9
$USERI3
 70
     0
  9
$USERI4
 70
     0
  9
$USERI5
 70
     0
  9
$USERR1
 40
0.0
  9
$USERR2
 40
0.0
  9
$USERR3
 40
0.0
  9
$USERR4
 40
0.0
  9
$USERR5
 40
0.0
  9
$WORLDVIEW
 70
     1
  9
$SHADEDGE
 70
     3
  9
$SHADEDIF
 70
    70
  9
$TILEMODE
 70
     1
  9
$MAXACTVP
 70
    64
  9
$PLIMCHECK
 70
     0
  9
$PEXTMIN
 10
1.0000000000000000E+20
 20
1.0000000000000000E+20
 30
1.0000000000000000E+20
  9
$PEXTMAX
 10
-1.0000000000000000E+20
 20
-1.0000000000000000E+20
 30
-1.0000000000000000E+20
  9
$PLIMMIN
 10
0.0
 20
0.0
  9
$PLIMMAX
 10
12.0
 20
9.0
  9
$UNITMODE
 70
     0
  9
$VISRETAIN
 70
     1
  9
$PLINEGEN
 70
     0
  9
$PSLTSCALE
 70
     1
  0
ENDSEC
  0
SECTION
  2
TABLES
  0
TABLE
  2
VPORT
 70
     1
  0
VPORT
  2
*ACTIVE
 70
     0
 10
0.0
 20
0.0
 11
1.0
 21
1.0
 12
0.0
 22
0.0
 13
0.0
 23
0.0
 14
1.0
 24
1.0
 15
0.0
 25
0.0
 16
0.0
 26
0.0
 36
260.3527612033806236
 17
3628.091552734375
 27
388.6017300204728144
 37
0.0
 40
70.378070963764273
 41
2.9120171673819741
 42
50.0
 43
0.0
 44
0.0
 50
0.0
 51
0.0
 71
     0
 72
   100
 73
     1
 74
     1
 75
     0
 76
     0
 77
     0
 78
     0
  0
ENDTAB
  0
TABLE
  2
LTYPE
 70
     2
  0
LTYPE
  2
CONTINUOUS
 70
     0
  3
Solid line
 72
    65
 73
     0
 40
0.0
  0
LTYPE
  2
PHANTOM2
 70
     0
  3
___ _ _ ___ _ _ ___ _ _ ___ _ _
 72
    65
 73
     6
 40
1.25
 49
0.625
 49
-0.125
 49
0.125
 49
-0.125
 49
0.125
 49
-0.125
  0
ENDTAB
  0
TABLE
  2
LAYER
 70
     2
  0
LAYER
  2
0
 70
     0
 62
   255
  6
CONTINUOUS
  0
LAYER
  2
DEFPOINTS
 70
     0
 62
     7
  6
CONTINUOUS
  0
ENDTAB
  0
TABLE
  2
STYLE
 70
     1
  0
STYLE
  2
STANDARD
 70
     0
 40
0.0
 41
0.8
 50
0.0
 71
     0
 42
0.2
  3
txt
  4

  0
ENDTAB
  0
TABLE
  2
VIEW
 70
     0
  0
ENDTAB
  0
TABLE
  2
UCS
 70
     0
  0
ENDTAB
  0
TABLE
  2
APPID
 70
     9
  0
APPID
  2
ACAD
 70
     0
  0
APPID
  2
ACAD_MLEADERVER
 70
     0
  0
APPID
  2
ACAD_EXEMPT_FROM_CAD_STANDARDS
 70
     0
  0
APPID
  2
ACAD_NAV_VCDISPLAY
 70
     0
  0
APPID
  2
ACAECLAYERSTANDARD
 70
     0
  0
APPID
  2
ACCMTRANSPARENCY
 70
     0
  0
APPID
  2
ACAD_DSTYLE_DIMJAG
 70
     0
  0
APPID
  2
ACAD_DSTYLE_DIMTALN
 70
     0
  0
APPID
  2
ACDBATTR
 70
     0
  0
ENDTAB
  0
TABLE
  2
DIMSTYLE
 70
     1
  0
DIMSTYLE
  2
STANDARD
 70
     0
  3

  4

  5

  6

  7

 40
1.0
 41
0.1875
 42
0.0625
 43
0.38
 44
0.125
 45
0.0
 46
0.0
 47
0.01
 48
0.01
140
0.15625
141
0.09
142
0.0
143
25.3999999999999986
144
1.0
145
0.0
146
1.0
147
0.09
 71
     1
 72
     0
 73
     1
 74
     1
 75
     0
 76
     0
 77
     0
 78
     4
170
     0
171
     2
172
     0
173
     0
174
     0
175
     0
176
     0
177
     0
178
     0
  0
ENDTAB
  0
ENDSEC
  0
SECTION
  2
BLOCKS
  0
BLOCK
  8
0
  2
$MODEL_SPACE
 70
     0
 10
0.0
 20
0.0
 30
0.0
  3
$MODEL_SPACE
  1

  0
ENDBLK
  5
21
  8
0
  0
BLOCK
 67
     1
  8
0
  2
$PAPER_SPACE
 70
     0
 10
0.0
 20
0.0
 30
0.0
  3
$PAPER_SPACE
  1

  0
ENDBLK
  5
1D
 67
     1
  8
0
  0
BLOCK
  8
0
  2
A$C3A671683
 70
     0
 10
0.0
 20
0.0
 30
0.0
  3
A$C3A671683
  1

  0
LINE
  5
64AD
  8
0
 10
19.7242805827151813
 20
17.186593760681049
 30
0.0
 11
17.9919971181151794
 21
17.186593760681049
 31
0.0
  0
LINE
  5
64AE
  8
0
 10
17.9919971181151794
 20
17.186593760681049
 30
0.0
 11
17.9919971181151794
 21
17.3243890362810511
 31
0.0
  0
ARC
  5
64AF
  8
0
 10
18.0116821575151818
 20
17.3243890362810511
 30
0.0
 40
0.0196850394000006
 50
90.0
 51
180.0000000000001137
  0
LINE
  5
64B0
  8
0
 10
18.0116821575151818
 20
17.3440740756810392
 30
0.0
 11
19.7045955433151789
 21
17.3440740756810392
 31
0.0
  0
LINE
  5
64B1
  8
0
 10
18.2956388817670685
 20
17.3440740756810392
 30
0.0
 11
18.2956388817670685
 21
20.2196336419188505
 31
0.0
  0
ARC
  5
64B2
  8
0
 10
18.3250044745555485
 20
20.2203861248934196
 30
0.0
 40
0.0293752322619933
 50
103.3931210179136997
 51
181.4678629531381091
  0
ARC
  5
64B3
  8
0
 10
18.3524956441739988
 20
20.0575827250337184
 30
0.0
 40
0.1944283320560142
 50
90.3572060212433001
 51
100.1596096926020039
  0
ARC
  5
64B4
  8
0
 10
18.4301884864185404
 20
17.4679263725625695
 30
0.0
 40
2.7851988236965202
 50
89.6777915155863639
 51
91.623412808093974
  0
LINE
  5
64B5
  8
0
 10
18.4458512449900205
 20
20.25308115560685
 30
0.0
 11
18.8581388504151803
 21
20.2531462157714195
 31
0.0
  0
LINE
  5
64B6
  8
0
 10
18.5825482992151798
 20
19.7394040924810383
 30
0.0
 11
18.5825482992151798
 21
19.7353486181810389
 31
0.0
  0
ARC
  5
64B7
  8
0
 10
18.5829207314853484
 20
19.7353486181810389
 30
0.0
 40
0.0003724322701721
 50
180.0000000001230944
 51
216.6495548276951126
  0
LINE
  5
64B8
  8
0
 10
18.5826219285151808
 20
19.7351263062810389
 30
0.0
 11
18.7500976734151799
 21
19.4823706713810409
 31
0.0
  0
ARC
  5
64B9
  8
0
 10
18.7569350533351518
 20
19.4869923168469299
 30
0.0
 40
0.0082528401767107
 50
214.0562583524256013
 51
264.5475790829518132
  0
ARC
  5
64BA
  8
0
 10
18.8581388504151484
 20
21.1754368430929993
 30
0.0
 40
1.6997225629050901
 50
266.5600311822514072
 51
273.4399688177508096
  0
ARC
  5
64BB
  8
0
 10
18.8581404643989714
 20
17.2486399579505516
 30
0.0
 40
2.2342150727920349
 50
87.7808100175880099
 51
92.2192433637510049
  0
ARC
  5
64BC
  8
0
 10
18.8581384996158405
 20
21.4674066674564017
 30
0.0
 40
1.9881106424789281
 50
267.5059333389526728
 51
272.494120020041521
  0
ARC
  5
64BD
  8
0
 10
18.5825391158227617
 20
19.741761079252349
 30
0.0
 40
0.0055827622209994
 50
225.303642260348397
 51
270.0942490193702952
  0
ARC
  5
64BE
  8
0
 10
18.5838249764580716
 20
19.7306739344601993
 30
0.0
 40
0.0088230133090339
 50
98.3198233499394689
 51
126.2126520955261952
  0
ARC
  5
64BF
  8
0
 10
18.7407229511753712
 20
18.1326798039934616
 30
0.0
 40
1.614491300607918
 50
89.1409621279035349
 51
95.6223908089581727
  0
ARC
  5
64C0
  8
0
 10
18.7950696496019987
 20
22.4958364459219489
 30
0.0
 40
2.749012047345798
 50
269.3717692705130275
 51
271.3146235973587181
  0
ARC
  5
64C1
  8
0
 10
18.5745595370528989
 20
38.2455076295901719
 30
0.0
 40
18.5745595528637288
 50
269.6694244810611849
 51
270.1559017409766739
  0
ARC
  5
64C2
  8
0
 10
18.4718657689205799
 20
20.4466874816682491
 30
0.0
 40
0.7754431515340197
 50
266.1924087295838035
 51
269.6694244810611849
  0
ARC
  5
64C3
  8
0
 10
18.420670491416189
 20
19.697305235251541
 30
0.0
 40
0.0243510872039879
 50
237.574552116457113
 51
269.2967489079658208
  0
ARC
  5
64C4
  8
0
 10
18.4153747727721786
 20
19.6858507639934004
 30
0.0
 40
0.0119603343623452
 50
180.0370851075628025
 51
229.5392928551794967
  0
LINE
  5
64C5
  8
0
 10
18.4034144409151814
 20
19.6858430225810395
 30
0.0
 11
18.4034144409151814
 21
19.7490506882810415
 31
0.0
  0
ARC
  5
64C6
  8
0
 10
18.4795767070448598
 20
18.4649179682395115
 30
0.0
 40
1.286389339765875
 50
89.0083595863617063
 51
93.3942522298393243
  0
ARC
  5
64C7
  8
0
 10
18.67998924409018
 20
274.3849054994178118
 30
0.0
 40
254.6338531722921914
 50
269.959914122701889
 51
270.0400858772978836
  0
LINE
  5
64C8
  8
0
 10
19.7242805827151813
 20
17.186593760681049
 30
0.0
 11
19.7242805827151813
 21
17.3243890362810511
 31
0.0
  0
ARC
  5
64C9
  8
0
 10
19.7045955433151789
 20
17.3243890362810511
 30
0.0
 40
0.0196850394000006
 50
359.9999999999997726
 51
90.0
  0
LINE
  5
64CA
  8
0
 10
19.4206388190632993
 20
17.3440740756810392
 30
0.0
 11
19.4206388190632993
 21
20.2196336419188505
 31
0.0
  0
ARC
  5
64CB
  8
0
 10
19.3912732262748193
 20
20.2203861248934196
 30
0.0
 40
0.0293752322619933
 50
358.5321370468619193
 51
76.6068789820861866
  0
ARC
  5
64CC
  8
0
 10
19.363782056656369
 20
20.0575827250337184
 30
0.0
 40
0.1944283320560142
 50
79.8403903073980672
 51
89.6427939787568135
  0
ARC
  5
64CD
  8
0
 10
19.2738764523260606
 20
16.3924462453898698
 30
0.0
 40
3.8606364517145049
 50
88.6475942299276056
 51
90.0512011371418453
  0
LINE
  5
64CE
  8
0
 10
19.2704264783176704
 20
20.25308115560685
 30
0.0
 11
18.8581388504151803
 21
20.2531462157714195
 31
0.0
  0
LINE
  5
64CF
  8
0
 10
19.1337294016151809
 20
19.7394040924810383
 30
0.0
 11
19.1337294016151809
 21
19.7353486181810389
 31
0.0
  0
ARC
  5
64D0
  8
0
 10
19.1333569693450087
 20
19.7353486181810389
 30
0.0
 40
0.0003724322701721
 50
323.3504451723047737
 51
359.9999999998768203
  0
LINE
  5
64D1
  8
0
 10
19.1336557723151905
 20
19.7351263062810389
 30
0.0
 11
18.9661800274151808
 21
19.4823706713810409
 31
0.0
  0
ARC
  5
64D2
  8
0
 10
18.9593426474952089
 20
19.4869923168469299
 30
0.0
 40
0.0082528401767107
 50
275.4524209170483005
 51
325.9437416475743134
  0
ARC
  5
64D3
  8
0
 10
19.1337385850075989
 20
19.741761079252349
 30
0.0
 40
0.0055827622209994
 50
269.9057509806297048
 51
314.6963577396517167
  0
ARC
  5
64D4
  8
0
 10
19.1324527243722891
 20
19.7306739344601993
 30
0.0
 40
0.0088230133090339
 50
53.78734790447389
 51
81.6801766500604174
  0
ARC
  5
64D5
  8
0
 10
18.9755547496550001
 20
18.1326798039934616
 30
0.0
 40
1.614491300607918
 50
84.377609191041941
 51
90.8590378720963656
  0
ARC
  5
64D6
  8
0
 10
18.9212080512283585
 20
22.4958364459219489
 30
0.0
 40
2.749012047345798
 50
268.685376402641225
 51
270.6282307294869725
  0
ARC
  5
64D7
  8
0
 10
19.1417181637774689
 20
38.2455076295901719
 30
0.0
 40
18.5745595528637288
 50
269.8440982590233261
 51
270.3305755189388151
  0
ARC
  5
64D8
  8
0
 10
19.2444119319097808
 20
20.4466874816682491
 30
0.0
 40
0.7754431515340197
 50
270.3305755189388151
 51
273.8075912704164239
  0
ARC
  5
64D9
  8
0
 10
19.2956072094141788
 20
19.697305235251541
 30
0.0
 40
0.0243510872039879
 50
270.7032510920341792
 51
302.4254478835429154
  0
ARC
  5
64DA
  8
0
 10
19.3009029280581785
 20
19.6858507639934004
 30
0.0
 40
0.0119603343623452
 50
310.4607071448205033
 51
359.9629148924371975
  0
LINE
  5
64DB
  8
0
 10
19.3128632599151793
 20
19.6858430225810395
 30
0.0
 11
19.3128632599151793
 21
19.7490506882810415
 31
0.0
  0
ARC
  5
64DC
  8
0
 10
19.2367009937855009
 20
18.4649179682395115
 30
0.0
 40
1.286389339765875
 50
86.6057477701606899
 51
90.9916404136383932
  0
ARC
  5
64DD
  8
0
 10
19.0362884567401913
 20
274.3849054994178118
 30
0.0
 40
254.6338531722921914
 50
269.959914122701889
 51
270.0400858772979973
  0
LINE
  5
64DE
  8
0
 10
18.8581388504151803
 20
19.7826446988810396
 30
0.0
 11
18.4465124539118897
 21
19.7825738496418886
 31
0.0
  0
ARC
  5
64DF
  8
0
 10
18.4482149446979484
 20
9.8912870029448516
 30
0.0
 40
9.89128699321361
 50
90.0098617639189769
 51
90.5083211738065927
  0
ARC
  5
64E0
  8
0
 10
18.3681834782528384
 20
18.9118534942383505
 30
0.0
 40
0.8703654848826323
 50
90.508321173806479
 51
94.7811258880082903
  0
LINE
  5
64E1
  8
0
 10
18.8581388504151803
 20
19.7826446988810396
 30
0.0
 11
19.269765246918471
 21
19.7825738496418886
 31
0.0
  0
ARC
  5
64E2
  8
0
 10
19.2680627561324087
 20
9.8912870029448516
 30
0.0
 40
9.89128699321361
 50
89.4916788261933931
 51
89.9901382360810231
  0
ARC
  5
64E3
  8
0
 10
19.3480942225775188
 20
18.9118534942383505
 30
0.0
 40
0.8703654848826323
 50
85.2188741119917239
 51
89.4916788261933931
  0
LINE
  5
64E4
  8
0
 10
17.9919971181151794
 20
17.24564887878104
 30
0.0
 11
19.7242805827151813
 21
17.2456488787810507
 31
0.0
  0
LINE
  5
64E5
  8
0
 10
18.8581388504151803
 20
17.186593760681049
 30
0.0
 11
20.1357999530772389
 21
16.0890186315406503
 31
0.0
  0
ENDBLK
  5
64E7
  8
0
  0
BLOCK
  8
0
  2
_FILLED
 70
     0
 10
0.0
 20
0.0
 30
0.0
  3
_FILLED
  1

  0
SOLID
  5
6DD4
  8
0
  6
BYBLOCK
 62
     0
 10
0.0
 20
0.0
 30
0.0
 11
-1.0
 21
0.1666666667
 31
0.0
 12
-1.0
 22
-0.1666666667
 32
0.0
 13
-1.0
 23
-0.1666666667
 33
0.0
  0
ENDBLK
  5
6DD5
  8
0
  6
BYBLOCK
 62
     0
  0
ENDSEC
  0
SECTION
  2
ENTITIES
  0
ATTDEF
  5
3930
  8
DEFPOINTS
 10
3628.0881093641310144
 20
377.7244020168570273
 30
0.0
 40
0.001
  1
K-9287T
  3

  2
MODELNUMBER
 70
     0
1001
ACDBATTR
1070
     0
1070
     1
  0
ATTDEF
  5
3931
  8
DEFPOINTS
 10
3628.0881093641310144
 20
377.722735350190419
 30
0.0
 40
0.001
  1
LOVEE
  3

  2
TRADENAME
 70
     0
1001
ACDBATTR
1070
     0
1070
     1
  0
ATTDEF
  5
3932
  8
DEFPOINTS
 10
3628.0881093641310144
 20
377.721068683523697
 30
0.0
 40
0.001
  1
BATH
  3

  2
PRODUCT
 70
     0
1001
ACDBATTR
1070
     0
1070
     1
  0
LINE
  5
7E66
  8
0
 10
3661.1838581845831868
 20
399.4823896894473023
 30
0.0
 11
3594.9993315805832026
 21
399.4823896894473023
 31
0.0
  0
ARC
  5
7E67
  8
0
 10
3594.9993315805832026
 20
399.2067991382472769
 30
0.0
 40
0.2755905512000059
 50
90.0
 51
174.9999999966746884
  0
LINE
  5
7E68
  8
0
 10
3594.7247897346351238
 20
399.2308184374473967
 30
0.0
 11
3594.6270279534837755
 21
398.1133975510771847
 31
0.0
  0
LINE
  5
7E69
  8
0
 10
3594.6270279534837755
 20
398.1133975510771847
 30
0.0
 11
3661.5561618117831131
 21
398.1133961653472966
 31
0.0
  0
LINE
  5
7E6A
  8
0
 10
3595.0600988195828904
 20
398.1133975421108175
 30
0.0
 11
3595.0600988195837999
 21
397.6015851417474209
 31
0.0
  0
ARC
  5
7E6B
  8
0
 10
3594.9813586620839487
 20
397.6015851417474209
 30
0.0
 40
0.0787401575000004
 50
270.0
 51
0.0
  0
LINE
  5
7E6C
  8
0
 10
3661.3986814967838654
 20
397.5228449842472855
 30
0.0
 11
3594.7845082683838882
 21
397.5228449842472855
 31
0.0
  0
ARC
  5
7E6D
  8
0
 10
3594.7845082683838882
 20
397.4441048267473207
 30
0.0
 40
0.0787401575000164
 50
90.0
 51
179.9999999999870113
  0
LINE
  5
7E6E
  8
0
 10
3594.7057681108831275
 20
397.4441048267473775
 30
0.0
 11
3594.7057681108790348
 21
378.1133961653474103
 31
0.0
  0
ARC
  5
7E6F
  8
0
 10
3594.784508268378886
 20
378.1133961653474103
 30
0.0
 40
0.0787401574999827
 50
179.9999999999870113
 51
270.0000000032047751
  0
LINE
  5
7E70
  8
0
 10
3594.7845082683838882
 20
378.0346560078473885
 30
0.0
 11
3661.3986814967838654
 21
378.0346560115593206
 31
0.0
  0
LINE
  5
7E71
  8
0
 10
3608.8830177823838312
 20
378.0346560078473885
 30
0.0
 11
3608.8830177823838312
 21
377.8378056141473849
 31
0.0
  0
LINE
  5
7E72
  8
0
 10
3608.8830177823838312
 20
377.8378056141473849
 30
0.0
 11
3610.2922979669838242
 21
377.8378056141473849
 31
0.0
  0
LINE
  5
7E73
  8
0
 10
3610.2922979669838242
 20
377.8378056141473849
 30
0.0
 11
3610.2922979669838242
 21
378.0346560078473885
 31
0.0
  0
LINE
  5
7E74
  8
0
 10
3609.2353378284828977
 20
378.0346560078473885
 30
0.0
 11
3609.2353378284828977
 21
377.8378056141473849
 31
0.0
  0
LINE
  5
7E75
  8
0
 10
3609.9399779208838481
 20
378.0346560086919112
 30
0.0
 11
3609.9399779208838481
 21
377.8378056141473849
 31
0.0
  0
LINE
  5
7E76
  8
0
 10
3615.3750012852829059
 20
377.8652820478474155
 30
0.0
 11
3614.5089758814829111
 21
377.8652820478474155
 31
0.0
  0
LINE
  5
7E77
  8
0
 10
3614.5089758814829111
 20
377.8652820478474155
 30
0.0
 11
3614.5089758814829111
 21
377.7405343094474119
 31
0.0
  0
LINE
  5
7E78
  8
0
 10
3614.5089758814829111
 20
377.7405343094474119
 30
0.0
 11
3614.5482877959830148
 21
377.7274867722474028
 31
0.0
  0
LINE
  5
7E79
  8
0
 10
3614.5482877959830148
 20
377.7274867722474028
 30
0.0
 11
3615.3356893707828021
 21
377.7274867722474028
 31
0.0
  0
LINE
  5
7E7A
  8
0
 10
3615.3356893707828021
 20
377.7274867722474028
 30
0.0
 11
3615.3750012852829059
 21
377.7405343094474119
 31
0.0
  0
LINE
  5
7E7B
  8
0
 10
3615.3750012852829059
 20
377.7405343094474119
 30
0.0
 11
3615.3750012852829059
 21
377.8652820478474155
 31
0.0
  0
ARC
  5
7E7C
  8
0
 10
3614.7254822324330235
 20
378.8058441803427172
 30
0.0
 40
1.065309576009742
 50
258.2739040064498113
 51
281.726095993550075
  0
ARC
  5
7E7D
  8
0
 10
3615.1584949343327935
 20
378.8059458304699092
 30
0.0
 40
1.065409104934383
 50
258.2750149934202
 51
281.7249850065798
  0
LINE
  5
7E7E
  8
0
 10
3614.9419885833831358
 20
377.7627672451473018
 30
0.0
 11
3614.9419885833831358
 21
377.8652820478474155
 31
0.0
  0
LINE
  5
7E7F
  8
0
 10
3614.7549807093828349
 20
377.8652820478474155
 30
0.0
 11
3614.7549807093828349
 21
377.9195774826474121
 31
0.0
  0
LINE
  5
7E80
  8
0
 10
3614.7549807093828349
 20
377.9195774826474121
 30
0.0
 11
3614.7993365538900434
 21
377.9457206663689135
 31
0.0
  0
LINE
  5
7E81
  8
0
 10
3614.7993365538900434
 20
377.9457206663689135
 30
0.0
 11
3614.7549807093828349
 21
377.9718570290473849
 31
0.0
  0
LINE
  5
7E82
  8
0
 10
3614.7549807093828349
 20
377.9718570290473849
 30
0.0
 11
3614.7549807093828349
 21
377.9786326007472894
 31
0.0
  0
LINE
  5
7E83
  8
0
 10
3614.7549807093828349
 20
377.9786326007472894
 30
0.0
 11
3614.7993380701827846
 21
378.004769815247414
 31
0.0
  0
LINE
  5
7E84
  8
0
 10
3614.7993380701827846
 20
378.004769815247414
 30
0.0
 11
3614.7556828576830412
 21
378.0300977145474235
 31
0.0
  0
LINE
  5
7E85
  8
0
 10
3614.7556828576830412
 20
378.0300977145474235
 30
0.0
 11
3614.7556828576830412
 21
378.0346560078473885
 31
0.0
  0
LINE
  5
7E86
  8
0
 10
3615.0845678837031301
 20
378.0346560089785157
 30
0.0
 11
3615.1289964573838915
 21
378.0081601598474208
 31
0.0
  0
LINE
  5
7E87
  8
0
 10
3615.1289964573838915
 20
378.0081601598474208
 30
0.0
 11
3615.1289964573838915
 21
378.0013847905473767
 31
0.0
  0
LINE
  5
7E88
  8
0
 10
3615.1289964573838915
 20
378.0013847905473767
 30
0.0
 11
3615.0847713897837821
 21
377.9751671380474249
 31
0.0
  0
LINE
  5
7E89
  8
0
 10
3615.0847713897837821
 20
377.9751671380474249
 30
0.0
 11
3615.1289964573838915
 21
377.949105041747373
 31
0.0
  0
LINE
  5
7E8A
  8
0
 10
3615.1289964573838915
 20
377.949105041747373
 30
0.0
 11
3615.1289964573838915
 21
377.9262606245472966
 31
0.0
  0
LINE
  5
7E8B
  8
0
 10
3615.1289964573838915
 20
377.9262606245472966
 30
0.0
 11
3615.1125602669030741
 21
377.9156672887327204
 31
0.0
  0
LINE
  5
7E8C
  8
0
 10
3615.1125602669030741
 20
377.9156672887327204
 30
0.0
 11
3615.1289964573838915
 21
377.9061189714465741
 31
0.0
  0
LINE
  5
7E8D
  8
0
 10
3615.1289964573838915
 20
377.9061189714465741
 30
0.0
 11
3615.1289964573838915
 21
377.8652820478474155
 31
0.0
  0
LINE
  5
7E8E
  8
0
 10
3615.0845678837031301
 20
378.0346560089785157
 30
0.0
 11
3614.7993380701827846
 21
378.004769815247414
 31
0.0
  0
LINE
  5
7E8F
  8
0
 10
3615.0847713897837821
 20
377.9751671380474249
 30
0.0
 11
3614.7993365538900434
 21
377.9457206663689135
 31
0.0
  0
LINE
  5
7E90
  8
0
 10
3615.1125602669030741
 20
377.9156672887327204
 30
0.0
 11
3615.0200051245628856
 21
377.9061189714465741
 31
0.0
  0
LINE
  5
7E91
  8
0
 10
3615.1289964573838915
 20
377.9061189714465741
 30
0.0
 11
3614.7549807093828349
 21
377.9061189714465741
 31
0.0
  0
ARC
  5
7E92
  8
0
 10
3661.1838581845831868
 20
399.2067991382472769
 30
0.0
 40
0.2755905512000059
 50
5.0000000033252254
 51
90.0
  0
LINE
  5
7E93
  8
0
 10
3661.4584000305308109
 20
399.2308184374473967
 30
0.0
 11
3661.5561618117831131
 21
398.1133961653472966
 31
0.0
  0
LINE
  5
7E94
  8
0
 10
3661.1230909455830442
 20
398.1133961743137775
 30
0.0
 11
3661.1230909455830442
 21
397.6015851417474209
 31
0.0
  0
ARC
  5
7E95
  8
0
 10
3661.2018311030838049
 20
397.6015851417474209
 30
0.0
 40
0.0787401575000004
 50
180.0
 51
270.0
  0
ARC
  5
7E96
  8
0
 10
3661.3986814967838654
 20
397.4441048267473207
 30
0.0
 40
0.0787401575000164
 50
0.0000000000130276
 51
90.0
  0
LINE
  5
7E97
  8
0
 10
3661.4774216542841714
 20
397.4441048267473775
 30
0.0
 11
3661.4774216542878094
 21
378.1133961653474103
 31
0.0
  0
ARC
  5
7E98
  8
0
 10
3661.3986814967879582
 20
378.1133961653474103
 30
0.0
 40
0.0787401574999827
 50
269.9999999967952249
 51
0.0000000000130276
  0
LINE
  5
7E99
  8
0
 10
3647.3001719827830129
 20
378.0346560078473885
 30
0.0
 11
3647.3001719827830129
 21
377.8378056141473849
 31
0.0
  0
LINE
  5
7E9A
  8
0
 10
3647.3001719827830129
 20
377.8378056141473849
 30
0.0
 11
3645.89089179818302
 21
377.8378056141473849
 31
0.0
  0
LINE
  5
7E9B
  8
0
 10
3645.89089179818302
 20
377.8378056141473849
 30
0.0
 11
3645.89089179818302
 21
378.0346560078473885
 31
0.0
  0
LINE
  5
7E9C
  8
0
 10
3646.9478519366830369
 20
378.0346560078473885
 30
0.0
 11
3646.9478519366830369
 21
377.8378056141473849
 31
0.0
  0
LINE
  5
7E9D
  8
0
 10
3646.2432118442839055
 20
378.0346560086919112
 30
0.0
 11
3646.2432118442839055
 21
377.8378056141473849
 31
0.0
  0
LINE
  5
7E9E
  8
0
 10
3640.8081884798830288
 20
377.8652820478474155
 30
0.0
 11
3641.6742138836830236
 21
377.8652820478474155
 31
0.0
  0
LINE
  5
7E9F
  8
0
 10
3641.6742138836830236
 20
377.8652820478474155
 30
0.0
 11
3641.6742138836830236
 21
377.7405343094474119
 31
0.0
  0
LINE
  5
7EA0
  8
0
 10
3641.6742138836830236
 20
377.7405343094474119
 30
0.0
 11
3641.6349019691838294
 21
377.7274867722474028
 31
0.0
  0
LINE
  5
7EA1
  8
0
 10
3641.6349019691838294
 20
377.7274867722474028
 30
0.0
 11
3640.847500394384042
 21
377.7274867722474028
 31
0.0
  0
LINE
  5
7EA2
  8
0
 10
3640.847500394384042
 20
377.7274867722474028
 30
0.0
 11
3640.8081884798830288
 21
377.7405343094474119
 31
0.0
  0
LINE
  5
7EA3
  8
0
 10
3640.8081884798830288
 20
377.7405343094474119
 30
0.0
 11
3640.8081884798830288
 21
377.8652820478474155
 31
0.0
  0
ARC
  5
7EA4
  8
0
 10
3641.4577075327338207
 20
378.8058441803427172
 30
0.0
 40
1.065309576009742
 50
258.2739040064498113
 51
281.726095993550075
  0
ARC
  5
7EA5
  8
0
 10
3641.0246948308340507
 20
378.8059458304699092
 30
0.0
 40
1.065409104934383
 50
258.2750149934202
 51
281.7249850065798
  0
LINE
  5
7EA6
  8
0
 10
3641.2412011817841631
 20
377.7627672451473018
 30
0.0
 11
3641.2412011817841631
 21
377.8652820478474155
 31
0.0
  0
LINE
  5
7EA7
  8
0
 10
3641.4282090557840093
 20
377.8652820478474155
 30
0.0
 11
3641.4282090557840093
 21
377.9195774826474121
 31
0.0
  0
LINE
  5
7EA8
  8
0
 10
3641.4282090557840093
 20
377.9195774826474121
 30
0.0
 11
3641.3838532112758912
 21
377.9457206663689135
 31
0.0
  0
LINE
  5
7EA9
  8
0
 10
3641.3838532112758912
 20
377.9457206663689135
 30
0.0
 11
3641.4282090557840093
 21
377.9718570290473849
 31
0.0
  0
LINE
  5
7EAA
  8
0
 10
3641.4282090557840093
 20
377.9718570290473849
 30
0.0
 11
3641.4282090557840093
 21
377.9786326007472894
 31
0.0
  0
LINE
  5
7EAB
  8
0
 10
3641.4282090557840093
 20
377.9786326007472894
 30
0.0
 11
3641.3838516949831501
 21
378.004769815247414
 31
0.0
  0
LINE
  5
7EAC
  8
0
 10
3641.3838516949831501
 20
378.004769815247414
 30
0.0
 11
3641.4275069074828934
 21
378.0300977145474235
 31
0.0
  0
LINE
  5
7EAD
  8
0
 10
3641.4275069074828934
 20
378.0300977145474235
 30
0.0
 11
3641.4275069074828934
 21
378.0346560078473885
 31
0.0
  0
LINE
  5
7EAE
  8
0
 10
3641.0986218814641688
 20
378.0346560089785157
 30
0.0
 11
3641.0541933077838621
 21
378.0081601598474208
 31
0.0
  0
LINE
  5
7EAF
  8
0
 10
3641.0541933077838621
 20
378.0081601598474208
 30
0.0
 11
3641.0541933077838621
 21
378.0013847905473767
 31
0.0
  0
LINE
  5
7EB0
  8
0
 10
3641.0541933077838621
 20
378.0013847905473767
 30
0.0
 11
3641.0984183753839716
 21
377.9751671380474249
 31
0.0
  0
LINE
  5
7EB1
  8
0
 10
3641.0984183753839716
 20
377.9751671380474249
 30
0.0
 11
3641.0541933077838621
 21
377.949105041747373
 31
0.0
  0
LINE
  5
7EB2
  8
0
 10
3641.0541933077838621
 20
377.949105041747373
 30
0.0
 11
3641.0541933077838621
 21
377.9262606245472966
 31
0.0
  0
LINE
  5
7EB3
  8
0
 10
3641.0541933077838621
 20
377.9262606245472966
 30
0.0
 11
3641.0706294982628606
 21
377.9156672887327204
 31
0.0
  0
LINE
  5
7EB4
  8
0
 10
3641.0706294982628606
 20
377.9156672887327204
 30
0.0
 11
3641.0541933077838621
 21
377.9061189714465741
 31
0.0
  0
LINE
  5
7EB5
  8
0
 10
3641.0541933077838621
 20
377.9061189714465741
 30
0.0
 11
3641.0541933077838621
 21
377.8652820478474155
 31
0.0
  0
LINE
  5
7EB6
  8
0
 10
3641.0986218814641688
 20
378.0346560089785157
 30
0.0
 11
3641.3838516949831501
 21
378.004769815247414
 31
0.0
  0
LINE
  5
7EB7
  8
0
 10
3641.0984183753839716
 20
377.9751671380474249
 30
0.0
 11
3641.3838532112758912
 21
377.9457206663689135
 31
0.0
  0
LINE
  5
7EB8
  8
0
 10
3641.0706294982628606
 20
377.9156672887327204
 30
0.0
 11
3641.163184640603049
 21
377.9061189714465741
 31
0.0
  0
LINE
  5
7EB9
  8
0
 10
3641.0541933077838621
 20
377.9061189714465741
 30
0.0
 11
3641.4282090557840093
 21
377.9061189714465741
 31
0.0
  0
ENDSEC
  0
EOF
