  0
SECTION
  2
HEADER
  9
$ACADVER
  1
AC1009
  9
$INSBASE
 10
3318.1399434681820821
 20
194.2374712417997955
 30
0.0
  9
$EXTMIN
 10
3317.0768827134670573
 20
193.1745046017909999
 30
0.0
  9
$EXTMAX
 10
3320.190852927511969
 20
195.3004388009543959
 30
0.0
  9
$LIMMIN
 10
0.0
 20
0.0
  9
$LIMMAX
 10
11.6929133858000007
 20
8.2677165353999982
  9
$ORTHOMODE
 70
     0
  9
$REGENMODE
 70
     1
  9
$FILLMODE
 70
     1
  9
$QTEXTMODE
 70
     0
  9
$MIRRTEXT
 70
     0
  9
$DRAGMODE
 70
     2
  9
$LTSCALE
 40
0.6431102362
  9
$OSMODE
 70
  4095
  9
$ATTMODE
 70
     1
  9
$TEXTSIZE
 40
0.2
  9
$TRACEWID
 40
0.05
  9
$TEXTSTYLE
  7
STANDARD
  9
$CLAYER
  8
0
  9
$CELTYPE
  6
BYLAYER
  9
$CECOLOR
 62
   256
  9
$DIMSCALE
 40
1.0
  9
$DIMASZ
 40
0.1875
  9
$DIMEXO
 40
0.0625
  9
$DIMDLI
 40
0.4443307087
  9
$DIMRND
 40
0.0
  9
$DIMDLE
 40
0.0
  9
$DIMEXE
 40
0.125
  9
$DIMTP
 40
0.01
  9
$DIMTM
 40
0.01
  9
$DIMTXT
 40
2.0
  9
$DIMCEN
 40
0.1052362205
  9
$DIMTSZ
 40
0.0
  9
$DIMTOL
 70
     1
  9
$DIMLIM
 70
     0
  9
$DIMTIH
 70
     1
  9
$DIMTOH
 70
     1
  9
$DIMSE1
 70
     0
  9
$DIMSE2
 70
     0
  9
$DIMTAD
 70
     0
  9
$DIMZIN
 70
     0
  9
$DIMBLK
  1

  9
$DIMASO
 70
     1
  9
$DIMSHO
 70
     1
  9
$DIMPOST
  1
\X
  9
$DIMAPOST
  1

  9
$DIMALT
 70
     1
  9
$DIMALTD
 70
     2
  9
$DIMALTF
 40
25.3999999999999986
  9
$DIMLFAC
 40
1.0
  9
$DIMTOFL
 70
     0
  9
$DIMTVP
 40
0.0
  9
$DIMTIX
 70
     0
  9
$DIMSOXD
 70
     0
  9
$DIMSAH
 70
     0
  9
$DIMBLK1
  1

  9
$DIMBLK2
  1

  9
$DIMSTYLE
  2
STANDARD
  9
$DIMCLRD
 70
     0
  9
$DIMCLRE
 70
     0
  9
$DIMCLRT
 70
     0
  9
$DIMTFAC
 40
1.0
  9
$DIMGAP
 40
0.09
  9
$LUNITS
 70
     2
  9
$LUPREC
 70
     4
  9
$SKETCHINC
 40
0.1
  9
$FILLETRAD
 40
0.0
  9
$AUNITS
 70
     0
  9
$AUPREC
 70
     0
  9
$MENU
  1
.
  9
$ELEVATION
 40
0.0
  9
$PELEVATION
 40
0.0
  9
$THICKNESS
 40
0.0
  9
$LIMCHECK
 70
     0
  9
$BLIPMODE
 70
     0
  9
$CHAMFERA
 40
0.0
  9
$CHAMFERB
 40
0.0
  9
$SKPOLY
 70
     0
  9
$TDCREATE
 40
2458060.468368056230247
  9
$TDUPDATE
 40
2459531.6785532408393919
  9
$TDINDWG
 40
0.4224491898
  9
$TDUSRTIMER
 40
0.4224491898
  9
$USRTIMER
 70
     1
  9
$ANGBASE
 50
0.0
  9
$ANGDIR
 70
     0
  9
$PDMODE
 70
     0
  9
$PDSIZE
 40
0.3125
  9
$PLINEWID
 40
0.0
  9
$COORDS
 70
     1
  9
$SPLFRAME
 70
     0
  9
$SPLINETYPE
 70
     6
  9
$SPLINESEGS
 70
     8
  9
$ATTDIA
 70
     1
  9
$ATTREQ
 70
     1
  9
$HANDLING
 70
     1
  9
$HANDSEED
  5
8622
  9
$SURFTAB1
 70
     6
  9
$SURFTAB2
 70
     6
  9
$SURFTYPE
 70
     6
  9
$SURFU
 70
     6
  9
$SURFV
 70
     6
  9
$UCSNAME
  2

  9
$UCSORG
 10
0.0
 20
0.0
 30
0.0
  9
$UCSXDIR
 10
1.0
 20
0.0
 30
0.0
  9
$UCSYDIR
 10
0.0
 20
1.0
 30
0.0
  9
$PUCSNAME
  2

  9
$PUCSORG
 10
0.0
 20
0.0
 30
0.0
  9
$PUCSXDIR
 10
1.0
 20
0.0
 30
0.0
  9
$PUCSYDIR
 10
0.0
 20
1.0
 30
0.0
  9
$USERI1
 70
     0
  9
$USERI2
 70
     0
  9
$USERI3
 70
     0
  9
$USERI4
 70
     0
  9
$USERI5
 70
     0
  9
$USERR1
 40
0.0
  9
$USERR2
 40
0.0
  9
$USERR3
 40
0.0
  9
$USERR4
 40
0.0
  9
$USERR5
 40
0.0
  9
$WORLDVIEW
 70
     1
  9
$SHADEDGE
 70
     3
  9
$SHADEDIF
 70
    70
  9
$TILEMODE
 70
     1
  9
$MAXACTVP
 70
    64
  9
$PLIMCHECK
 70
     0
  9
$PEXTMIN
 10
1.0000000000000000E+20
 20
1.0000000000000000E+20
 30
1.0000000000000000E+20
  9
$PEXTMAX
 10
-1.0000000000000000E+20
 20
-1.0000000000000000E+20
 30
-1.0000000000000000E+20
  9
$PLIMMIN
 10
0.0
 20
0.0
  9
$PLIMMAX
 10
12.0
 20
9.0
  9
$UNITMODE
 70
     0
  9
$VISRETAIN
 70
     1
  9
$PLINEGEN
 70
     0
  9
$PSLTSCALE
 70
     1
  0
ENDSEC
  0
SECTION
  2
TABLES
  0
TABLE
  2
VPORT
 70
     1
  0
VPORT
  2
*ACTIVE
 70
     0
 10
0.0
 20
0.0
 11
1.0
 21
1.0
 12
232.4278116953668984
 22
-2.8332033270624448
 13
0.0
 23
0.0
 14
1.0
 24
1.0
 15
0.0
 25
0.0
 16
0.0
 26
0.0
 36
95.5902297660485658
 17
3089.811279296875
 27
197.161570589386713
 37
0.0
 40
9.9727512404830332
 41
2.000833333333333
 42
50.0
 43
0.0
 44
0.0
 50
0.0
 51
0.0
 71
     0
 72
   100
 73
     1
 74
     1
 75
     0
 76
     0
 77
     0
 78
     0
  0
ENDTAB
  0
TABLE
  2
LTYPE
 70
     2
  0
LTYPE
  2
CONTINUOUS
 70
     0
  3
Solid line
 72
    65
 73
     0
 40
0.0
  0
LTYPE
  2
PHANTOM2
 70
     0
  3
___ _ _ ___ _ _ ___ _ _ ___ _ _
 72
    65
 73
     6
 40
1.25
 49
0.625
 49
-0.125
 49
0.125
 49
-0.125
 49
0.125
 49
-0.125
  0
ENDTAB
  0
TABLE
  2
LAYER
 70
     2
  0
LAYER
  2
0
 70
     0
 62
   255
  6
CONTINUOUS
  0
LAYER
  2
DEFPOINTS
 70
     0
 62
     7
  6
CONTINUOUS
  0
ENDTAB
  0
TABLE
  2
STYLE
 70
     1
  0
STYLE
  2
STANDARD
 70
     0
 40
0.0
 41
0.8
 50
0.0
 71
     0
 42
0.2
  3
txt
  4

  0
ENDTAB
  0
TABLE
  2
VIEW
 70
     0
  0
ENDTAB
  0
TABLE
  2
UCS
 70
     0
  0
ENDTAB
  0
TABLE
  2
APPID
 70
     9
  0
APPID
  2
ACAD
 70
     0
  0
APPID
  2
ACAD_MLEADERVER
 70
     0
  0
APPID
  2
ACAD_EXEMPT_FROM_CAD_STANDARDS
 70
     0
  0
APPID
  2
ACAD_NAV_VCDISPLAY
 70
     0
  0
APPID
  2
ACAECLAYERSTANDARD
 70
     0
  0
APPID
  2
ACCMTRANSPARENCY
 70
     0
  0
APPID
  2
ACAD_DSTYLE_DIMJAG
 70
     0
  0
APPID
  2
ACAD_DSTYLE_DIMTALN
 70
     0
  0
APPID
  2
ACDBATTR
 70
     0
  0
ENDTAB
  0
TABLE
  2
DIMSTYLE
 70
     1
  0
DIMSTYLE
  2
STANDARD
 70
     0
  3

  4

  5

  6

  7

 40
1.0
 41
0.1875
 42
0.0625
 43
0.38
 44
0.125
 45
0.0
 46
0.0
 47
0.01
 48
0.01
140
0.15625
141
0.09
142
0.0
143
25.3999999999999986
144
1.0
145
0.0
146
1.0
147
0.09
 71
     1
 72
     0
 73
     1
 74
     1
 75
     0
 76
     0
 77
     0
 78
     4
170
     0
171
     2
172
     0
173
     0
174
     0
175
     0
176
     0
177
     0
178
     0
  0
ENDTAB
  0
ENDSEC
  0
SECTION
  2
BLOCKS
  0
BLOCK
  8
0
  2
$MODEL_SPACE
 70
     0
 10
0.0
 20
0.0
 30
0.0
  3
$MODEL_SPACE
  1

  0
ENDBLK
  5
21
  8
0
  0
BLOCK
 67
     1
  8
0
  2
$PAPER_SPACE
 70
     0
 10
0.0
 20
0.0
 30
0.0
  3
$PAPER_SPACE
  1

  0
ENDBLK
  5
1D
 67
     1
  8
0
  0
BLOCK
  8
0
  2
_FILLED
 70
     0
 10
0.0
 20
0.0
 30
0.0
  3
_FILLED
  1

  0
SOLID
  5
7FAE
  8
0
  6
BYBLOCK
 62
     0
 10
0.0
 20
0.0
 30
0.0
 11
-1.0
 21
0.1666666667
 31
0.0
 12
-1.0
 22
-0.1666666667
 32
0.0
 13
-1.0
 23
-0.1666666667
 33
0.0
  0
ENDBLK
  5
7FAF
  8
0
  6
BYBLOCK
 62
     0
  0
ENDSEC
  0
SECTION
  2
ENTITIES
  0
ATTDEF
  5
3930
  8
DEFPOINTS
 10
3318.142556476583195
 20
194.2416272145320875
 30
0.0
 40
0.001
  1
K-9038IN
  3

  2
MODELNUMBER
 70
     0
1001
ACDBATTR
1070
     0
1070
     1
  0
ATTDEF
  5
3931
  8
DEFPOINTS
 10
3318.142556476583195
 20
194.2399605478653939
 30
0.0
 40
0.001
  1
COMPLEMENTARY
  3

  2
TRADENAME
 70
     0
1001
ACDBATTR
1070
     0
1070
     1
  0
ATTDEF
  5
3932
  8
DEFPOINTS
 10
3318.142556476583195
 20
194.238293881198814
 30
0.0
 40
0.001
  1
HANDSHOWER HOLDER
  3

  2
PRODUCT
 70
     0
1001
ACDBATTR
1070
     0
1070
     1
  0
ARC
  5
84B7
  8
0
 10
3318.1399426951129499
 20
194.2373346151699138
 30
0.0
 40
0.8070866141999999
 50
71.9190805050156428
 51
288.0809194739366035
  0
ARC
  5
84B8
  8
0
 10
3318.1399426951129499
 20
194.2373346151699138
 30
0.0
 40
0.9670275590999999
 50
52.2847890755951212
 51
307.7152109201235817
  0
ARC
  5
84B9
  8
0
 10
3318.1398498130479311
 20
194.2374717013726979
 30
0.0
 40
1.062967099581692
 50
42.8077466041597816
 51
315.8826983546288716
  0
ARC
  5
84BA
  8
0
 10
3319.5060844274130432
 20
194.2373346151699138
 30
0.0
 40
0.6847685000999996
 50
244.8911325407709967
 51
116.2570911754517056
  0
ARC
  5
84BB
  8
0
 10
3318.8430111909128755
 20
194.9817165501324041
 30
0.0
 40
0.0198586806247063
 50
56.9212788892535784
 51
89.5182083803919255
  0
ARC
  5
84BC
  8
0
 10
3319.3529026331580098
 20
195.6421617892553115
 30
0.0
 40
0.8047715757339302
 50
245.401177312464398
 51
259.2753381318365768
  0
ARC
  5
84BD
  8
0
 10
3319.6215304935481072
 20
196.2336729361427956
 30
0.0
 40
1.4544208699251
 50
238.1413409596781037
 51
245.4789899608117878
  0
ARC
  5
84BE
  8
0
 10
3319.6241785792299197
 20
194.8629563726574929
 30
0.0
 40
0.0481072429844117
 50
78.1700051697214491
 51
78.1713310004983555
  0
ARC
  5
84BF
  8
0
 10
3319.6242351305591001
 20
194.8619480138627864
 30
0.0
 40
0.049092722642284
 50
80.7085485620265644
 51
105.7169531057988934
  0
ARC
  5
84C0
  8
0
 10
3322.0046175538600437
 20
187.1853341816654108
 30
0.0
 40
8.0862780355957682
 50
107.2185693918580967
 51
108.0070650430178034
  0
ARC
  5
84C1
  8
0
 10
3319.2835845296181105
 20
195.5525146595861088
 30
0.0
 40
0.7122301003772862
 50
278.3593902438365717
 51
288.1012103696606914
  0
ARC
  5
84C2
  8
0
 10
3319.3064102200469279
 20
195.4265010088278132
 30
0.0
 40
0.5842523788807285
 50
259.8194312706788764
 51
277.9413190371342921
  0
ARC
  5
84C3
  8
0
 10
3318.8569341738088951
 20
193.4917483838005126
 30
0.0
 40
0.0184825767037127
 50
269.3974413054472166
 51
299.7910317794734851
  0
ARC
  5
84C4
  8
0
 10
3319.3423685879452023
 20
192.8596669642361121
 30
0.0
 40
0.7681551942514142
 50
99.505774481945565
 51
113.6768941238032937
  0
ARC
  5
84C5
  8
0
 10
3319.5795125183390155
 20
192.311751522780213
 30
0.0
 40
1.3651845136451879
 50
113.5573319151052942
 51
121.504358613210897
  0
ARC
  5
84C6
  8
0
 10
3319.6241785792299197
 20
193.6117128576823063
 30
0.0
 40
0.0481072429844117
 50
281.8286689995015877
 51
281.829994830278622
  0
ARC
  5
84C7
  8
0
 10
3319.607650889397064
 20
193.610651134089693
 30
0.0
 40
0.0499111477947152
 50
254.3720916699076895
 51
279.8805922453742028
  0
ARC
  5
84C8
  8
0
 10
3321.8479678372018498
 20
200.7869925215285036
 30
0.0
 40
7.5677940909770012
 50
251.9640222772372908
 51
252.6739042085978895
  0
ARC
  5
84C9
  8
0
 10
3319.286864110778879
 20
192.9276099183489919
 30
0.0
 40
0.6983528678039719
 50
71.8096936311384439
 51
80.640407102963664
  0
ARC
  5
84CA
  8
0
 10
3319.3060814144350843
 20
193.0422752505164965
 30
0.0
 40
0.5820888350827526
 50
80.6712579371844356
 51
98.9514299899756935
  0
LINE
  5
84CB
  8
0
 10
3318.8566082151128285
 20
193.4731833997699084
 30
0.0
 11
3318.3171080494130365
 21
193.4696180796699139
 31
0.0
  0
LINE
  5
84CC
  8
0
 10
3318.3171080494130365
 20
193.4499330403324109
 30
0.0
 11
3318.3171080494130365
 21
195.0247361900073884
 31
0.0
  0
LINE
  5
84CD
  8
0
 10
3318.3171080494130365
 20
195.0050511505698978
 30
0.0
 11
3318.843178177612117
 21
195.0015745286698063
 31
0.0
  0
LINE
  5
84CE
  8
0
 10
3317.3185930265130992
 20
194.4537046276969932
 30
0.0
 11
3317.3185930264130548
 21
194.0209646027315955
 31
0.0
  0
LINE
  5
84CF
  8
0
 10
3317.3262578170129018
 20
194.0148936702699132
 30
0.0
 11
3317.3641148605688613
 21
194.0148936702699132
 31
0.0
  0
LINE
  5
84D0
  8
0
 10
3317.3262578170129018
 20
194.4597755599698985
 30
0.0
 11
3317.3641148605688613
 21
194.4597755600698861
 31
0.0
  0
ARC
  5
84D1
  8
0
 10
3317.3262578170752022
 20
194.4519015440903047
 30
0.0
 40
0.0078740158796302
 50
90.000000454922116
 51
166.7622884675942885
  0
ARC
  5
84D2
  8
0
 10
3317.3262578170129018
 20
194.0227676859699102
 30
0.0
 40
0.0078740157000006
 50
193.2377101047030123
 51
270.0
  0
ARC
  5
84D3
  8
0
 10
3318.238367892012775
 20
194.2373346151699138
 30
0.0
 40
0.9448818898000027
 50
166.7622899042065967
 51
193.2377100957934033
  0
ENDSEC
  0
EOF
