  0
SECTION
  2
HEADER
  9
$ACADVER
  1
AC1009
  9
$INSBASE
 10
4572.0035219835017415
 20
219.2637528834474949
 30
0.0
  9
$EXTMIN
 10
4569.5973351779657605
 20
214.9527233241975068
 30
0.0
  9
$EXTMAX
 10
4572.0146650216111084
 20
221.4881563950974055
 30
0.0
  9
$LIMMIN
 10
0.0
 20
0.0
  9
$LIMMAX
 10
11.6929133858000007
 20
8.2677165353999982
  9
$ORTHOMODE
 70
     0
  9
$REGENMODE
 70
     1
  9
$FILLMODE
 70
     1
  9
$QTEXTMODE
 70
     0
  9
$MIRRTEXT
 70
     0
  9
$DRAGMODE
 70
     2
  9
$LTSCALE
 40
0.6431102362
  9
$OSMODE
 70
  4095
  9
$ATTMODE
 70
     1
  9
$TEXTSIZE
 40
0.2
  9
$TRACEWID
 40
0.05
  9
$TEXTSTYLE
  7
STANDARD
  9
$CLAYER
  8
0
  9
$CELTYPE
  6
BYLAYER
  9
$CECOLOR
 62
   256
  9
$DIMSCALE
 40
1.0
  9
$DIMASZ
 40
0.1875
  9
$DIMEXO
 40
0.0625
  9
$DIMDLI
 40
0.4443307087
  9
$DIMRND
 40
0.0
  9
$DIMDLE
 40
0.0
  9
$DIMEXE
 40
0.125
  9
$DIMTP
 40
0.01
  9
$DIMTM
 40
0.01
  9
$DIMTXT
 40
2.0
  9
$DIMCEN
 40
0.1052362205
  9
$DIMTSZ
 40
0.0
  9
$DIMTOL
 70
     1
  9
$DIMLIM
 70
     0
  9
$DIMTIH
 70
     1
  9
$DIMTOH
 70
     1
  9
$DIMSE1
 70
     0
  9
$DIMSE2
 70
     0
  9
$DIMTAD
 70
     0
  9
$DIMZIN
 70
     0
  9
$DIMBLK
  1

  9
$DIMASO
 70
     1
  9
$DIMSHO
 70
     1
  9
$DIMPOST
  1
\X
  9
$DIMAPOST
  1

  9
$DIMALT
 70
     1
  9
$DIMALTD
 70
     2
  9
$DIMALTF
 40
25.3999999999999986
  9
$DIMLFAC
 40
1.0
  9
$DIMTOFL
 70
     0
  9
$DIMTVP
 40
0.0
  9
$DIMTIX
 70
     0
  9
$DIMSOXD
 70
     0
  9
$DIMSAH
 70
     0
  9
$DIMBLK1
  1

  9
$DIMBLK2
  1

  9
$DIMSTYLE
  2
STANDARD
  9
$DIMCLRD
 70
     0
  9
$DIMCLRE
 70
     0
  9
$DIMCLRT
 70
     0
  9
$DIMTFAC
 40
1.0
  9
$DIMGAP
 40
0.09
  9
$LUNITS
 70
     2
  9
$LUPREC
 70
     4
  9
$SKETCHINC
 40
0.1
  9
$FILLETRAD
 40
0.0
  9
$AUNITS
 70
     0
  9
$AUPREC
 70
     0
  9
$MENU
  1
.
  9
$ELEVATION
 40
0.0
  9
$PELEVATION
 40
0.0
  9
$THICKNESS
 40
0.0
  9
$LIMCHECK
 70
     0
  9
$BLIPMODE
 70
     0
  9
$CHAMFERA
 40
0.0
  9
$CHAMFERB
 40
0.0
  9
$SKPOLY
 70
     0
  9
$TDCREATE
 40
2458060.468368056230247
  9
$TDUPDATE
 40
2459894.5269444449804723
  9
$TDINDWG
 40
0.534347338
  9
$TDUSRTIMER
 40
0.534347338
  9
$USRTIMER
 70
     1
  9
$ANGBASE
 50
0.0
  9
$ANGDIR
 70
     0
  9
$PDMODE
 70
     0
  9
$PDSIZE
 40
0.3125
  9
$PLINEWID
 40
0.0
  9
$COORDS
 70
     1
  9
$SPLFRAME
 70
     0
  9
$SPLINETYPE
 70
     6
  9
$SPLINESEGS
 70
     8
  9
$ATTDIA
 70
     1
  9
$ATTREQ
 70
     1
  9
$HANDLING
 70
     1
  9
$HANDSEED
  5
10D4F
  9
$SURFTAB1
 70
     6
  9
$SURFTAB2
 70
     6
  9
$SURFTYPE
 70
     6
  9
$SURFU
 70
     6
  9
$SURFV
 70
     6
  9
$UCSNAME
  2

  9
$UCSORG
 10
0.0
 20
0.0
 30
0.0
  9
$UCSXDIR
 10
1.0
 20
0.0
 30
0.0
  9
$UCSYDIR
 10
0.0
 20
1.0
 30
0.0
  9
$PUCSNAME
  2

  9
$PUCSORG
 10
0.0
 20
0.0
 30
0.0
  9
$PUCSXDIR
 10
1.0
 20
0.0
 30
0.0
  9
$PUCSYDIR
 10
0.0
 20
1.0
 30
0.0
  9
$USERI1
 70
     0
  9
$USERI2
 70
     0
  9
$USERI3
 70
     0
  9
$USERI4
 70
     0
  9
$USERI5
 70
     0
  9
$USERR1
 40
0.0
  9
$USERR2
 40
0.0
  9
$USERR3
 40
0.0
  9
$USERR4
 40
0.0
  9
$USERR5
 40
0.0
  9
$WORLDVIEW
 70
     1
  9
$SHADEDGE
 70
     3
  9
$SHADEDIF
 70
    70
  9
$TILEMODE
 70
     1
  9
$MAXACTVP
 70
    64
  9
$PLIMCHECK
 70
     0
  9
$PEXTMIN
 10
1.0000000000000000E+20
 20
1.0000000000000000E+20
 30
1.0000000000000000E+20
  9
$PEXTMAX
 10
-1.0000000000000000E+20
 20
-1.0000000000000000E+20
 30
-1.0000000000000000E+20
  9
$PLIMMIN
 10
0.0
 20
0.0
  9
$PLIMMAX
 10
12.0
 20
9.0
  9
$UNITMODE
 70
     0
  9
$VISRETAIN
 70
     1
  9
$PLINEGEN
 70
     0
  9
$PSLTSCALE
 70
     1
  0
ENDSEC
  0
SECTION
  2
TABLES
  0
TABLE
  2
VPORT
 70
     1
  0
VPORT
  2
*ACTIVE
 70
     0
 10
0.0
 20
0.0
 11
1.0
 21
1.0
 12
768.4634772529146858
 22
93.2711404819576018
 13
0.0
 23
0.0
 14
1.0
 24
1.0
 15
0.0
 25
0.0
 16
0.0
 26
0.0
 36
17.1152628219792007
 17
3803.5440673828129547
 27
125.9952621967499056
 37
0.0
 40
0.0078962987785141
 41
2.498684210526315
 42
50.0
 43
0.0
 44
0.0
 50
0.0
 51
0.0
 71
     0
 72
   100
 73
     1
 74
     1
 75
     0
 76
     0
 77
     0
 78
     0
  0
ENDTAB
  0
TABLE
  2
LTYPE
 70
     2
  0
LTYPE
  2
CONTINUOUS
 70
     0
  3
Solid line
 72
    65
 73
     0
 40
0.0
  0
LTYPE
  2
PHANTOM2
 70
     0
  3
___ _ _ ___ _ _ ___ _ _ ___ _ _
 72
    65
 73
     6
 40
1.25
 49
0.625
 49
-0.125
 49
0.125
 49
-0.125
 49
0.125
 49
-0.125
  0
ENDTAB
  0
TABLE
  2
LAYER
 70
     2
  0
LAYER
  2
0
 70
     0
 62
   255
  6
CONTINUOUS
  0
LAYER
  2
DEFPOINTS
 70
     0
 62
     7
  6
CONTINUOUS
  0
ENDTAB
  0
TABLE
  2
STYLE
 70
     1
  0
STYLE
  2
STANDARD
 70
     0
 40
0.0
 41
0.8
 50
0.0
 71
     0
 42
0.2
  3
txt
  4

  0
ENDTAB
  0
TABLE
  2
VIEW
 70
     0
  0
ENDTAB
  0
TABLE
  2
UCS
 70
     0
  0
ENDTAB
  0
TABLE
  2
APPID
 70
     9
  0
APPID
  2
ACAD
 70
     0
  0
APPID
  2
ACAD_MLEADERVER
 70
     0
  0
APPID
  2
ACAD_EXEMPT_FROM_CAD_STANDARDS
 70
     0
  0
APPID
  2
ACAD_NAV_VCDISPLAY
 70
     0
  0
APPID
  2
ACAECLAYERSTANDARD
 70
     0
  0
APPID
  2
ACCMTRANSPARENCY
 70
     0
  0
APPID
  2
ACAD_DSTYLE_DIMJAG
 70
     0
  0
APPID
  2
ACAD_DSTYLE_DIMTALN
 70
     0
  0
APPID
  2
ACDBATTR
 70
     0
  0
ENDTAB
  0
TABLE
  2
DIMSTYLE
 70
     1
  0
DIMSTYLE
  2
STANDARD
 70
     0
  3

  4

  5

  6

  7

 40
1.0
 41
0.1875
 42
0.0625
 43
0.38
 44
0.125
 45
0.0
 46
0.0
 47
0.01
 48
0.01
140
0.15625
141
0.09
142
0.0
143
25.3999999999999986
144
1.0
145
0.0
146
1.0
147
0.09
 71
     1
 72
     0
 73
     1
 74
     1
 75
     0
 76
     0
 77
     0
 78
     4
170
     0
171
     2
172
     0
173
     0
174
     0
175
     0
176
     0
177
     0
178
     0
  0
ENDTAB
  0
ENDSEC
  0
SECTION
  2
BLOCKS
  0
BLOCK
  8
0
  2
$MODEL_SPACE
 70
     0
 10
0.0
 20
0.0
 30
0.0
  3
$MODEL_SPACE
  1

  0
ENDBLK
  5
21
  8
0
  0
BLOCK
 67
     1
  8
0
  2
$PAPER_SPACE
 70
     0
 10
0.0
 20
0.0
 30
0.0
  3
$PAPER_SPACE
  1

  0
ENDBLK
  5
1D
 67
     1
  8
0
  0
BLOCK
  8
0
  2
_FILLED
 70
     0
 10
0.0
 20
0.0
 30
0.0
  3
_FILLED
  1

  0
SOLID
  5
109ED
  8
0
  6
BYBLOCK
 62
     0
 10
0.0
 20
0.0
 30
0.0
 11
-1.0
 21
0.1666666667
 31
0.0
 12
-1.0
 22
-0.1666666667
 32
0.0
 13
-1.0
 23
-0.1666666667
 33
0.0
  0
ENDBLK
  5
109EE
  8
0
  6
BYBLOCK
 62
     0
  0
ENDSEC
  0
SECTION
  2
ENTITIES
  0
ATTDEF
  5
3930
  8
DEFPOINTS
 10
4572.0039983549431781
 20
219.26699233155
 30
0.0
 40
0.001
  1
K-8861A-4
  3

  2
MODELNUMBER
 70
     0
1001
ACDBATTR
1070
     0
1070
     1
  0
ATTDEF
  5
3931
  8
DEFPOINTS
 10
4572.0039983549431781
 20
219.2653256648833064
 30
0.0
 40
0.001
  1
VITEO
  3

  2
TRADENAME
 70
     0
1001
ACDBATTR
1070
     0
1070
     1
  0
ATTDEF
  5
3932
  8
DEFPOINTS
 10
4572.0039983549431781
 20
219.2636589982166129
 30
0.0
 40
0.001
  1
VALVE TRIM
  3

  2
PRODUCT
 70
     0
1001
ACDBATTR
1070
     0
1070
     1
  0
LINE
  5
10BB4
  8
0
 10
4569.6912426484559546
 20
220.2001642690975132
 30
0.0
 11
4570.8332229515581275
 21
220.2001642690975132
 31
0.0
  0
LINE
  5
10BB5
  8
0
 10
4572.0035219835017415
 20
221.4881563950974055
 30
0.0
 11
4572.0035219835017415
 21
214.9527233241975068
 31
0.0
  0
LINE
  5
10BB6
  8
0
 10
4572.0035219835017415
 20
221.4881563950974055
 30
0.0
 11
4571.6233692336973036
 21
221.4548973390764957
 31
0.0
  0
ARC
  5
10BB7
  8
0
 10
4568.5050935810868395
 20
391.6036898608734873
 30
0.0
 40
171.4217676123546994
 50
270.9978340761959998
 51
270.9993223742991972
  0
ARC
  5
10BB8
  8
0
 10
4571.4917079286824446
 20
220.1291925943995977
 30
0.0
 40
0.0787369876354709
 50
90.9978340761960141
 51
177.3944126768917045
  0
ARC
  5
10BB9
  8
0
 10
4571.3343969151692363
 20
220.1363514179508059
 30
0.0
 40
0.0787368315441201
 50
273.4250595927309178
 51
357.3944126768917045
  0
ARC
  5
10BBA
  8
0
 10
4571.390834783612263
 20
219.1933608311560988
 30
0.0
 40
0.8659411452171198
 50
93.4250595927308467
 51
118.7451107065967051
  0
LINE
  5
10BBB
  8
0
 10
4569.6912028260012448
 20
220.2001642489728113
 30
0.0
 11
4569.6912028260012448
 21
215.8112683891889958
 31
0.0
  0
ARC
  5
10BBC
  8
0
 10
4577.7711494655932256
 20
219.1967162924046875
 30
0.0
 40
8.1766159044102977
 50
173.1959628683426899
 51
176.0734789605863
  0
ARC
  5
10BBD
  8
0
 10
4569.6912426484559546
 20
220.1607642690975126
 30
0.0
 40
0.0394
 50
90.0
 51
173.1959628683395067
  0
ARC
  5
10BBE
  8
0
 10
4576.3504897082821117
 20
219.2942278296713994
 30
0.0
 40
6.7526135708632884
 50
176.0734789605863
 51
178.8072154051405107
  0
ARC
  5
10BBF
  8
0
 10
4578.9946999101030087
 20
219.2391726592298085
 30
0.0
 40
9.3973968631596954
 50
178.8072154051405107
 51
179.8501708782324897
  0
LINE
  5
10BC0
  8
0
 10
4570.7830497285031015
 20
218.3273295948974919
 30
0.0
 11
4571.221625899497667
 21
218.3273295948974919
 31
0.0
  0
ARC
  5
10BC1
  8
0
 10
4571.4917079286824446
 20
218.3983012695954073
 30
0.0
 40
0.0787369876354709
 50
182.6055873231082955
 51
256.7305159605788845
  0
ARC
  5
10BC2
  8
0
 10
4571.3343969151692363
 20
218.391142446044114
 30
0.0
 40
0.0787368315441201
 50
2.6055873231083111
 51
86.5749404072691391
  0
ARC
  5
10BC3
  8
0
 10
4571.390834783612263
 20
219.3341330328387926
 30
0.0
 40
0.8659411452171198
 50
261.7983280729409898
 51
266.5749404072690822
  0
LINE
  5
10BC4
  8
0
 10
4571.2673015111022323
 20
218.372748515010187
 30
0.0
 11
4571.2673015111022323
 21
219.1526345415888102
 31
0.0
  0
ARC
  5
10BC5
  8
0
 10
4571.2215336949866469
 20
218.3730986574832968
 30
0.0
 40
0.0457691554615248
 50
270.1154256159783813
 51
359.5616724532238209
  0
ARC
  5
10BC6
  8
0
 10
4576.3504897082821117
 20
219.2332660343236057
 30
0.0
 40
6.7526135708632884
 50
181.1927845948594893
 51
183.9265210394137
  0
ARC
  5
10BC7
  8
0
 10
4578.9946999101030087
 20
219.2883212047651114
 30
0.0
 40
9.3973968631596954
 50
180.1498291217675103
 51
181.1927845948594893
  0
ARC
  5
10BC8
  8
0
 10
-225128.6124252883892041
 20
-107525.3123870327981422
 30
0.0
 40
253714.2926766077871434
 50
25.1297649893754382
 51
25.1299372209990395
  0
ARC
  5
10BC9
  8
0
 10
4570.8332229515581275
 20
220.1607642690960915
 30
0.0
 40
0.0394
 50
25.1299372372906795
 51
90.0
  0
ARC
  5
10BCA
  8
0
 10
4570.4799410726427595
 20
219.1526489389331118
 30
0.0
 40
0.7873604385893991
 50
359.9989523139245762
 51
25.1297649893754382
  0
LINE
  5
10BCB
  8
0
 10
4572.0035219835017415
 20
214.9527233241975068
 30
0.0
 11
4571.623370607416291
 21
214.985982260033694
 31
0.0
  0
ARC
  5
10BCC
  8
0
 10
4605.1079212274244128
 20
218.5997269861242955
 30
0.0
 40
33.622386776478443
 50
175.1593688787943108
 51
177.2656557522562082
  0
ARC
  5
10BCD
  8
0
 10
4571.6250862018296175
 20
221.4352723035241013
 30
0.0
 40
0.0197
 50
95.0000000007581349
 51
175.1593688787812937
  0
ARC
  5
10BCE
  8
0
 10
4399.3500423914920248
 20
222.2654949775808007
 30
0.0
 40
172.1861172908128879
 50
359.0012452130961833
 51
359.3139076883633152
  0
ARC
  5
10BCF
  8
0
 10
4544.6879750032276206
 20
219.8270950208739976
 30
0.0
 40
26.8279315954968709
 50
356.7832021119766068
 51
358.7976955823452272
  0
ARC
  5
10BD0
  8
0
 10
4603.7624581283989755
 20
218.028418012268105
 30
0.0
 40
32.2901544295060319
 50
179.4796516248449052
 51
182.6524972907594986
  0
ARC
  5
10BD1
  8
0
 10
4611.3713858107867054
 20
218.3335564532031015
 30
0.0
 40
39.9050791382286008
 50
182.5845600984542898
 51
184.7861995188588082
  0
ARC
  5
10BD2
  8
0
 10
4571.6250875755476955
 20
215.0056072955860884
 30
0.0
 40
0.0197
 50
184.7861995188100934
 51
264.9999999992418793
  0
LINE
  5
10BD3
  8
0
 10
4571.4903367547021844
 20
220.2079176418992006
 30
0.0
 11
4571.4903367547021844
 21
218.6560620427607091
 31
0.0
  0
LINE
  5
10BD4
  8
0
 10
4571.4947888794067694
 20
220.2079952435134942
 30
0.0
 11
4571.5240208321529281
 21
220.2079952435134942
 31
0.0
  0
ARC
  5
10BD5
  8
0
 10
3742.146572573143203
 20
221.2780837761318082
 30
0.0
 40
829.4787730667177357
 50
359.9634589150484771
 51
0.0122250729078872
  0
ARC
  5
10BD6
  8
0
 10
8540.5543789161529276
 20
218.2178400279076982
 30
0.0
 40
3968.9300091302870896
 50
179.9634589150485056
 51
180.0366014587351913
  0
ARC
  5
10BD7
  8
0
 10
4600.2617649312760477
 20
215.3400966068512901
 30
0.0
 40
28.6386313689881611
 50
179.3151068801643078
 51
180.7088178281188959
  0
ARC
  5
10BD8
  8
0
 10
4514.8629115731919228
 20
217.1007286850766036
 30
0.0
 40
54.7762823619283878
 50
359.5502825468498145
 51
1.7472286955198499
  0
ARC
  5
10BD9
  8
0
 10
4471.6314148935916819
 20
216.3306817807971072
 30
0.0
 40
98.0066818703242859
 50
359.801640892723924
 51
0.1988321523003332
  0
ARC
  5
10BDA
  8
0
 10
4570.62983321480624
 20
216.0055025990452862
 30
0.0
 40
0.9924242538628812
 50
180.8152881086182902
 51
189.3385219531039922
  0
ARC
  5
10BDB
  8
0
 10
4569.6896201891040619
 20
215.8508876503605904
 30
0.0
 40
0.0395830729437365
 50
189.3385219531039922
 51
267.3517521892632089
  0
ARC
  5
10BDC
  8
0
 10
4569.8384378961845869
 20
221.2009743112542139
 30
0.0
 40
5.3917324262540403
 50
268.3989304837735972
 51
272.0700865160634976
  0
ARC
  5
10BDD
  8
0
 10
4569.9649381876615735
 20
217.0661452745654003
 30
0.0
 40
1.2552420294133659
 50
273.1172648105771827
 51
279.4958225655352066
  0
ARC
  5
10BDE
  8
0
 10
4570.1315060744100265
 20
216.0703288180610002
 30
0.0
 40
0.2455909629845773
 50
279.4958225655352066
 51
302.1956453963940135
  0
ARC
  5
10BDF
  8
0
 10
4570.23790342333632
 20
215.9013442141470023
 30
0.0
 40
0.0459007223155643
 50
302.1956453963940135
 51
333.276790085894504
  0
ARC
  5
10BE0
  8
0
 10
4570.1418529296115594
 20
215.9497013410235979
 30
0.0
 40
0.1534372698910751
 50
333.276790085894504
 51
358.5398613325533006
  0
ARC
  5
10BE1
  8
0
 10
4568.0653179397013446
 20
216.00263168962789
 30
0.0
 40
2.2306467408231292
 50
358.5398613325533006
 51
359.711027094987287
  0
ARC
  5
10BE2
  8
0
 10
4378.3851641570181528
 20
216.9592970895988913
 30
0.0
 40
191.9132130132923066
 50
359.711027094987287
 51
0.2837708597232658
  0
ARC
  5
10BE3
  8
0
 10
4570.8385189163864197
 20
217.9124755077511963
 30
0.0
 40
0.5425021713495823
 50
149.3314522929233874
 51
180.2837708597232051
  0
ARC
  5
10BE4
  8
0
 10
4570.727442534272086
 20
217.9783453925292918
 30
0.0
 40
0.4133634692333973
 50
130.3588475266708997
 51
149.3314522929233874
  0
ARC
  5
10BE5
  8
0
 10
4570.569676486957178
 20
218.1639898580403099
 30
0.0
 40
0.1697367193472795
 50
89.1405912466410371
 51
130.3588475266708997
  0
ARC
  5
10BE6
  8
0
 10
4570.6516011535240978
 20
217.4699096899068991
 30
0.0
 40
0.8674373875608202
 50
81.2840105379085429
 51
95.2504556185413236
  0
LINE
  5
10BE7
  8
0
 10
4570.7744578954570898
 20
218.328602791253104
 30
0.0
 11
4570.7692699978024393
 21
218.3233926264975082
 31
0.0
  0
LINE
  5
10BE8
  8
0
 10
4570.7692699978024393
 20
218.3233926264975082
 30
0.0
 11
4570.5113557247641438
 21
218.3233926264975082
 31
0.0
  0
ARC
  5
10BE9
  8
0
 10
4569.6333228216326461
 20
219.2053153149460059
 30
0.0
 40
0.0006223452783856
 50
237.9574250008465128
 51
306.1791716615857126
  0
ARC
  5
10BEA
  8
0
 10
4569.6325454936131791
 20
219.2063782095067097
 30
0.0
 40
0.0019391534259328
 50
306.1791716615866221
 51
332.9541774166635832
  0
ARC
  5
10BEB
  8
0
 10
4569.6230658732965821
 20
219.2112178708248962
 30
0.0
 40
0.0125827206388823
 50
332.9541774166635832
 51
341.184357195215398
  0
ARC
  5
10BEC
  8
0
 10
4569.6108131302089532
 20
219.2153927780667004
 30
0.0
 40
0.0255272006845793
 50
341.184357195215398
 51
352.5235072753170016
  0
ARC
  5
10BED
  8
0
 10
4569.490713599368064
 20
219.2361455550363019
 30
0.0
 40
0.1473891378762828
 50
350.5992558585988945
 51
355.2197441807123255
  0
ARC
  5
10BEE
  8
0
 10
4569.2300511777921201
 20
219.2581076046541
 30
0.0
 40
0.4089751084697975
 50
355.1968386067122196
 51
358.7387345917098855
  0
ARC
  5
10BEF
  8
0
 10
4569.1515760106231028
 20
219.2656417054892017
 30
0.0
 40
0.4876316521424415
 50
358.0566512433633193
 51
359.7780959457900849
  0
ARC
  5
10BF0
  8
0
 10
4569.6333228216326461
 20
219.3221909532489065
 30
0.0
 40
0.0006223452783856
 50
53.8208283384143087
 51
122.0425749991534019
  0
ARC
  5
10BF1
  8
0
 10
4569.6325454936131791
 20
219.3211280586882879
 30
0.0
 40
0.0019391534259328
 50
27.0458225833364097
 51
53.8208283384133566
  0
ARC
  5
10BF2
  8
0
 10
4569.6230658732965821
 20
219.3162883973699877
 30
0.0
 40
0.0125827206388823
 50
18.8156428047845914
 51
27.0458225833364097
  0
ARC
  5
10BF3
  8
0
 10
4569.6108131302089532
 20
219.3121134901282119
 30
0.0
 40
0.0255272006845793
 50
7.4764927246830073
 51
18.8156428047845914
  0
ARC
  5
10BF4
  8
0
 10
4569.490713599368064
 20
219.2913607131586957
 30
0.0
 40
0.1473891378762828
 50
4.7802558192876372
 51
9.4007441414011854
  0
ARC
  5
10BF5
  8
0
 10
4569.2300511777921201
 20
219.2693986635408123
 30
0.0
 40
0.4089751084697975
 50
1.2612654082900909
 51
4.8031613932878114
  0
ARC
  5
10BF6
  8
0
 10
4569.1515760106231028
 20
219.2618645627057106
 30
0.0
 40
0.4876316521424415
 50
0.2219040542082837
 51
1.943348756636716
  0
ARC
  5
10BF7
  8
0
 10
4569.6340855507196466
 20
219.2063684586541115
 30
0.0
 40
0.0019217183350101
 50
206.984810835670487
 51
235.3391918862305943
  0
ARC
  5
10BF8
  8
0
 10
4569.64357976996871
 20
219.2112178708248962
 30
0.0
 40
0.0125827206388823
 50
198.815642804784602
 51
207.0458225833363883
  0
ARC
  5
10BF9
  8
0
 10
4569.6558325130572484
 20
219.2153927780667004
 30
0.0
 40
0.0255272006845793
 50
187.4764927246829984
 51
198.815642804784602
  0
ARC
  5
10BFA
  8
0
 10
4569.7759320438981376
 20
219.2361455550363019
 30
0.0
 40
0.1473891378762828
 50
184.7802558192875892
 51
189.4007441414011055
  0
ARC
  5
10BFB
  8
0
 10
4570.036594465474991
 20
219.2581076046541
 30
0.0
 40
0.4089751084697975
 50
181.261265408290086
 51
184.8031613932878088
  0
ARC
  5
10BFC
  8
0
 10
4570.1150696326430989
 20
219.2656417054892017
 30
0.0
 40
0.4876316521424415
 50
180.2219040542082951
 51
181.9433487566367091
  0
ARC
  5
10BFD
  8
0
 10
4569.6340855507196466
 20
219.3211378095408008
 30
0.0
 40
0.0019217183350116
 50
124.6608081138335962
 51
153.0151891643585031
  0
ARC
  5
10BFE
  8
0
 10
4569.64357976996871
 20
219.3162883973699877
 30
0.0
 40
0.0125827206388823
 50
152.9541774166636117
 51
161.184357195215398
  0
ARC
  5
10BFF
  8
0
 10
4569.6558325130572484
 20
219.3121134901282119
 30
0.0
 40
0.0255272006845793
 50
161.184357195215398
 51
172.5235072753170016
  0
ARC
  5
10C00
  8
0
 10
4569.7759320438981376
 20
219.2913607131586957
 30
0.0
 40
0.1473891378762828
 50
170.5992558585988093
 51
175.2197441807124108
  0
ARC
  5
10C01
  8
0
 10
4570.036594465474991
 20
219.2693986635408123
 30
0.0
 40
0.4089751084697975
 50
175.1968386067121912
 51
178.738734591709914
  0
ARC
  5
10C02
  8
0
 10
4570.1150696326430989
 20
219.2618645627057106
 30
0.0
 40
0.4876316521424415
 50
178.0566512433632909
 51
179.7780959457901133
  0
LINE
  5
10C04
  8
0
 10
4571.4130523439598619
 20
220.1327720097231975
 30
0.0
 11
4571.4130523439598619
 21
218.3947218542718076
 31
0.0
  0
ENDSEC
  0
EOF
