  0
SECTION
  2
HEADER
  9
$ACADVER
  1
AC1009
  9
$INSBASE
 10
4575.5252608406690342
 20
218.8451148523870984
 30
0.0
  9
$EXTMIN
 10
4573.3008513775694155
 20
214.5340852931369966
 30
0.0
  9
$EXTMAX
 10
4577.749670303768653
 20
221.0695183640370942
 30
0.0
  9
$LIMMIN
 10
0.0
 20
0.0
  9
$LIMMAX
 10
11.6929133858000007
 20
8.2677165353999982
  9
$ORTHOMODE
 70
     0
  9
$REGENMODE
 70
     1
  9
$FILLMODE
 70
     1
  9
$QTEXTMODE
 70
     0
  9
$MIRRTEXT
 70
     0
  9
$DRAGMODE
 70
     2
  9
$LTSCALE
 40
0.6431102362
  9
$OSMODE
 70
  4095
  9
$ATTMODE
 70
     1
  9
$TEXTSIZE
 40
0.2
  9
$TRACEWID
 40
0.05
  9
$TEXTSTYLE
  7
STANDARD
  9
$CLAYER
  8
0
  9
$CELTYPE
  6
BYLAYER
  9
$CECOLOR
 62
   256
  9
$DIMSCALE
 40
1.0
  9
$DIMASZ
 40
0.1875
  9
$DIMEXO
 40
0.0625
  9
$DIMDLI
 40
0.4443307087
  9
$DIMRND
 40
0.0
  9
$DIMDLE
 40
0.0
  9
$DIMEXE
 40
0.125
  9
$DIMTP
 40
0.01
  9
$DIMTM
 40
0.01
  9
$DIMTXT
 40
2.0
  9
$DIMCEN
 40
0.1052362205
  9
$DIMTSZ
 40
0.0
  9
$DIMTOL
 70
     1
  9
$DIMLIM
 70
     0
  9
$DIMTIH
 70
     1
  9
$DIMTOH
 70
     1
  9
$DIMSE1
 70
     0
  9
$DIMSE2
 70
     0
  9
$DIMTAD
 70
     0
  9
$DIMZIN
 70
     0
  9
$DIMBLK
  1

  9
$DIMASO
 70
     1
  9
$DIMSHO
 70
     1
  9
$DIMPOST
  1
\X
  9
$DIMAPOST
  1

  9
$DIMALT
 70
     1
  9
$DIMALTD
 70
     2
  9
$DIMALTF
 40
25.3999999999999986
  9
$DIMLFAC
 40
1.0
  9
$DIMTOFL
 70
     0
  9
$DIMTVP
 40
0.0
  9
$DIMTIX
 70
     0
  9
$DIMSOXD
 70
     0
  9
$DIMSAH
 70
     0
  9
$DIMBLK1
  1

  9
$DIMBLK2
  1

  9
$DIMSTYLE
  2
STANDARD
  9
$DIMCLRD
 70
     0
  9
$DIMCLRE
 70
     0
  9
$DIMCLRT
 70
     0
  9
$DIMTFAC
 40
1.0
  9
$DIMGAP
 40
0.09
  9
$LUNITS
 70
     2
  9
$LUPREC
 70
     4
  9
$SKETCHINC
 40
0.1
  9
$FILLETRAD
 40
0.0
  9
$AUNITS
 70
     0
  9
$AUPREC
 70
     0
  9
$MENU
  1
.
  9
$ELEVATION
 40
0.0
  9
$PELEVATION
 40
0.0
  9
$THICKNESS
 40
0.0
  9
$LIMCHECK
 70
     0
  9
$BLIPMODE
 70
     0
  9
$CHAMFERA
 40
0.0
  9
$CHAMFERB
 40
0.0
  9
$SKPOLY
 70
     0
  9
$TDCREATE
 40
2458060.468368056230247
  9
$TDUPDATE
 40
2459894.5268287039361894
  9
$TDINDWG
 40
0.5344052083
  9
$TDUSRTIMER
 40
0.5344052083
  9
$USRTIMER
 70
     1
  9
$ANGBASE
 50
0.0
  9
$ANGDIR
 70
     0
  9
$PDMODE
 70
     0
  9
$PDSIZE
 40
0.3125
  9
$PLINEWID
 40
0.0
  9
$COORDS
 70
     1
  9
$SPLFRAME
 70
     0
  9
$SPLINETYPE
 70
     6
  9
$SPLINESEGS
 70
     8
  9
$ATTDIA
 70
     1
  9
$ATTREQ
 70
     1
  9
$HANDLING
 70
     1
  9
$HANDSEED
  5
10B59
  9
$SURFTAB1
 70
     6
  9
$SURFTAB2
 70
     6
  9
$SURFTYPE
 70
     6
  9
$SURFU
 70
     6
  9
$SURFV
 70
     6
  9
$UCSNAME
  2

  9
$UCSORG
 10
0.0
 20
0.0
 30
0.0
  9
$UCSXDIR
 10
1.0
 20
0.0
 30
0.0
  9
$UCSYDIR
 10
0.0
 20
1.0
 30
0.0
  9
$PUCSNAME
  2

  9
$PUCSORG
 10
0.0
 20
0.0
 30
0.0
  9
$PUCSXDIR
 10
1.0
 20
0.0
 30
0.0
  9
$PUCSYDIR
 10
0.0
 20
1.0
 30
0.0
  9
$USERI1
 70
     0
  9
$USERI2
 70
     0
  9
$USERI3
 70
     0
  9
$USERI4
 70
     0
  9
$USERI5
 70
     0
  9
$USERR1
 40
0.0
  9
$USERR2
 40
0.0
  9
$USERR3
 40
0.0
  9
$USERR4
 40
0.0
  9
$USERR5
 40
0.0
  9
$WORLDVIEW
 70
     1
  9
$SHADEDGE
 70
     3
  9
$SHADEDIF
 70
    70
  9
$TILEMODE
 70
     1
  9
$MAXACTVP
 70
    64
  9
$PLIMCHECK
 70
     0
  9
$PEXTMIN
 10
1.0000000000000000E+20
 20
1.0000000000000000E+20
 30
1.0000000000000000E+20
  9
$PEXTMAX
 10
-1.0000000000000000E+20
 20
-1.0000000000000000E+20
 30
-1.0000000000000000E+20
  9
$PLIMMIN
 10
0.0
 20
0.0
  9
$PLIMMAX
 10
12.0
 20
9.0
  9
$UNITMODE
 70
     0
  9
$VISRETAIN
 70
     1
  9
$PLINEGEN
 70
     0
  9
$PSLTSCALE
 70
     1
  0
ENDSEC
  0
SECTION
  2
TABLES
  0
TABLE
  2
VPORT
 70
     1
  0
VPORT
  2
*ACTIVE
 70
     0
 10
0.0
 20
0.0
 11
1.0
 21
1.0
 12
771.9879167689571204
 22
92.8485094287522514
 13
0.0
 23
0.0
 14
1.0
 24
1.0
 15
0.0
 25
0.0
 16
0.0
 26
0.0
 36
17.1152628219792007
 17
3803.5440673828129547
 27
125.9952621967499056
 37
0.0
 40
0.0170643845092078
 41
2.498684210526315
 42
50.0
 43
0.0
 44
0.0
 50
0.0
 51
0.0
 71
     0
 72
   100
 73
     1
 74
     1
 75
     0
 76
     0
 77
     0
 78
     0
  0
ENDTAB
  0
TABLE
  2
LTYPE
 70
     2
  0
LTYPE
  2
CONTINUOUS
 70
     0
  3
Solid line
 72
    65
 73
     0
 40
0.0
  0
LTYPE
  2
PHANTOM2
 70
     0
  3
___ _ _ ___ _ _ ___ _ _ ___ _ _
 72
    65
 73
     6
 40
1.25
 49
0.625
 49
-0.125
 49
0.125
 49
-0.125
 49
0.125
 49
-0.125
  0
ENDTAB
  0
TABLE
  2
LAYER
 70
     2
  0
LAYER
  2
0
 70
     0
 62
   255
  6
CONTINUOUS
  0
LAYER
  2
DEFPOINTS
 70
     0
 62
     7
  6
CONTINUOUS
  0
ENDTAB
  0
TABLE
  2
STYLE
 70
     1
  0
STYLE
  2
STANDARD
 70
     0
 40
0.0
 41
0.8
 50
0.0
 71
     0
 42
0.2
  3
txt
  4

  0
ENDTAB
  0
TABLE
  2
VIEW
 70
     0
  0
ENDTAB
  0
TABLE
  2
UCS
 70
     0
  0
ENDTAB
  0
TABLE
  2
APPID
 70
     9
  0
APPID
  2
ACAD
 70
     0
  0
APPID
  2
ACAD_MLEADERVER
 70
     0
  0
APPID
  2
ACAD_EXEMPT_FROM_CAD_STANDARDS
 70
     0
  0
APPID
  2
ACAD_NAV_VCDISPLAY
 70
     0
  0
APPID
  2
ACAECLAYERSTANDARD
 70
     0
  0
APPID
  2
ACCMTRANSPARENCY
 70
     0
  0
APPID
  2
ACAD_DSTYLE_DIMJAG
 70
     0
  0
APPID
  2
ACAD_DSTYLE_DIMTALN
 70
     0
  0
APPID
  2
ACDBATTR
 70
     0
  0
ENDTAB
  0
TABLE
  2
DIMSTYLE
 70
     1
  0
DIMSTYLE
  2
STANDARD
 70
     0
  3

  4

  5

  6

  7

 40
1.0
 41
0.1875
 42
0.0625
 43
0.38
 44
0.125
 45
0.0
 46
0.0
 47
0.01
 48
0.01
140
0.15625
141
0.09
142
0.0
143
25.3999999999999986
144
1.0
145
0.0
146
1.0
147
0.09
 71
     1
 72
     0
 73
     1
 74
     1
 75
     0
 76
     0
 77
     0
 78
     4
170
     0
171
     2
172
     0
173
     0
174
     0
175
     0
176
     0
177
     0
178
     0
  0
ENDTAB
  0
ENDSEC
  0
SECTION
  2
BLOCKS
  0
BLOCK
  8
0
  2
$MODEL_SPACE
 70
     0
 10
0.0
 20
0.0
 30
0.0
  3
$MODEL_SPACE
  1

  0
ENDBLK
  5
21
  8
0
  0
BLOCK
 67
     1
  8
0
  2
$PAPER_SPACE
 70
     0
 10
0.0
 20
0.0
 30
0.0
  3
$PAPER_SPACE
  1

  0
ENDBLK
  5
1D
 67
     1
  8
0
  0
BLOCK
  8
0
  2
_FILLED
 70
     0
 10
0.0
 20
0.0
 30
0.0
  3
_FILLED
  1

  0
SOLID
  5
10945
  8
0
  6
BYBLOCK
 62
     0
 10
0.0
 20
0.0
 30
0.0
 11
-1.0
 21
0.1666666667
 31
0.0
 12
-1.0
 22
-0.1666666667
 32
0.0
 13
-1.0
 23
-0.1666666667
 33
0.0
  0
ENDBLK
  5
10946
  8
0
  6
BYBLOCK
 62
     0
  0
BLOCK
  8
0
  2
A$CE99B2ECE
 70
     0
 10
0.0
 20
0.0
 30
0.0
  3
A$CE99B2ECE
  1

  0
LINE
  5
109CC
  8
0
 10
25.049098654933001
 20
9.8349047224496466
 30
0.0
 11
26.03224175844095
 21
9.8349047224496466
 31
0.0
  0
LINE
  5
109CD
  8
0
 10
26.3901723751798905
 20
9.8349047224496466
 30
0.0
 11
26.7408658329693587
 21
9.8349047224496466
 31
0.0
  0
LINE
  5
109CE
  8
0
 10
27.0987964497082991
 20
9.8349047224496466
 30
0.0
 11
28.0907175811329992
 21
9.8349047224496466
 31
0.0
  0
LINE
  5
109CF
  8
0
 10
25.049098654933001
 20
16.3703377933496483
 30
0.0
 11
28.0907175811329992
 21
16.3703377933496483
 31
0.0
  0
LINE
  5
109D0
  8
0
 10
24.3454986549329995
 20
15.6667377933496503
 30
0.0
 11
24.3454986549329995
 21
10.53850472244965
 31
0.0
  0
ARC
  5
109D1
  8
0
 10
25.049098654933001
 20
15.6667377933496503
 30
0.0
 40
0.7036
 50
90.0
 51
179.9999999999998863
  0
ARC
  5
109D2
  8
0
 10
25.049098654933001
 20
10.5385047224496393
 30
0.0
 40
0.7036
 50
180.0
 51
270.0
  0
LINE
  5
109D3
  8
0
 10
25.0842169771329999
 20
16.3372492120511694
 30
0.0
 11
28.0555992589330003
 21
16.3372492120511694
 31
0.0
  0
LINE
  5
109D4
  8
0
 10
28.3025280089776388
 20
16.3372492120511694
 30
0.0
 11
28.3039484358207396
 21
16.3372492120511694
 31
0.0
  0
LINE
  5
109D5
  8
0
 10
24.3786169771329995
 20
10.5735927339842206
 30
0.0
 11
24.3786169771329995
 21
15.6316492120511707
 31
0.0
  0
LINE
  5
109D6
  8
0
 10
25.0843710919571592
 20
9.8679927508148442
 30
0.0
 11
28.0860095845885915
 21
9.8686483588073415
 31
0.0
  0
LINE
  5
109D7
  8
0
 10
28.3047331126401716
 20
9.8686961316798882
 30
0.0
 11
28.3061469788966491
 21
9.8686964404918989
 31
0.0
  0
ARC
  5
109D8
  8
0
 10
25.0842169771329999
 20
10.5735927339842206
 30
0.0
 40
0.7056
 50
180.0
 51
270.0125143552361919
  0
ARC
  5
109D9
  8
0
 10
25.0842169771329999
 20
15.6316492120511707
 30
0.0
 40
0.7056
 50
90.0
 51
180.0
  0
ARC
  5
109DA
  8
0
 10
26.569907849833001
 20
14.1459257280496509
 30
0.0
 40
0.9364170689022632
 50
304.6101803662215843
 51
235.3901537758200107
  0
ARC
  5
109DB
  8
0
 10
26.5699081180329983
 20
14.1459257280496509
 30
0.0
 40
1.014792470480951
 50
286.9032052929317729
 51
253.0967947070681987
  0
ARC
  5
109DC
  8
0
 10
26.5699081180329983
 20
14.1459342816996507
 30
0.0
 40
0.9940945025199077
 50
288.8572977891686264
 51
251.142702210831402
  0
ARC
  5
109DD
  8
0
 10
26.5699081180329983
 20
14.1459342816996507
 30
0.0
 40
0.9547244237184614
 50
296.4528893196937247
 51
243.5471106803061048
  0
LINE
  5
109DE
  8
0
 10
26.3508411040330017
 20
12.8610650985496502
 30
0.0
 11
26.3860507936830189
 21
10.8709451271827309
 31
0.0
  0
ARC
  5
109DF
  8
0
 10
12.4603788058466805
 20
-3.9513623656633619
 30
0.0
 40
22.0127960590086502
 50
51.3133002108991434
 51
51.9166247983390079
  0
ARC
  5
109E0
  8
0
 10
26.0154843933488387
 20
12.9762264688051694
 30
0.0
 40
0.3267602009465274
 50
18.7274470855826607
 51
51.3133002108989089
  0
ARC
  5
109E1
  8
0
 10
25.8918976141774699
 20
12.9406174210699891
 30
0.0
 40
0.4552757113279215
 50
5.1567135452834716
 51
17.9778948572441593
  0
ARC
  5
109E2
  8
0
 10
24.4187384110942993
 20
12.83305220911876
 30
0.0
 40
1.932305756870595
 50
0.8306535113809097
 51
4.4071627618333711
  0
ARC
  5
109E3
  8
0
 10
26.5699495857329993
 20
10.8774544922496403
 30
0.0
 40
0.1840139602068694
 50
182.0272210447623138
 51
269.9870883480061252
  0
ARC
  5
109E4
  8
0
 10
26.569865634467309
 20
10.8533973857638202
 30
0.0
 40
0.1619890633362302
 50
244.2955858582660085
 51
270.0150265023501106
  0
LINE
  5
109E5
  8
0
 10
28.7943175811330008
 20
15.6667377933496503
 30
0.0
 11
28.7943175811330008
 21
10.53850472244965
 31
0.0
  0
ARC
  5
109E6
  8
0
 10
28.0907175811329992
 20
15.6667377933496503
 30
0.0
 40
0.7036
 50
0.0000000000001018
 51
90.0
  0
ARC
  5
109E7
  8
0
 10
28.0907175811329992
 20
10.5385047224496393
 30
0.0
 40
0.7036
 50
270.0
 51
0.0
  0
LINE
  5
109E8
  8
0
 10
28.7611992589330008
 20
10.5735927339842206
 30
0.0
 11
28.7611992589330008
 21
15.6316492120511707
 31
0.0
  0
ARC
  5
109E9
  8
0
 10
28.0555992589330003
 20
10.5735927339842206
 30
0.0
 40
0.7056
 50
272.4701292136343227
 51
359.9999999999998863
  0
ARC
  5
109EA
  8
0
 10
28.0555992589330003
 20
15.6316492120511707
 30
0.0
 40
0.7056
 50
0.0
 51
90.0
  0
LINE
  5
109EB
  8
0
 10
26.7889751320329985
 20
12.8610650985496502
 30
0.0
 11
26.7537654423829814
 21
10.8709451271827309
 31
0.0
  0
ARC
  5
109EC
  8
0
 10
40.6794374302193091
 20
-3.9513623656633619
 30
0.0
 40
22.0127960590086502
 50
128.083362112419195
 51
128.6866997891007998
  0
ARC
  5
109ED
  8
0
 10
27.1243318427171616
 20
12.9762264688051694
 30
0.0
 40
0.3267602009465274
 50
128.6866997891009987
 51
161.2725529144173038
  0
ARC
  5
109EE
  8
0
 10
27.2479186218885303
 20
12.9406174210699891
 30
0.0
 40
0.4552757113279215
 50
162.0221051427558905
 51
174.8432864547164911
  0
ARC
  5
109EF
  8
0
 10
28.7210778249717009
 20
12.83305220911876
 30
0.0
 40
1.932305756870595
 50
175.5928372381665952
 51
179.1693464886191123
  0
ARC
  5
109F0
  8
0
 10
26.569866650333001
 20
10.8774544922496403
 30
0.0
 40
0.1840139602068694
 50
270.0129116519938748
 51
357.9727789552375725
  0
ARC
  5
109F1
  8
0
 10
26.5699506015986984
 20
10.8533973857638202
 30
0.0
 40
0.1619890633362302
 50
269.9849734976498894
 51
295.7044141417338778
  0
CIRCLE
  5
109F2
  8
0
 10
27.2982547138329998
 20
14.1459287855496392
 30
0.0
 40
0.0590659112298426
  0
CIRCLE
  5
109F3
  8
0
 10
25.8415615222330004
 20
14.1459287855496392
 30
0.0
 40
0.0590659112298426
  0
LINE
  5
109F4
  8
0
 10
26.5699081180329983
 20
14.1459342816996507
 30
0.0
 11
33.5090931466844069
 21
4.5503069786427233
 31
0.0
  0
LINE
  5
109F5
  8
0
 10
26.3426906889623602
 20
9.8452380291496482
 30
0.0
 11
26.0797234446584802
 21
9.8452380291496482
 31
0.0
  0
LINE
  5
109F6
  8
0
 10
26.7883475191868783
 20
9.8452380291496482
 30
0.0
 11
27.0513147634907902
 21
9.8452380291496482
 31
0.0
  0
ARC
  5
109F7
  8
0
 10
26.0591721107031908
 20
9.6766427480943875
 30
0.0
 40
0.1605369004303796
 50
94.8194497881111857
 51
99.6571289702465748
  0
ARC
  5
109F8
  8
0
 10
26.0443357405949492
 20
9.8526079819325822
 30
0.0
 40
0.016052684193741
 50
274.8194497881108873
 51
293.036375405030185
  0
ARC
  5
109F9
  8
0
 10
25.9583589276796189
 20
9.9358391096951113
 30
0.0
 40
0.1345970091568422
 50
313.2703972281523761
 51
315.5779162073168891
  0
ARC
  5
109FA
  8
0
 10
26.0567783949611993
 20
9.8398460041378986
 30
0.0
 40
0.0029024619751115
 50
104.0515925564613013
 51
142.0871306929122966
  0
ARC
  5
109FB
  8
0
 10
26.0867042012683115
 20
9.6713265681645044
 30
0.0
 40
0.1740515073902909
 50
92.2986023331390726
 51
100.1360030074761056
  0
ARC
  5
109FC
  8
0
 10
26.363242022917639
 20
9.6766427480943875
 30
0.0
 40
0.1605369004303796
 50
80.3428710297534394
 51
85.1805502118888143
  0
ARC
  5
109FD
  8
0
 10
26.3780783930258913
 20
9.8526079819325822
 30
0.0
 40
0.016052684193741
 50
246.9636245949697013
 51
265.180550211888999
  0
ARC
  5
109FE
  8
0
 10
26.4640552059412215
 20
9.9358391096951113
 30
0.0
 40
0.1345970091568422
 50
224.4220837926831109
 51
226.7296027718475955
  0
ARC
  5
109FF
  8
0
 10
26.3656357386596305
 20
9.8398460041378986
 30
0.0
 40
0.0029024619751115
 50
37.9128693070876892
 51
75.9484074435387271
  0
ARC
  5
10A00
  8
0
 10
26.3357099323525183
 20
9.6713265681645044
 30
0.0
 40
0.1740515073902909
 50
79.8639969925239086
 51
87.7013976668609416
  0
ARC
  5
10A01
  8
0
 10
26.7677961852316102
 20
9.6766427480943875
 30
0.0
 40
0.1605369004303796
 50
94.8194497881111857
 51
99.6571289702465748
  0
ARC
  5
10A02
  8
0
 10
26.7529598151233614
 20
9.8526079819325822
 30
0.0
 40
0.016052684193741
 50
274.8194497881108873
 51
293.036375405030185
  0
ARC
  5
10A03
  8
0
 10
26.6669830022080312
 20
9.9358391096951131
 30
0.0
 40
0.1345970091568422
 50
313.2703972281523761
 51
315.5779162073168891
  0
ARC
  5
10A04
  8
0
 10
26.7654024694896187
 20
9.8398460041378986
 30
0.0
 40
0.0029024619751115
 50
104.0515925564613013
 51
142.0871306929122966
  0
ARC
  5
10A05
  8
0
 10
26.7953282757967308
 20
9.6713265681645062
 30
0.0
 40
0.1740515073902909
 50
92.2986023331390726
 51
100.1360030074761056
  0
ARC
  5
10A06
  8
0
 10
27.0718660974460583
 20
9.6766427480943875
 30
0.0
 40
0.1605369004303796
 50
80.3428710297534394
 51
85.1805502118888143
  0
ARC
  5
10A07
  8
0
 10
27.0867024675543
 20
9.8526079819325822
 30
0.0
 40
0.016052684193741
 50
246.9636245949697013
 51
265.180550211888999
  0
ARC
  5
10A08
  8
0
 10
27.1726792804696302
 20
9.9358391096951131
 30
0.0
 40
0.1345970091568422
 50
224.4220837926831109
 51
226.7296027718475102
  0
ARC
  5
10A09
  8
0
 10
27.0742598131880499
 20
9.8398460041378986
 30
0.0
 40
0.0029024619751115
 50
37.9128693070876892
 51
75.9484074435387271
  0
ARC
  5
10A0A
  8
0
 10
27.0443340068809412
 20
9.6713265681645062
 30
0.0
 40
0.1740515073902909
 50
79.8639969925239086
 51
87.7013976668609416
  0
ENDBLK
  5
10A0E
  8
0
  0
ENDSEC
  0
SECTION
  2
ENTITIES
  0
ATTDEF
  5
3930
  8
DEFPOINTS
 10
4575.5235322241287577
 20
218.8494840322586015
 30
0.0
 40
0.001
  1
K-8861A-4
  3

  2
MODELNUMBER
 70
     0
1001
ACDBATTR
1070
     0
1070
     1
  0
ATTDEF
  5
3931
  8
DEFPOINTS
 10
4575.5235322241287577
 20
218.8478173655919079
 30
0.0
 40
0.001
  1
VITEO
  3

  2
TRADENAME
 70
     0
1001
ACDBATTR
1070
     0
1070
     1
  0
ATTDEF
  5
3932
  8
DEFPOINTS
 10
4575.5235322241287577
 20
218.8461506989252996
 30
0.0
 40
0.001
  1
VALVE TRIM
  3

  2
PRODUCT
 70
     0
1001
ACDBATTR
1070
     0
1070
     1
  0
LINE
  5
1098C
  8
0
 10
4574.0044513775692394
 20
214.5340852931371103
 30
0.0
 11
4574.9875944810773944
 21
214.5340852931371103
 31
0.0
  0
LINE
  5
1098D
  8
0
 10
4575.3455250978149706
 20
214.5340852931371103
 30
0.0
 11
4575.6962185556049008
 21
214.5340852931371103
 31
0.0
  0
LINE
  5
1098E
  8
0
 10
4576.0541491723442959
 20
214.5340852931371103
 30
0.0
 11
4577.046070303768829
 21
214.5340852931371103
 31
0.0
  0
LINE
  5
1098F
  8
0
 10
4574.0044513775692394
 20
221.0695183640370942
 30
0.0
 11
4577.046070303768829
 21
221.0695183640370942
 31
0.0
  0
LINE
  5
10990
  8
0
 10
4573.3008513775694155
 20
220.3659183640370998
 30
0.0
 11
4573.3008513775694155
 21
215.23768529313719
 31
0.0
  0
ARC
  5
10991
  8
0
 10
4574.0044513775692394
 20
220.3659183640370998
 30
0.0
 40
0.7036
 50
90.0
 51
180.0
  0
ARC
  5
10992
  8
0
 10
4574.0044513775692394
 20
215.23768529313719
 30
0.0
 40
0.7036
 50
180.0
 51
270.0
  0
LINE
  5
10993
  8
0
 10
4574.0395696997693449
 20
221.036429782738594
 30
0.0
 11
4577.0109519815687236
 21
221.036429782738594
 31
0.0
  0
LINE
  5
10994
  8
0
 10
4577.2578807316140228
 20
221.036429782738594
 30
0.0
 11
4577.2593011584567648
 21
221.036429782738594
 31
0.0
  0
LINE
  5
10995
  8
0
 10
4573.3339696997691135
 20
215.2727733046716878
 30
0.0
 11
4573.3339696997691135
 21
220.3308297827387037
 31
0.0
  0
LINE
  5
10996
  8
0
 10
4574.0397238145933443
 20
214.5671733215023096
 30
0.0
 11
4577.0413623072236078
 21
214.5678289294947945
 31
0.0
  0
LINE
  5
10997
  8
0
 10
4577.2600858352761861
 20
214.5678767023674141
 30
0.0
 11
4577.2614997015316476
 21
214.5678770111794051
 31
0.0
  0
ARC
  5
10998
  8
0
 10
4574.0395696997693449
 20
215.2727733046716878
 30
0.0
 40
0.7056
 50
180.0
 51
270.0125143552185136
  0
ARC
  5
10999
  8
0
 10
4574.0395696997693449
 20
220.3308297827387037
 30
0.0
 40
0.7056
 50
90.0
 51
180.0
  0
ARC
  5
1099A
  8
0
 10
4575.5252605724690511
 20
218.8451062987371074
 30
0.0
 40
0.9364170689022632
 50
304.6101803662310203
 51
235.3901537758162021
  0
ARC
  5
1099B
  8
0
 10
4575.5252608406690342
 20
218.8451062987371074
 30
0.0
 40
1.014792470480951
 50
286.9032052929180736
 51
253.096794707081898
  0
ARC
  5
1099C
  8
0
 10
4575.5252608406690342
 20
218.8451148523870984
 30
0.0
 40
0.9940945025199077
 50
288.8572977891770961
 51
251.1427022108227902
  0
ARC
  5
1099D
  8
0
 10
4575.5252608406690342
 20
218.8451148523870984
 30
0.0
 40
0.9547244237184614
 50
296.4528893196812191
 51
243.5471106803188093
  0
LINE
  5
1099E
  8
0
 10
4575.3061938266682773
 20
217.5602456692371049
 30
0.0
 11
4575.3414035163186782
 21
215.5701256978701963
 31
0.0
  0
ARC
  5
1099F
  8
0
 10
4561.4157315284828655
 20
200.7478182050240889
 30
0.0
 40
22.0127960590086502
 50
51.3133002109120611
 51
51.9166247983259694
  0
ARC
  5
109A0
  8
0
 10
4574.9708371159840681
 20
217.6754070394927112
 30
0.0
 40
0.3267602009465274
 50
18.7274470855870696
 51
51.3133002109120611
  0
ARC
  5
109A1
  8
0
 10
4574.847250336813886
 20
217.6397979917574901
 30
0.0
 40
0.4552757113279215
 50
5.156713545283675
 51
17.9778948572381694
  0
ARC
  5
109A2
  8
0
 10
4573.3740911337308717
 20
217.5322327798062076
 30
0.0
 40
1.932305756870595
 50
0.8306535113803514
 51
4.4071627618325069
  0
ARC
  5
109A3
  8
0
 10
4575.5253023083696462
 20
215.5766350629371004
 30
0.0
 40
0.1840139602068694
 50
182.0272210447631949
 51
269.9870883480006114
  0
ARC
  5
109A4
  8
0
 10
4575.5252183571028581
 20
215.5525779564513016
 30
0.0
 40
0.1619890633362302
 50
244.295585858275814
 51
270.0150265023281122
  0
LINE
  5
109A5
  8
0
 10
4577.749670303768653
 20
220.3659183640370998
 30
0.0
 11
4577.749670303768653
 21
215.23768529313719
 31
0.0
  0
ARC
  5
109A6
  8
0
 10
4577.046070303768829
 20
220.3659183640370998
 30
0.0
 40
0.7036
 50
0.0
 51
90.0
  0
ARC
  5
109A7
  8
0
 10
4577.046070303768829
 20
215.23768529313719
 30
0.0
 40
0.7036
 50
270.0
 51
0.0
  0
LINE
  5
109A8
  8
0
 10
4577.7165519815689549
 20
215.2727733046716878
 30
0.0
 11
4577.7165519815689549
 21
220.3308297827387037
 31
0.0
  0
ARC
  5
109A9
  8
0
 10
4577.0109519815687236
 20
215.2727733046716878
 30
0.0
 40
0.7056
 50
272.4701292136505799
 51
0.0
  0
ARC
  5
109AA
  8
0
 10
4577.0109519815687236
 20
220.3308297827387037
 30
0.0
 40
0.7056
 50
0.0
 51
90.0
  0
LINE
  5
109AB
  8
0
 10
4575.7443278546688816
 20
217.5602456692371049
 30
0.0
 11
4575.7091181650193903
 21
215.5701256978701963
 31
0.0
  0
ARC
  5
109AC
  8
0
 10
4589.6347901528552029
 20
200.7478182050240889
 30
0.0
 40
22.0127960590086502
 50
128.0833621124046999
 51
128.68669978908801
  0
ARC
  5
109AD
  8
0
 10
4576.0796845653521814
 20
217.6754070394927112
 30
0.0
 40
0.3267602009465274
 50
128.68669978908801
 51
161.2725529144128984
  0
ARC
  5
109AE
  8
0
 10
4576.203271344525092
 20
217.6397979917574901
 30
0.0
 40
0.4552757113279215
 50
162.0221051427618022
 51
174.8432864547162069
  0
ARC
  5
109AF
  8
0
 10
4577.6764305476081063
 20
217.5322327798062076
 30
0.0
 40
1.932305756870595
 50
175.5928372381675047
 51
179.1693464886197091
  0
ARC
  5
109B0
  8
0
 10
4575.5252193729693317
 20
215.5766350629371004
 30
0.0
 40
0.1840139602068694
 50
270.0129116519993886
 51
357.9727789552367767
  0
ARC
  5
109B1
  8
0
 10
4575.5253033242352103
 20
215.5525779564513016
 30
0.0
 40
0.1619890633362302
 50
269.9849734976718878
 51
295.7044141417243281
  0
CIRCLE
  5
109B2
  8
0
 10
4576.253607436468883
 20
218.8451093562370886
 30
0.0
 40
0.0590659112298426
  0
CIRCLE
  5
109B3
  8
0
 10
4574.796914244870095
 20
218.8451093562370886
 30
0.0
 40
0.0590659112298426
  0
LINE
  5
109B5
  8
0
 10
4575.2980434115979733
 20
214.544418599837087
 30
0.0
 11
4575.0350761672953013
 21
214.544418599837087
 31
0.0
  0
LINE
  5
109B6
  8
0
 10
4575.7437002418218981
 20
214.544418599837087
 30
0.0
 11
4576.0066674861272986
 21
214.544418599837087
 31
0.0
  0
ARC
  5
109B7
  8
0
 10
4575.0145248333392374
 20
214.3758233187818973
 30
0.0
 40
0.1605369004303796
 50
94.8194497881003855
 51
99.6571289702329466
  0
ARC
  5
109B8
  8
0
 10
4574.9996884632309957
 20
214.5517885526201098
 30
0.0
 40
0.016052684193741
 50
274.8194497881004281
 51
293.0363754050271723
  0
ARC
  5
109B9
  8
0
 10
4574.9137116503161451
 20
214.6350196803826123
 30
0.0
 40
0.1345970091568422
 50
313.2703972281677238
 51
315.577916207335079
  0
ARC
  5
109BA
  8
0
 10
4575.0121311175971641
 20
214.5390265748254137
 30
0.0
 40
0.0029024619751115
 50
104.0515925564463942
 51
142.0871306929221021
  0
ARC
  5
109BB
  8
0
 10
4575.042056923904056
 20
214.3705071388519912
 30
0.0
 40
0.1740515073902909
 50
92.298602333128045
 51
100.1360030074594931
  0
ARC
  5
109BC
  8
0
 10
4575.3185947455540372
 20
214.3758233187818973
 30
0.0
 40
0.1605369004303796
 50
80.3428710297670534
 51
85.1805502118996287
  0
ARC
  5
109BD
  8
0
 10
4575.3334311156613694
 20
214.5517885526201098
 30
0.0
 40
0.016052684193741
 50
246.963624594972714
 51
265.1805502118995719
  0
ARC
  5
109BE
  8
0
 10
4575.4194079285771295
 20
214.6350196803826123
 30
0.0
 40
0.1345970091568422
 50
224.4220837926648073
 51
226.7296027718323046
  0
ARC
  5
109BF
  8
0
 10
4575.3209884612961105
 20
214.5390265748254137
 30
0.0
 40
0.0029024619751115
 50
37.9128693070779832
 51
75.9484074435534211
  0
ARC
  5
109C0
  8
0
 10
4575.2910626549883091
 20
214.3705071388519912
 30
0.0
 40
0.1740515073902909
 50
79.86399699254045
 51
87.7013976668719266
  0
ARC
  5
109C1
  8
0
 10
4575.7231489078676532
 20
214.3758233187818973
 30
0.0
 40
0.1605369004303796
 50
94.8194497881003855
 51
99.6571289702329466
  0
ARC
  5
109C2
  8
0
 10
4575.7083125377594115
 20
214.5517885526201098
 30
0.0
 40
0.016052684193741
 50
274.8194497881004281
 51
293.0363754050271723
  0
ARC
  5
109C3
  8
0
 10
4575.6223357248436514
 20
214.6350196803826123
 30
0.0
 40
0.1345970091568422
 50
313.2703972281677238
 51
315.577916207335079
  0
ARC
  5
109C4
  8
0
 10
4575.7207551921246704
 20
214.5390265748254137
 30
0.0
 40
0.0029024619751115
 50
104.0515925564463942
 51
142.0871306929221021
  0
ARC
  5
109C5
  8
0
 10
4575.7506809984333813
 20
214.3705071388519912
 30
0.0
 40
0.1740515073902909
 50
92.298602333128045
 51
100.1360030074594931
  0
ARC
  5
109C6
  8
0
 10
4576.027218820082453
 20
214.3758233187818973
 30
0.0
 40
0.1605369004303796
 50
80.3428710297670534
 51
85.1805502118996287
  0
ARC
  5
109C7
  8
0
 10
4576.0420551901906947
 20
214.5517885526201098
 30
0.0
 40
0.016052684193741
 50
246.963624594972714
 51
265.1805502118995719
  0
ARC
  5
109C8
  8
0
 10
4576.1280320031046358
 20
214.6350196803826123
 30
0.0
 40
0.1345970091568422
 50
224.4220837926648073
 51
226.7296027718311962
  0
ARC
  5
109C9
  8
0
 10
4576.0296125358236168
 20
214.5390265748254137
 30
0.0
 40
0.0029024619751115
 50
37.9128693070779832
 51
75.9484074435534211
  0
ARC
  5
109CA
  8
0
 10
4575.9996867295158154
 20
214.3705071388519912
 30
0.0
 40
0.1740515073902909
 50
79.86399699254045
 51
87.7013976668719266
  0
ENDSEC
  0
EOF
