  0
SECTION
  2
HEADER
  9
$ACADVER
  1
AC1009
  9
$INSBASE
 10
3567.2183774749851182
 20
159.8591851646349937
 30
0.0
  9
$EXTMIN
 10
3549.1018456073361449
 20
159.8538013619715059
 30
-0.0015258207003583
  9
$EXTMAX
 10
3567.3364183221051462
 20
162.2678379427327968
 30
0.0000000349246037
  9
$LIMMIN
 10
0.0
 20
0.0
  9
$LIMMAX
 10
11.6929133858000007
 20
8.2677165353999982
  9
$ORTHOMODE
 70
     0
  9
$REGENMODE
 70
     1
  9
$FILLMODE
 70
     1
  9
$QTEXTMODE
 70
     0
  9
$MIRRTEXT
 70
     0
  9
$DRAGMODE
 70
     2
  9
$LTSCALE
 40
0.6431102362
  9
$OSMODE
 70
  4095
  9
$ATTMODE
 70
     1
  9
$TEXTSIZE
 40
0.2
  9
$TRACEWID
 40
0.05
  9
$TEXTSTYLE
  7
STANDARD
  9
$CLAYER
  8
0
  9
$CELTYPE
  6
BYLAYER
  9
$CECOLOR
 62
   256
  9
$DIMSCALE
 40
1.0
  9
$DIMASZ
 40
0.1875
  9
$DIMEXO
 40
0.0625
  9
$DIMDLI
 40
0.4443307087
  9
$DIMRND
 40
0.0
  9
$DIMDLE
 40
0.0
  9
$DIMEXE
 40
0.125
  9
$DIMTP
 40
0.01
  9
$DIMTM
 40
0.01
  9
$DIMTXT
 40
2.0
  9
$DIMCEN
 40
0.1052362205
  9
$DIMTSZ
 40
0.0
  9
$DIMTOL
 70
     1
  9
$DIMLIM
 70
     0
  9
$DIMTIH
 70
     1
  9
$DIMTOH
 70
     1
  9
$DIMSE1
 70
     0
  9
$DIMSE2
 70
     0
  9
$DIMTAD
 70
     0
  9
$DIMZIN
 70
     0
  9
$DIMBLK
  1

  9
$DIMASO
 70
     1
  9
$DIMSHO
 70
     1
  9
$DIMPOST
  1
\X
  9
$DIMAPOST
  1

  9
$DIMALT
 70
     1
  9
$DIMALTD
 70
     2
  9
$DIMALTF
 40
25.3999999999999986
  9
$DIMLFAC
 40
1.0
  9
$DIMTOFL
 70
     0
  9
$DIMTVP
 40
0.0
  9
$DIMTIX
 70
     0
  9
$DIMSOXD
 70
     0
  9
$DIMSAH
 70
     0
  9
$DIMBLK1
  1

  9
$DIMBLK2
  1

  9
$DIMSTYLE
  2
STANDARD
  9
$DIMCLRD
 70
     0
  9
$DIMCLRE
 70
     0
  9
$DIMCLRT
 70
     0
  9
$DIMTFAC
 40
1.0
  9
$DIMGAP
 40
0.09
  9
$LUNITS
 70
     2
  9
$LUPREC
 70
     4
  9
$SKETCHINC
 40
0.1
  9
$FILLETRAD
 40
0.0
  9
$AUNITS
 70
     0
  9
$AUPREC
 70
     0
  9
$MENU
  1
.
  9
$ELEVATION
 40
0.0
  9
$PELEVATION
 40
0.0
  9
$THICKNESS
 40
0.0
  9
$LIMCHECK
 70
     0
  9
$BLIPMODE
 70
     0
  9
$CHAMFERA
 40
0.0
  9
$CHAMFERB
 40
0.0
  9
$SKPOLY
 70
     0
  9
$TDCREATE
 40
2458060.468368056230247
  9
$TDUPDATE
 40
2459091.4512962969020009
  9
$TDINDWG
 40
0.557472338
  9
$TDUSRTIMER
 40
0.557472338
  9
$USRTIMER
 70
     1
  9
$ANGBASE
 50
0.0
  9
$ANGDIR
 70
     0
  9
$PDMODE
 70
     0
  9
$PDSIZE
 40
0.3125
  9
$PLINEWID
 40
0.0
  9
$COORDS
 70
     1
  9
$SPLFRAME
 70
     0
  9
$SPLINETYPE
 70
     6
  9
$SPLINESEGS
 70
     8
  9
$ATTDIA
 70
     1
  9
$ATTREQ
 70
     1
  9
$HANDLING
 70
     1
  9
$HANDSEED
  5
1084A
  9
$SURFTAB1
 70
     6
  9
$SURFTAB2
 70
     6
  9
$SURFTYPE
 70
     6
  9
$SURFU
 70
     6
  9
$SURFV
 70
     6
  9
$UCSNAME
  2

  9
$UCSORG
 10
0.0
 20
0.0
 30
0.0
  9
$UCSXDIR
 10
1.0
 20
0.0
 30
0.0
  9
$UCSYDIR
 10
0.0
 20
1.0
 30
0.0
  9
$PUCSNAME
  2

  9
$PUCSORG
 10
0.0
 20
0.0
 30
0.0
  9
$PUCSXDIR
 10
1.0
 20
0.0
 30
0.0
  9
$PUCSYDIR
 10
0.0
 20
1.0
 30
0.0
  9
$USERI1
 70
     0
  9
$USERI2
 70
     0
  9
$USERI3
 70
     0
  9
$USERI4
 70
     0
  9
$USERI5
 70
     0
  9
$USERR1
 40
0.0
  9
$USERR2
 40
0.0
  9
$USERR3
 40
0.0
  9
$USERR4
 40
0.0
  9
$USERR5
 40
0.0
  9
$WORLDVIEW
 70
     1
  9
$SHADEDGE
 70
     3
  9
$SHADEDIF
 70
    70
  9
$TILEMODE
 70
     1
  9
$MAXACTVP
 70
    64
  9
$PLIMCHECK
 70
     0
  9
$PEXTMIN
 10
1.0000000000000000E+20
 20
1.0000000000000000E+20
 30
1.0000000000000000E+20
  9
$PEXTMAX
 10
-1.0000000000000000E+20
 20
-1.0000000000000000E+20
 30
-1.0000000000000000E+20
  9
$PLIMMIN
 10
0.0
 20
0.0
  9
$PLIMMAX
 10
12.0
 20
9.0
  9
$UNITMODE
 70
     0
  9
$VISRETAIN
 70
     1
  9
$PLINEGEN
 70
     0
  9
$PSLTSCALE
 70
     1
  0
ENDSEC
  0
SECTION
  2
TABLES
  0
TABLE
  2
VPORT
 70
     1
  0
VPORT
  2
*ACTIVE
 70
     0
 10
0.0
 20
0.0
 11
1.0
 21
1.0
 12
254.5260167303459014
 22
-34.2006919235355724
 13
0.0
 23
0.0
 14
1.0
 24
1.0
 15
0.0
 25
0.0
 16
0.0
 26
0.0
 36
96.5995694866707311
 17
3303.693115234375
 27
195.2615115758877096
 37
0.0
 40
6.9062100353161968
 41
2.6486111111111108
 42
50.0
 43
0.0
 44
0.0
 50
0.0
 51
0.0
 71
     0
 72
   100
 73
     1
 74
     1
 75
     0
 76
     0
 77
     0
 78
     0
  0
ENDTAB
  0
TABLE
  2
LTYPE
 70
     2
  0
LTYPE
  2
CONTINUOUS
 70
     0
  3
Solid line
 72
    65
 73
     0
 40
0.0
  0
LTYPE
  2
PHANTOM2
 70
     0
  3
___ _ _ ___ _ _ ___ _ _ ___ _ _
 72
    65
 73
     6
 40
1.25
 49
0.625
 49
-0.125
 49
0.125
 49
-0.125
 49
0.125
 49
-0.125
  0
ENDTAB
  0
TABLE
  2
LAYER
 70
     2
  0
LAYER
  2
0
 70
     0
 62
   255
  6
CONTINUOUS
  0
LAYER
  2
DEFPOINTS
 70
     0
 62
     7
  6
CONTINUOUS
  0
ENDTAB
  0
TABLE
  2
STYLE
 70
     1
  0
STYLE
  2
STANDARD
 70
     0
 40
0.0
 41
0.8
 50
0.0
 71
     0
 42
0.2
  3
txt
  4

  0
ENDTAB
  0
TABLE
  2
VIEW
 70
     0
  0
ENDTAB
  0
TABLE
  2
UCS
 70
     0
  0
ENDTAB
  0
TABLE
  2
APPID
 70
     9
  0
APPID
  2
ACAD
 70
     0
  0
APPID
  2
ACAD_MLEADERVER
 70
     0
  0
APPID
  2
ACAD_EXEMPT_FROM_CAD_STANDARDS
 70
     0
  0
APPID
  2
ACAD_NAV_VCDISPLAY
 70
     0
  0
APPID
  2
ACAECLAYERSTANDARD
 70
     0
  0
APPID
  2
ACCMTRANSPARENCY
 70
     0
  0
APPID
  2
ACAD_DSTYLE_DIMJAG
 70
     0
  0
APPID
  2
ACAD_DSTYLE_DIMTALN
 70
     0
  0
APPID
  2
ACDBATTR
 70
     0
  0
ENDTAB
  0
TABLE
  2
DIMSTYLE
 70
     1
  0
DIMSTYLE
  2
STANDARD
 70
     0
  3

  4

  5

  6

  7

 40
1.0
 41
0.1875
 42
0.0625
 43
0.38
 44
0.125
 45
0.0
 46
0.0
 47
0.01
 48
0.01
140
0.15625
141
0.09
142
0.0
143
25.3999999999999986
144
1.0
145
0.0
146
1.0
147
0.09
 71
     1
 72
     0
 73
     1
 74
     1
 75
     0
 76
     0
 77
     0
 78
     4
170
     0
171
     2
172
     0
173
     0
174
     0
175
     0
176
     0
177
     0
178
     0
  0
ENDTAB
  0
ENDSEC
  0
SECTION
  2
BLOCKS
  0
BLOCK
  8
0
  2
$MODEL_SPACE
 70
     0
 10
0.0
 20
0.0
 30
0.0
  3
$MODEL_SPACE
  1

  0
ENDBLK
  5
21
  8
0
  0
BLOCK
 67
     1
  8
0
  2
$PAPER_SPACE
 70
     0
 10
0.0
 20
0.0
 30
0.0
  3
$PAPER_SPACE
  1

  0
ENDBLK
  5
1D
 67
     1
  8
0
  0
BLOCK
  8
0
  2
_FILLED
 70
     0
 10
0.0
 20
0.0
 30
0.0
  3
_FILLED
  1

  0
SOLID
  5
9E2C
  8
0
  6
BYBLOCK
 62
     0
 10
0.0
 20
0.0
 30
0.0
 11
-1.0
 21
0.1666666667
 31
0.0
 12
-1.0
 22
-0.1666666667
 32
0.0
 13
-1.0
 23
-0.1666666667
 33
0.0
  0
ENDBLK
  5
9E2D
  8
0
  6
BYBLOCK
 62
     0
  0
BLOCK
  8
0
  2
A$C6B0F1CD5
 70
     2
 10
0.0
 20
0.0
 30
0.0
  3
A$C6B0F1CD5
  1

  0
ATTDEF
  5
B779
  8
DEFPOINTS
 10
0.0005209962714616
 20
0.000347009907216
 30
0.0
 40
0.001
  1
BATH FAUCET
  3

  2
PRODUCT
 70
     0
1001
ACDBATTR
1070
     0
1070
     1
  0
ATTDEF
  5
B77A
  8
DEFPOINTS
 10
0.0005209962714616
 20
0.0020136765738812
 30
0.0
 40
0.001
  1
SINGULIER
  3

  2
TRADENAME
 70
     0
1001
ACDBATTR
1070
     0
1070
     1
  0
ATTDEF
  5
B77B
  8
DEFPOINTS
 10
0.0005209962714616
 20
0.0036803432405463
 30
0.0
 40
0.001
  1
K-10873W
  3

  2
MODELNUMBER
 70
     0
1001
ACDBATTR
1070
     0
1070
     1
  0
ENDBLK
  5
B77F
  8
0
  0
ENDSEC
  0
SECTION
  2
ENTITIES
  0
ATTDEF
  5
F938
  8
DEFPOINTS
 10
3567.2168802043611322
 20
159.863538608403303
 30
0.0
 40
0.001
  1
K-8827IN
  3

  2
MODELNUMBER
 70
     0
1001
ACDBATTR
1070
     0
1070
     1
  0
ATTDEF
  5
F939
  8
DEFPOINTS
 10
3567.2168802043611322
 20
159.8618719417366947
 30
0.0
 40
0.001
  1
ODEON
  3

  2
TRADENAME
 70
     0
1001
ACDBATTR
1070
     0
1070
     1
  0
ATTDEF
  5
F93A
  8
DEFPOINTS
 10
3567.2168802043611322
 20
159.8602052750700011
 30
0.0
 40
0.001
  1
TOILET SEAT
  3

  2
PRODUCT
 70
     0
1001
ACDBATTR
1070
     0
1070
     1
  0
LINE
  5
105E6
  8
0
 10
3549.1724676991548222
 20
160.3374251786349873
 30
0.0
 11
3549.2431814171150108
 21
160.7384625995786109
 31
0.0
  0
ARC
  5
105E7
  8
0
 10
3549.8247607964549388
 20
160.6359144630349931
 30
0.0
 40
0.5905511787999967
 50
104.2483509617987067
 51
169.9999999481898101
  0
ARC
  5
105E8
  8
0
 10
3554.675618124536868
 20
141.5333136104848961
 30
0.0
 40
20.2994368943663908
 50
100.2732848729977064
 51
104.2483509617987067
  0
ARC
  5
105E9
  8
0
 10
3554.6433526746300231
 20
141.7113306961734054
 30
0.0
 40
20.1185193936796693
 50
94.1618346499592178
 51
100.2732848729977064
  0
ARC
  5
105EA
  8
0
 10
3567.4604548434581375
 20
-34.4306605072574428
 30
0.0
 40
196.7262179040098999
 50
93.7324728791415538
 51
94.1618346499592178
  0
ARC
  5
105EB
  8
0
 10
3566.45209936787478
 20
-18.9736792510571206
 30
0.0
 40
181.2363809029415052
 50
92.9266753228908726
 51
93.7324728791415538
  0
ARC
  5
105EC
  8
0
 10
3566.8252542072050346
 20
-26.27260956880923
 30
0.0
 40
188.5448436905265908
 50
90.6718125553727816
 51
92.9266753228908726
  0
ARC
  5
105ED
  8
0
 10
3565.1489014747699002
 20
115.5479574305422972
 30
0.0
 40
46.7143721414983517
 50
88.104006115029037
 51
90.6554004809671881
  0
ARC
  5
105EE
  8
0
 10
3566.677379340123025
 20
161.7251972399186002
 30
0.0
 40
0.5118427839441028
 50
61.2997640696553177
 51
88.0875940406171338
  0
ARC
  5
105EF
  8
0
 10
3566.8720827758220366
 20
162.0808268646381123
 30
0.0
 40
0.1064024580623308
 50
298.7002359303447179
 51
61.2997640696553177
  0
LINE
  5
105F0
  8
0
 10
3566.9231801206810815
 20
161.9874965671457119
 30
0.0
 11
3566.8301141526458196
 21
161.9396754346473983
 31
0.0
  0
LINE
  5
105F1
  8
0
 10
3566.9231801231549071
 20
162.174157162735014
 30
0.0
 11
3566.6849747993542223
 21
162.0495597000349903
 31
0.0
  0
ARC
  5
105F2
  8
0
 10
3566.4464656895429471
 20
161.5837636950292051
 30
0.0
 40
0.523309195163285
 50
42.8523568574289584
 51
62.8854528777927086
  0
ARC
  5
105F3
  8
0
 10
3566.454651726524844
 20
161.5959710210179026
 30
0.0
 40
0.5090168321646691
 50
3.6083501728031808
 51
42.4716841665106628
  0
LINE
  5
105F4
  8
0
 10
3566.9626594668548023
 20
161.6280064887349965
 30
0.0
 11
3566.9853562352550398
 21
161.269921944835005
 31
0.0
  0
LINE
  5
105F5
  8
0
 10
3566.9853562352550398
 20
161.269921944835005
 30
0.0
 11
3567.0149947002551016
 21
160.8009458309350066
 31
0.0
  0
ARC
  5
105F6
  8
0
 10
3566.6348533308178048
 20
160.7769215654357993
 30
0.0
 40
0.3808997585852032
 50
302.4718529097273745
 51
3.6161831751912161
  0
ARC
  5
105F7
  8
0
 10
3566.4801884992548366
 20
160.8650906765350044
 30
0.0
 40
0.4724409449000208
 50
252.6674554935941899
 51
270.0
  0
LINE
  5
105F8
  8
0
 10
3566.4801884992548366
 20
160.3926497316350037
 30
0.0
 11
3566.5585610165549042
 21
160.3926497316350037
 31
0.0
  0
ARC
  5
105F9
  8
0
 10
3566.5338785741610081
 20
160.9932807424027033
 30
0.0
 40
0.6011379492748689
 50
272.3531993676349998
 51
277.2162691839362196
  0
ARC
  5
105FA
  8
0
 10
3566.6243300894479944
 20
160.7990280408627939
 30
0.0
 40
0.4052108128190723
 50
280.0397949196560035
 51
302.0489785341505922
  0
ARC
  5
105FB
  8
0
 10
3566.6410224575370194
 20
160.7047438964324897
 30
0.0
 40
0.3094604340031353
 50
264.1331767691870027
 51
280.0397949196560035
  0
ARC
  5
105FC
  8
0
 10
3566.5315177508191482
 20
161.2564191390706014
 30
0.0
 40
0.507558153656809
 50
2.922067485905564
 51
30.2397689735438888
  0
LINE
  5
105FD
  8
0
 10
3567.0384159759551039
 20
161.2822932322349914
 30
0.0
 11
3567.062721473064812
 21
160.802922968187886
 31
0.0
  0
ARC
  5
105FE
  8
0
 10
3566.7114560273239476
 20
160.7844208345956076
 30
0.0
 40
0.3517522117250864
 50
331.8243507876622971
 51
3.0151471960340062
  0
ARC
  5
105FF
  8
0
 10
3566.7092800812411042
 20
160.7855863762596869
 30
0.0
 40
0.3542206583466865
 50
320.3860972213536229
 51
331.8243507876622971
  0
ARC
  5
10600
  8
0
 10
3566.704896797550191
 20
160.7892143357543944
 30
0.0
 40
0.3599105850604289
 50
306.5366581351257764
 51
320.3860972213536229
  0
ARC
  5
10601
  8
0
 10
3566.7124659746209545
 20
160.7789988556087053
 30
0.0
 40
0.3471964796596226
 50
291.6118386922009904
 51
306.5366581351257764
  0
LINE
  5
10602
  8
0
 10
3567.0215270810158472
 20
160.6183318219673026
 30
0.0
 11
3567.0215270810158472
 21
160.210216601235004
 31
0.0
  0
ARC
  5
10603
  8
0
 10
3567.1790073955071421
 20
160.210216601235004
 30
0.0
 40
0.1574803144913801
 50
180.0000000000015916
 51
247.9756877841020071
  0
ARC
  5
10604
  8
0
 10
3567.0608971638471303
 20
159.9182402850154858
 30
0.0
 40
0.1574803117077883
 50
359.999999170304477
 51
67.9756877841020071
  0
LINE
  5
10605
  8
0
 10
3567.2183774755549166
 20
159.9182402827350131
 30
0.0
 11
3567.2183774749892109
 21
159.8791941700035864
 31
0.0
  0
LINE
  5
10606
  8
0
 10
3567.2183774749892109
 20
159.8791941700035864
 30
0.0
 11
3565.8207396803550182
 21
159.8791941700035864
 31
0.0
  0
LINE
  5
10607
  8
0
 10
3565.8207396803550182
 20
159.8791941700035864
 30
0.0
 11
3565.8207396802549738
 21
159.918240282335006
 31
0.0
  0
ARC
  5
10608
  8
0
 10
3565.9782199951328039
 20
159.9182402827350131
 30
0.0
 40
0.1574803148771622
 50
112.0243128430288948
 51
180.0000001455323968
  0
ARC
  5
10609
  8
0
 10
3565.8601097588039011
 20
160.210216601304694
 30
0.0
 40
0.1574803152516557
 50
292.0243128430290085
 51
359.9999999382704914
  0
ARC
  5
1060A
  8
0
 10
3529.7734998988121333
 20
796.6234046796979555
 30
0.0
 40
635.7268280846526523
 50
271.7943422539763105
 51
271.8339251808084782
  0
ARC
  5
1060B
  8
0
 10
3546.6387506782398304
 20
269.8965354336301061
 30
0.0
 40
108.7300240434731933
 50
271.8339251808084782
 51
272.7714042478964984
  0
ARC
  5
1060C
  8
0
 10
3559.0614584993841163
 20
13.2708406991183097
 30
0.0
 40
148.1961732731498103
 50
92.0941224700510048
 51
92.7714042478965268
  0
ARC
  5
1060D
  8
0
 10
3545.5780149567549415
 20
382.0173617864601283
 30
0.0
 40
220.7967806755465006
 50
272.0941224700509906
 51
272.9354732796858798
  0
ARC
  5
1060E
  8
0
 10
3655.5851188286910656
 20
-2068.0079671672970107
 30
0.0
 40
2231.7018985979239005
 50
92.3341635340671019
 51
92.5348046623387717
  0
ARC
  5
1060F
  8
0
 10
3559.9292409433242028
 20
302.9639440942149804
 30
0.0
 40
141.2020735220150129
 50
271.9334949166984075
 51
272.5119989277266086
  0
ARC
  5
10610
  8
0
 10
3566.1238945910008624
 20
161.381487430791708
 30
0.0
 40
0.5161036275647622
 50
4.3159734962508471
 51
90.6620405903783961
  0
ARC
  5
10611
  8
0
 10
3554.0882431296950017
 20
160.8798283111486001
 30
0.0
 40
12.5619248832628294
 50
359.6400571902074716
 51
2.46601515889872
  0
ARC
  5
10612
  8
0
 10
3566.2230734004788246
 20
160.8255170631902047
 30
0.0
 40
0.427555279148552
 50
285.7680654753256135
 51
356.7009674762201143
  0
ARC
  5
10613
  8
0
 10
3566.2026830953232093
 20
160.8771910383532031
 30
0.0
 40
0.4828579366780731
 50
275.850957326572086
 51
286.4303108066250161
  0
ARC
  5
10614
  8
0
 10
3596.9131832901898633
 20
-139.6776214472180868
 30
0.0
 40
301.6368702224685876
 50
95.8341716003686344
 51
95.9480035002328009
  0
ARC
  5
10615
  8
0
 10
3586.1477640582988897
 20
-38.5309065023318382
 30
0.0
 40
199.9192458798198118
 50
95.883220369467324
 51
96.0269616261417838
  0
ARC
  5
10616
  8
0
 10
3564.4024956765401839
 20
167.6122113205888979
 30
0.0
 40
7.367636838795466
 50
272.3233198978022074
 51
275.8774890013139043
  0
ARC
  5
10617
  8
0
 10
3564.3376746202297909
 20
171.6494301153414028
 30
0.0
 40
11.4045934902728998
 50
270.3189944572725949
 51
271.8264734707224193
  0
LINE
  5
10618
  8
0
 10
3564.4011694072319187
 20
160.2450133792519011
 30
0.0
 11
3549.2500116167548185
 21
160.2450133792519011
 31
0.0
  0
ARC
  5
10619
  8
0
 10
3549.2500094642427939
 20
160.3237515170717984
 30
0.0
 40
0.0787381378493364
 50
169.9993147333910031
 51
270.0015663290722046
  0
LINE
  5
1061A
  8
0
 10
3549.4820146033189303
 20
160.2450133764334907
 30
0.0
 11
3549.4726705473772199
 21
160.2018982315350115
 31
0.0
  0
ARC
  5
1061B
  8
0
 10
3549.5417203946390146
 20
160.1859568182998999
 30
0.0
 40
0.0708661418649008
 50
167.0000000785740042
 51
269.9999998510429009
  0
LINE
  5
1061C
  8
0
 10
3549.5417203944548419
 20
160.1150906764349884
 30
0.0
 11
3565.5523855779551923
 21
160.1150906764349884
 31
0.0
  0
ARC
  5
1061D
  8
0
 10
3565.5505243864881777
 20
160.1927134883991926
 30
0.0
 40
0.0776451220032397
 50
271.3735393538406129
 51
346.1700562126700902
  0
ARC
  5
1061E
  8
0
 10
3565.4079805818751083
 20
160.2340586558680116
 30
0.0
 40
0.2260212927551897
 50
344.630447365089708
 51
352.8767571654756807
  0
ARC
  5
1061F
  8
0
 10
3567.5854197922180902
 20
159.9172769528371987
 30
0.0
 40
1.974391647528988
 50
167.7754342764667115
 51
171.5903476927209965
  0
LINE
  5
10620
  8
0
 10
3566.0175900740550787
 20
160.3728139756111091
 30
0.0
 11
3566.0175900740550787
 21
160.210216601134988
 31
0.0
  0
LINE
  5
10621
  8
0
 10
3552.2570459780567944
 20
160.1150906764349884
 30
0.0
 11
3552.2705375809541692
 21
159.9148089543350011
 31
0.0
  0
ARC
  5
10622
  8
0
 10
3552.3091713326371064
 20
159.9179510470625871
 30
0.0
 40
0.0387613146799438
 50
184.6496462938980017
 51
270.8669970570742862
  0
LINE
  5
10623
  8
0
 10
3552.3097578446559055
 20
159.8791941700035864
 30
0.0
 11
3553.1879944635547872
 21
159.8791941700035864
 31
0.0
  0
ARC
  5
10624
  8
0
 10
3553.1885807767421284
 20
159.917951265781511
 30
0.0
 40
0.0387615303656933
 50
269.1333017062585213
 51
355.3500137412568733
  0
LINE
  5
10625
  8
0
 10
3553.2272147247549583
 20
159.914808926335013
 30
0.0
 11
3553.2407063302289316
 21
160.1150906764349884
 31
0.0
  0
LINE
  5
10626
  8
0
 10
3560.5706065875810964
 20
160.1150906764349884
 30
0.0
 11
3560.5786506406561784
 21
159.9935491187349896
 31
0.0
  0
ARC
  5
10627
  8
0
 10
3560.6178686254888817
 20
159.9969793203260906
 30
0.0
 40
0.039367710339814
 50
184.9986552698960907
 51
270.003203000152098
  0
LINE
  5
10628
  8
0
 10
3560.6178708262577857
 20
159.9576116100477918
 30
0.0
 11
3560.8070731013358454
 21
159.9576116100477918
 31
0.0
  0
ARC
  5
10629
  8
0
 10
3560.8070762272532193
 20
159.9969783106884051
 30
0.0
 40
0.0393667007646985
 50
269.9954504216299824
 51
355.002691284767991
  0
LINE
  5
1062A
  8
0
 10
3560.8462932869551878
 20
159.9935491187349896
 30
0.0
 11
3560.8543358826759686
 21
160.1150906764349884
 31
0.0
  0
LINE
  5
1062B
  8
0
 10
3566.1160152709549038
 20
160.3829323075221112
 30
0.0
 11
3566.116015270754815
 21
160.0757128163349989
 31
0.0
  0
ARC
  5
1062C
  8
0
 10
3566.1553775666470756
 20
160.0757128147261881
 30
0.0
 40
0.0393622958912801
 50
179.9999976581916883
 51
270.0040437251172989
  0
LINE
  5
1062D
  8
0
 10
3566.1553803446918209
 20
160.0363505189330056
 30
0.0
 11
3566.8837365653221241
 21
160.0363505189467901
 31
0.0
  0
ARC
  5
1062E
  8
0
 10
3566.8837395323471355
 20
160.0757128716552131
 30
0.0
 40
0.0393623528201753
 50
270.0000000121676749
 51
0.004318731219845
  0
LINE
  5
1062F
  8
0
 10
3566.9231018850550754
 20
160.0757158386350056
 30
0.0
 11
3566.9231018848549866
 21
160.5029938441614092
 31
0.0
  0
ARC
  5
10630
  8
0
 10
3565.8608452482130815
 20
161.5833636234767994
 30
0.0
 40
1.267509668014797
 50
295.3817880043458786
 51
300.7489559829963923
  0
ARC
  5
10631
  8
0
 10
3566.5590017728882231
 20
160.4098193459622905
 30
0.0
 40
0.0980044125545328
 50
104.4291120303538065
 51
120.7489559829964065
  0
LINE
  5
10632
  8
0
 10
3566.5345808380548078
 20
160.5047323736349938
 30
0.0
 11
3566.8164877636709207
 21
160.5047323736349938
 31
0.0
  0
ARC
  5
10633
  8
0
 10
3566.8164876274158814
 20
160.5033042580178915
 30
0.0
 40
0.0014281156236564
 50
72.194303633112483
 51
89.9945334898350211
  0
ARC
  5
10634
  8
0
 10
3566.8166733896950973
 20
160.5038826422021998
 30
0.0
 40
0.0008206323819764
 50
28.4815560289560707
 51
72.1943036330300885
  0
ARC
  5
10635
  8
0
 10
3566.8153498410770226
 20
160.503559702503793
 30
0.0
 40
0.0021660215230771
 50
341.6754265637196113
 51
19.2545508200597411
  0
ARC
  5
10636
  8
0
 10
3566.7818413814620726
 20
160.5182893239426107
 30
0.0
 40
0.0387599151959149
 50
319.056975257644126
 51
336.5722943926404014
  0
ARC
  5
10637
  8
0
 10
3566.621095382834028
 20
160.6600793536952096
 30
0.0
 40
0.2531035919818963
 50
297.0805104010024138
 51
318.6575214347162728
  0
ARC
  5
10638
  8
0
 10
3566.574777003158033
 20
160.7449765149042094
 30
0.0
 40
0.3497889589572401
 50
275.6790163829555809
 51
297.5050259233443057
  0
LINE
  5
10639
  8
0
 10
3565.9073644327550028
 20
159.8791941700035864
 30
0.0
 11
3565.9073644327550028
 21
159.8591851646349937
 31
0.0
  0
LINE
  5
1063A
  8
0
 10
3565.9073644327550028
 20
159.8591851646349937
 30
0.0
 11
3567.1317738816551355
 21
159.8591851646349937
 31
0.0
  0
LINE
  5
1063B
  8
0
 10
3567.1317738816551355
 20
159.8591851646349937
 30
0.0
 11
3567.1317738816551355
 21
159.8791941700035864
 31
0.0
  0
ENDSEC
  0
EOF
