  0
SECTION
  2
HEADER
  9
$ACADVER
  1
AC1009
  9
$INSBASE
 10
3593.1636345187998813
 20
262.7292462210272106
 30
0.0
  9
$EXTMIN
 10
3585.4224661726711929
 20
234.3463243800906923
 30
-0.000000000000013
  9
$EXTMAX
 10
3601.0822078998521647
 20
262.7510886525748219
 30
0.0000000000000023
  9
$LIMMIN
 10
0.0
 20
0.0
  9
$LIMMAX
 10
11.6929133858000007
 20
8.2677165353999982
  9
$ORTHOMODE
 70
     0
  9
$REGENMODE
 70
     1
  9
$FILLMODE
 70
     1
  9
$QTEXTMODE
 70
     0
  9
$MIRRTEXT
 70
     0
  9
$DRAGMODE
 70
     2
  9
$LTSCALE
 40
0.6431102362
  9
$OSMODE
 70
  4095
  9
$ATTMODE
 70
     1
  9
$TEXTSIZE
 40
0.2
  9
$TRACEWID
 40
0.05
  9
$TEXTSTYLE
  7
STANDARD
  9
$CLAYER
  8
0
  9
$CELTYPE
  6
BYLAYER
  9
$CECOLOR
 62
   256
  9
$DIMSCALE
 40
1.0
  9
$DIMASZ
 40
0.1875
  9
$DIMEXO
 40
0.0625
  9
$DIMDLI
 40
0.4443307087
  9
$DIMRND
 40
0.0
  9
$DIMDLE
 40
0.0
  9
$DIMEXE
 40
0.125
  9
$DIMTP
 40
0.01
  9
$DIMTM
 40
0.01
  9
$DIMTXT
 40
2.0
  9
$DIMCEN
 40
0.1052362205
  9
$DIMTSZ
 40
0.0
  9
$DIMTOL
 70
     1
  9
$DIMLIM
 70
     0
  9
$DIMTIH
 70
     1
  9
$DIMTOH
 70
     1
  9
$DIMSE1
 70
     0
  9
$DIMSE2
 70
     0
  9
$DIMTAD
 70
     0
  9
$DIMZIN
 70
     0
  9
$DIMBLK
  1

  9
$DIMASO
 70
     1
  9
$DIMSHO
 70
     1
  9
$DIMPOST
  1
\X
  9
$DIMAPOST
  1

  9
$DIMALT
 70
     1
  9
$DIMALTD
 70
     2
  9
$DIMALTF
 40
25.3999999999999986
  9
$DIMLFAC
 40
1.0
  9
$DIMTOFL
 70
     0
  9
$DIMTVP
 40
0.0
  9
$DIMTIX
 70
     0
  9
$DIMSOXD
 70
     0
  9
$DIMSAH
 70
     0
  9
$DIMBLK1
  1

  9
$DIMBLK2
  1

  9
$DIMSTYLE
  2
STANDARD
  9
$DIMCLRD
 70
     0
  9
$DIMCLRE
 70
     0
  9
$DIMCLRT
 70
     0
  9
$DIMTFAC
 40
1.0
  9
$DIMGAP
 40
0.09
  9
$LUNITS
 70
     2
  9
$LUPREC
 70
     4
  9
$SKETCHINC
 40
0.1
  9
$FILLETRAD
 40
0.0
  9
$AUNITS
 70
     0
  9
$AUPREC
 70
     0
  9
$MENU
  1
.
  9
$ELEVATION
 40
0.0
  9
$PELEVATION
 40
0.0
  9
$THICKNESS
 40
0.0
  9
$LIMCHECK
 70
     0
  9
$BLIPMODE
 70
     0
  9
$CHAMFERA
 40
0.0
  9
$CHAMFERB
 40
0.0
  9
$SKPOLY
 70
     0
  9
$TDCREATE
 40
2458060.468368056230247
  9
$TDUPDATE
 40
2459074.8359143519774079
  9
$TDINDWG
 40
0.5481436343
  9
$TDUSRTIMER
 40
0.5481436343
  9
$USRTIMER
 70
     1
  9
$ANGBASE
 50
0.0
  9
$ANGDIR
 70
     0
  9
$PDMODE
 70
     0
  9
$PDSIZE
 40
0.3125
  9
$PLINEWID
 40
0.0
  9
$COORDS
 70
     1
  9
$SPLFRAME
 70
     0
  9
$SPLINETYPE
 70
     6
  9
$SPLINESEGS
 70
     8
  9
$ATTDIA
 70
     1
  9
$ATTREQ
 70
     1
  9
$HANDLING
 70
     1
  9
$HANDSEED
  5
AF3D
  9
$SURFTAB1
 70
     6
  9
$SURFTAB2
 70
     6
  9
$SURFTYPE
 70
     6
  9
$SURFU
 70
     6
  9
$SURFV
 70
     6
  9
$UCSNAME
  2

  9
$UCSORG
 10
0.0
 20
0.0
 30
0.0
  9
$UCSXDIR
 10
1.0
 20
0.0
 30
0.0
  9
$UCSYDIR
 10
0.0
 20
1.0
 30
0.0
  9
$PUCSNAME
  2

  9
$PUCSORG
 10
0.0
 20
0.0
 30
0.0
  9
$PUCSXDIR
 10
1.0
 20
0.0
 30
0.0
  9
$PUCSYDIR
 10
0.0
 20
1.0
 30
0.0
  9
$USERI1
 70
     0
  9
$USERI2
 70
     0
  9
$USERI3
 70
     0
  9
$USERI4
 70
     0
  9
$USERI5
 70
     0
  9
$USERR1
 40
0.0
  9
$USERR2
 40
0.0
  9
$USERR3
 40
0.0
  9
$USERR4
 40
0.0
  9
$USERR5
 40
0.0
  9
$WORLDVIEW
 70
     1
  9
$SHADEDGE
 70
     3
  9
$SHADEDIF
 70
    70
  9
$TILEMODE
 70
     1
  9
$MAXACTVP
 70
    64
  9
$PLIMCHECK
 70
     0
  9
$PEXTMIN
 10
1.0000000000000000E+20
 20
1.0000000000000000E+20
 30
1.0000000000000000E+20
  9
$PEXTMAX
 10
-1.0000000000000000E+20
 20
-1.0000000000000000E+20
 30
-1.0000000000000000E+20
  9
$PLIMMIN
 10
0.0
 20
0.0
  9
$PLIMMAX
 10
12.0
 20
9.0
  9
$UNITMODE
 70
     0
  9
$VISRETAIN
 70
     1
  9
$PLINEGEN
 70
     0
  9
$PSLTSCALE
 70
     1
  0
ENDSEC
  0
SECTION
  2
TABLES
  0
TABLE
  2
VPORT
 70
     1
  0
VPORT
  2
*ACTIVE
 70
     0
 10
0.0
 20
0.0
 11
1.0
 21
1.0
 12
289.5592218018863946
 22
53.2871949404449765
 13
0.0
 23
0.0
 14
1.0
 24
1.0
 15
0.0
 25
0.0
 16
0.0
 26
0.0
 36
96.5995694866707311
 17
3303.693115234375
 27
195.2615115758877096
 37
0.0
 40
28.6411423385519903
 41
2.6486111111111108
 42
50.0
 43
0.0
 44
0.0
 50
0.0
 51
0.0
 71
     0
 72
   100
 73
     1
 74
     1
 75
     0
 76
     0
 77
     0
 78
     0
  0
ENDTAB
  0
TABLE
  2
LTYPE
 70
     2
  0
LTYPE
  2
CONTINUOUS
 70
     0
  3
Solid line
 72
    65
 73
     0
 40
0.0
  0
LTYPE
  2
PHANTOM2
 70
     0
  3
___ _ _ ___ _ _ ___ _ _ ___ _ _
 72
    65
 73
     6
 40
1.25
 49
0.625
 49
-0.125
 49
0.125
 49
-0.125
 49
0.125
 49
-0.125
  0
ENDTAB
  0
TABLE
  2
LAYER
 70
     2
  0
LAYER
  2
0
 70
     0
 62
   255
  6
CONTINUOUS
  0
LAYER
  2
DEFPOINTS
 70
     0
 62
     7
  6
CONTINUOUS
  0
ENDTAB
  0
TABLE
  2
STYLE
 70
     1
  0
STYLE
  2
STANDARD
 70
     0
 40
0.0
 41
0.8
 50
0.0
 71
     0
 42
0.2
  3
txt
  4

  0
ENDTAB
  0
TABLE
  2
VIEW
 70
     0
  0
ENDTAB
  0
TABLE
  2
UCS
 70
     0
  0
ENDTAB
  0
TABLE
  2
APPID
 70
     9
  0
APPID
  2
ACAD
 70
     0
  0
APPID
  2
ACAD_MLEADERVER
 70
     0
  0
APPID
  2
ACAD_EXEMPT_FROM_CAD_STANDARDS
 70
     0
  0
APPID
  2
ACAD_NAV_VCDISPLAY
 70
     0
  0
APPID
  2
ACAECLAYERSTANDARD
 70
     0
  0
APPID
  2
ACCMTRANSPARENCY
 70
     0
  0
APPID
  2
ACAD_DSTYLE_DIMJAG
 70
     0
  0
APPID
  2
ACAD_DSTYLE_DIMTALN
 70
     0
  0
APPID
  2
ACDBATTR
 70
     0
  0
ENDTAB
  0
TABLE
  2
DIMSTYLE
 70
     1
  0
DIMSTYLE
  2
STANDARD
 70
     0
  3

  4

  5

  6

  7

 40
1.0
 41
0.1875
 42
0.0625
 43
0.38
 44
0.125
 45
0.0
 46
0.0
 47
0.01
 48
0.01
140
0.15625
141
0.09
142
0.0
143
25.3999999999999986
144
1.0
145
0.0
146
1.0
147
0.09
 71
     1
 72
     0
 73
     1
 74
     1
 75
     0
 76
     0
 77
     0
 78
     4
170
     0
171
     2
172
     0
173
     0
174
     0
175
     0
176
     0
177
     0
178
     0
  0
ENDTAB
  0
ENDSEC
  0
SECTION
  2
BLOCKS
  0
BLOCK
  8
0
  2
$MODEL_SPACE
 70
     0
 10
0.0
 20
0.0
 30
0.0
  3
$MODEL_SPACE
  1

  0
ENDBLK
  5
21
  8
0
  0
BLOCK
 67
     1
  8
0
  2
$PAPER_SPACE
 70
     0
 10
0.0
 20
0.0
 30
0.0
  3
$PAPER_SPACE
  1

  0
ENDBLK
  5
1D
 67
     1
  8
0
  0
BLOCK
  8
0
  2
_FILLED
 70
     0
 10
0.0
 20
0.0
 30
0.0
  3
_FILLED
  1

  0
SOLID
  5
9E2C
  8
0
  6
BYBLOCK
 62
     0
 10
0.0
 20
0.0
 30
0.0
 11
-1.0
 21
0.1666666667
 31
0.0
 12
-1.0
 22
-0.1666666667
 32
0.0
 13
-1.0
 23
-0.1666666667
 33
0.0
  0
ENDBLK
  5
9E2D
  8
0
  6
BYBLOCK
 62
     0
  0
ENDSEC
  0
SECTION
  2
ENTITIES
  0
ATTDEF
  5
A531
  8
DEFPOINTS
 10
3593.1637548167218483
 20
262.7330575694048207
 30
0.0
 40
0.001
  1
K-8753IN-S
  3

  2
MODELNUMBER
 70
     0
1001
ACDBATTR
1070
     0
1070
     1
  0
ATTDEF
  5
A532
  8
DEFPOINTS
 10
3593.1637548167218483
 20
262.7313909027380987
 30
0.0
 40
0.001
  1
ODEON
  3

  2
TRADENAME
 70
     0
1001
ACDBATTR
1070
     0
1070
     1
  0
ATTDEF
  5
A533
  8
DEFPOINTS
 10
3593.1637548167218483
 20
262.7297242360714904
 30
0.0
 40
0.001
  1
TOILET
  3

  2
PRODUCT
 70
     0
1001
ACDBATTR
1070
     0
1070
     1
  0
LINE
  5
AB1E
  8
0
 10
3598.6469259445361786
 20
262.7292462210272106
 30
0.0
 11
3587.6803430930640388
 21
262.7292462210272106
 31
0.0
  0
ARC
  5
AB1F
  8
0
 10
3587.6803717926432
 20
262.1386876566792807
 30
0.0
 40
0.5905585650452206
 50
90.0027844229003051
 51
116.7172723975442068
  0
ARC
  5
AB20
  8
0
 10
3587.6804441219428554
 20
262.1385439538137234
 30
0.0
 40
0.5907194440093237
 50
116.7172723975442068
 51
134.9905045068817913
  0
ARC
  5
AB21
  8
0
 10
3662.3345204199918044
 20
186.6648794476971034
 30
0.0
 40
106.7486366920308996
 50
134.6888881953898931
 51
135.9363570819126892
  0
ARC
  5
AB22
  8
0
 10
3586.3299056214927987
 20
260.4036930900945777
 30
0.0
 40
0.8616201850174066
 50
144.5061847577437959
 51
180.0414597684095099
  0
LINE
  5
AB23
  8
0
 10
3585.4682856620529492
 20
260.403069613627224
 30
0.0
 11
3585.4683059223420969
 21
258.0001347195516246
 31
0.0
  0
ARC
  5
AB24
  8
0
 10
3586.2602856690418776
 20
257.999721164742482
 30
0.0
 40
0.7920001074666839
 50
179.9703596744712968
 51
231.3748917355019046
  0
ARC
  5
AB25
  8
0
 10
3593.1625557198340175
 20
266.6403132657168271
 30
0.0
 40
11.8509857572306796
 50
231.3810320456825025
 51
270.0039624914780916
  0
LINE
  5
AB26
  8
0
 10
3585.4683008993911244
 20
259.2139865493131197
 30
0.0
 11
3585.765711998153165
 21
259.2168021860272233
 31
0.0
  0
ARC
  5
AB27
  8
0
 10
3595.0188015310009177
 20
271.3365032812474169
 30
0.0
 40
15.2481743321084995
 50
232.6391696340529904
 51
237.3310850727694969
  0
ARC
  5
AB28
  8
0
 10
3593.8235206971407933
 20
268.2593308669735279
 30
0.0
 40
12.0304399194566294
 50
234.2109398754824099
 51
246.4419453678862055
  0
ARC
  5
AB29
  8
0
 10
3593.1613556591328233
 20
266.9548410315733804
 30
0.0
 40
10.5703658122059796
 50
246.9059450523683097
 51
270.0109468878181929
  0
ARC
  5
AB2A
  8
0
 10
3593.153269868686948
 20
250.0061558134729012
 30
0.0
 40
10.3239908917900198
 50
89.9439170754360333
 51
102.6053949048300069
  0
ARC
  5
AB2B
  8
0
 10
3593.1418833079637807
 20
248.1117195249985059
 30
0.0
 40
12.1776817502897892
 50
100.6075148944913025
 51
121.4497708214775002
  0
LINE
  5
AB2C
  8
0
 10
3585.6251932552331709
 20
260.8994448667618826
 30
0.0
 11
3600.7020757823670465
 21
260.8994448667618826
 31
0.0
  0
ARC
  5
AB2D
  8
0
 10
3593.1633753164528571
 20
258.0066127420270732
 30
0.0
 40
0.8228346456999986
 50
89.9999999965086204
 51
270.0
  0
ARC
  5
AB2E
  8
0
 10
3593.1633753164528571
 20
258.0066127420270732
 30
0.0
 40
0.8228346456999986
 50
270.0
 51
89.9999999965086204
  0
ARC
  5
AB2F
  8
0
 10
3593.170895088576799
 20
240.685376524104214
 30
0.0
 40
6.3313579872772072
 50
246.5233230040809076
 51
269.9319496220472274
  0
ARC
  5
AB30
  8
0
 10
3593.3934522391778046
 20
241.1977932380515028
 30
0.0
 40
6.8900193999558947
 50
201.9701780368320954
 51
246.5233230040809076
  0
ARC
  5
AB31
  8
0
 10
3599.7686332108851275
 20
243.7696744710021051
 30
0.0
 40
13.7644288653874298
 50
187.3827507452676002
 51
201.9701780368320954
  0
ARC
  5
AB32
  8
0
 10
3624.7507422905609928
 20
247.006636351346998
 30
0.0
 40
38.9553735932777272
 50
182.5522164411476069
 51
187.3827507452676002
  0
ARC
  5
AB33
  8
0
 10
3680.7414230024151038
 20
249.8469504651598925
 30
0.0
 40
95.0176169259962649
 50
179.0975473683791108
 51
182.759794201690795
  0
ARC
  5
AB34
  8
0
 10
3586.2367868659189298
 20
251.322456364618688
 30
0.0
 40
0.5016358585594456
 50
107.1399768141509981
 51
177.5969707375386122
  0
ARC
  5
AB35
  8
0
 10
3593.1655360487361577
 20
211.7845724604840996
 30
0.0
 40
40.6469372110916396
 50
96.1420429183857266
 51
99.841090957648035
  0
ARC
  5
AB36
  8
0
 10
3586.3356970612890109
 20
251.0722722364010053
 30
0.0
 40
0.7701388211204313
 50
98.7668181124728761
 51
108.6865973384730069
  0
ARC
  5
AB37
  8
0
 10
3588.8224532713879853
 20
252.1433604957649095
 30
0.0
 40
0.0551382922031584
 50
359.3485449468622051
 51
96.1242497058347567
  0
LINE
  5
AB38
  8
0
 10
3588.87758799955418
 20
252.142733584927214
 30
0.0
 11
3588.8775880017528834
 21
251.932125689152798
 31
0.0
  0
LINE
  5
AB39
  8
0
 10
3588.8775880017528834
 20
251.932125689152798
 30
0.0
 11
3589.0073096244541375
 21
251.9455997886271916
 31
0.0
  0
ARC
  5
AB3A
  8
0
 10
3593.2059189051419708
 20
211.2028752200372992
 30
0.0
 40
40.9584902695871591
 50
90.059511764648704
 51
95.8836617990267115
  0
ARC
  5
AB3B
  8
0
 10
3588.8775856133302113
 20
252.0794145933633956
 30
0.0
 40
0.0393724672391974
 50
0.0016594852011969
 51
89.9444940572581544
  0
LINE
  5
AB3C
  8
0
 10
3588.9169580805528312
 20
252.0794157337271884
 30
0.0
 11
3588.9169622305521443
 21
251.9361318713849869
 31
0.0
  0
ARC
  5
AB3D
  8
0
 10
3591.1115092513878153
 20
251.991035917755994
 30
0.0
 40
2.187809630667072
 50
176.1441593222029098
 51
181.4156741269084989
  0
ARC
  5
AB3E
  8
0
 10
3589.0007630241339029
 20
252.1332978782459975
 30
0.0
 40
0.0722746861976208
 50
97.8921227863607868
 51
176.1441593222029098
  0
ARC
  5
AB3F
  8
0
 10
4169.4257966100212798
 20
-4425.1289679256551608
 30
0.0
 40
4713.2108736740074164
 50
97.069922202597553
 51
97.073970357462386
  0
ARC
  5
AB40
  8
0
 10
3589.330007533088974
 20
252.1665029278221084
 30
0.0
 40
0.0798581572605248
 50
24.2197331930250712
 51
96.2517697736893183
  0
ARC
  5
AB41
  8
0
 10
3589.2041306092860395
 20
252.112144468120789
 30
0.0
 40
0.2169649461992935
 50
5.543824653154771
 51
23.6742381801913098
  0
LINE
  5
AB42
  8
0
 10
3589.4200807228357917
 20
252.1331048196678069
 30
0.0
 11
3589.4240533778961435
 21
251.9863489005369104
 31
0.0
  0
LINE
  5
AB43
  8
0
 10
3589.4307376080528229
 20
251.987013452173187
 30
0.0
 11
3589.4307376080528229
 21
251.9995432708271039
 31
0.0
  0
LINE
  5
AB44
  8
0
 10
3589.4307376080528229
 20
251.9995432708271039
 30
0.0
 11
3589.4740446947530472
 21
251.9995497499272119
 31
0.0
  0
ARC
  5
AB45
  8
0
 10
3589.474041749267144
 20
252.0192377348132027
 30
0.0
 40
0.0196879851064604
 50
270.0085719245948894
 51
359.9914280753856133
  0
LINE
  5
AB46
  8
0
 10
3589.4937297341530211
 20
252.0192347893271858
 30
0.0
 11
3589.4937809779439704
 21
252.3617544704939064
 31
0.0
  0
ARC
  5
AB47
  8
0
 10
3589.5331569926320299
 20
252.3617485795149094
 30
0.0
 40
0.0393760151289699
 50
90.0832019472980647
 51
179.9914280753854996
  0
LINE
  5
AB48
  8
0
 10
3589.5330998128529245
 20
252.4011245531270902
 30
0.0
 11
3590.8323124112539517
 21
252.4011245531270902
 31
0.0
  0
ARC
  5
AB49
  8
0
 10
3590.8323124110420395
 20
252.3617544742396035
 30
0.0
 40
0.0393700789113817
 50
0.0000001274159721
 51
90.0019932473440747
  0
LINE
  5
AB4A
  8
0
 10
3590.8716824899529456
 20
252.3617544743271992
 30
0.0
 11
3590.8716824905468457
 21
252.094796983689406
 31
0.0
  0
ARC
  5
AB4B
  8
0
 10
3593.1606157279470608
 20
266.3232917621904789
 30
0.0
 40
11.8930629476675502
 50
238.1926437986629139
 51
270.0132954888701988
  0
LINE
  5
AB4C
  8
0
 10
3586.1850253711431833
 20
257.0611727170465883
 30
0.0
 11
3586.1780737717531338
 21
256.7037091330270755
 31
0.0
  0
ARC
  5
AB4D
  8
0
 10
3577.6493971410691302
 20
243.4419014322670023
 30
0.0
 40
15.7674940482853607
 50
54.1126501951448802
 51
57.2549042914345065
  0
ARC
  5
AB4E
  8
0
 10
3859.517584140496183
 20
249.2849660793744988
 30
0.0
 40
273.4401681670088919
 50
178.4453095274052998
 51
179.0944388275161998
  0
ARC
  5
AB4F
  8
0
 10
3861.7400379534010426
 20
249.2498372183409003
 30
0.0
 40
275.6628995919384124
 50
179.0944388275161998
 51
179.4695711594175975
  0
ARC
  5
AB50
  8
0
 10
3593.1828720081171014
 20
200.7534312599798056
 30
0.0
 40
53.5193737539187708
 50
90.0208721863184849
 51
92.8714117254527451
  0
ARC
  5
AB51
  8
0
 10
3593.1541148545338729
 20
201.3267673221278073
 30
0.0
 40
52.9453169500731065
 50
92.8714117254527451
 51
96.0805150526107781
  0
ARC
  5
AB52
  8
0
 10
3671.5663247113170655
 20
-534.7637846983864165
 30
0.0
 40
793.2005266098833545
 50
96.0805150526107781
 51
96.184461354423604
  0
ARC
  5
AB53
  8
0
 10
3598.6468972449570174
 20
262.1386876566792807
 30
0.0
 40
0.5905585650452146
 50
63.2827276024558216
 51
89.9972155770997233
  0
ARC
  5
AB54
  8
0
 10
3598.6468249156578167
 20
262.1385439538137234
 30
0.0
 40
0.5907194440093237
 50
45.0094954931181732
 51
63.2827276024558216
  0
ARC
  5
AB55
  8
0
 10
3523.9927486176079583
 20
186.6648794476971034
 30
0.0
 40
106.7486366920308996
 50
44.0636429180873108
 51
45.3111118046100927
  0
ARC
  5
AB56
  8
0
 10
3600.0023223356779454
 20
260.4061774142808758
 30
0.0
 40
0.8561407332218532
 50
359.7920152082762115
 51
35.5511378093158186
  0
LINE
  5
AB57
  8
0
 10
3600.8584574282049289
 20
260.403069613627224
 30
0.0
 11
3600.8584574282049289
 21
258.0001308832270865
 31
0.0
  0
ARC
  5
AB58
  8
0
 10
3600.0691097499648095
 20
257.9980283244876205
 30
0.0
 40
0.7893504784928084
 50
308.5812285144326097
 51
0.152616471000028
  0
ARC
  5
AB59
  8
0
 10
3593.1647131118129437
 20
266.6403136378276031
 30
0.0
 40
11.8509861765087301
 50
269.9935321817105773
 51
308.6189676094347192
  0
LINE
  5
AB5A
  8
0
 10
3600.8584574282049289
 20
259.2139913842834744
 30
0.0
 11
3600.5615570394470524
 21
259.2168021860272233
 31
0.0
  0
ARC
  5
AB5B
  8
0
 10
3591.3084666567187924
 20
271.3365045487785778
 30
0.0
 40
15.2481758578730098
 50
302.6689150446272834
 51
307.3608308676584215
  0
ARC
  5
AB5C
  8
0
 10
3592.5037483404598788
 20
268.2593308669735279
 30
0.0
 40
12.0304399194566294
 50
293.5580546321137945
 51
305.7890601245176185
  0
ARC
  5
AB5D
  8
0
 10
3593.1659125531809877
 20
266.9548436783695138
 30
0.0
 40
10.5703685706057406
 50
269.9862466300019719
 51
293.094053435160788
  0
ARC
  5
AB5E
  8
0
 10
3593.1739921639218664
 20
250.0061136824284915
 30
0.0
 40
10.3240335360523208
 50
77.39461818329859
 51
90.0589208330122091
  0
ARC
  5
AB5F
  8
0
 10
3593.185385729635982
 20
248.1117195249985059
 30
0.0
 40
12.1776817502897892
 50
58.5502291785225069
 51
79.3924851055086975
  0
ARC
  5
AB60
  8
0
 10
3593.1563782975281356
 20
240.6853628362061102
 30
0.0
 40
6.3313437000927877
 50
270.0633198507374004
 51
293.4766902478808106
  0
ARC
  5
AB61
  8
0
 10
3592.9338167984219581
 20
241.1977932380515028
 30
0.0
 40
6.8900193999558947
 50
293.4766769959189787
 51
338.0298219631678762
  0
ARC
  5
AB62
  8
0
 10
3586.5586358267150899
 20
243.7696744710021051
 30
0.0
 40
13.7644288653874298
 50
338.0298219631678762
 51
352.6172492547324282
  0
ARC
  5
AB63
  8
0
 10
3561.5765267470392246
 20
247.006636351346998
 30
0.0
 40
38.9553735932777272
 50
352.6172492547324282
 51
357.4477835588523931
  0
ARC
  5
AB64
  8
0
 10
3505.5858460351860231
 20
249.8469504651598925
 30
0.0
 40
95.0176169259962649
 50
357.240205798309205
 51
0.9024526316208643
  0
ARC
  5
AB65
  8
0
 10
3600.0904821716821971
 20
251.322456364618688
 30
0.0
 40
0.5016358585594456
 50
2.4030292624614442
 51
72.8600231858490446
  0
ARC
  5
AB66
  8
0
 10
3593.1617329888640597
 20
211.7845724604852933
 30
0.0
 40
40.6469372110904104
 50
80.158909042351965
 51
83.857955626447108
  0
ARC
  5
AB67
  8
0
 10
3599.991571976312116
 20
251.0722722364010053
 30
0.0
 40
0.7701388211204313
 50
71.3134026615270216
 51
81.2331818875271239
  0
ARC
  5
AB68
  8
0
 10
3597.5048157657470256
 20
252.1433604959676131
 30
0.0
 40
0.055138291740338
 50
83.8746770655813521
 51
180.6514552692104019
  0
LINE
  5
AB69
  8
0
 10
3597.4496810380460374
 20
252.142733584927214
 30
0.0
 11
3597.4496810358468792
 21
251.932125689152798
 31
0.0
  0
LINE
  5
AB6A
  8
0
 10
3597.4496810358468792
 20
251.932125689152798
 30
0.0
 11
3597.3199594131469894
 21
251.9455997886271916
 31
0.0
  0
ARC
  5
AB6B
  8
0
 10
3593.121366068340194
 20
211.2030810280645028
 30
0.0
 40
40.9582839121690867
 50
84.1163308635301945
 51
89.9412326569565863
  0
ARC
  5
AB6C
  8
0
 10
3597.4496834242690966
 20
252.0794145933633956
 30
0.0
 40
0.0393724672391974
 50
90.0555059427418598
 51
179.998340514798798
  0
LINE
  5
AB6D
  8
0
 10
3597.4103109570469314
 20
252.0794157337271884
 30
0.0
 11
3597.4103068070471636
 21
251.9361318713849869
 31
0.0
  0
ARC
  5
AB6E
  8
0
 10
3595.2157597862119474
 20
251.991035917755994
 30
0.0
 40
2.187809630667072
 50
358.5843258730882894
 51
3.8558406777970862
  0
ARC
  5
AB6F
  8
0
 10
3597.3265060134658597
 20
252.1332978782459975
 30
0.0
 40
0.0722746861976208
 50
3.8558406777970862
 51
82.1078772136392274
  0
ARC
  5
AB70
  8
0
 10
3016.9014724275789376
 20
-4425.1289679256551608
 30
0.0
 40
4713.2108736740074164
 50
82.9260296425376566
 51
82.9300777974024328
  0
ARC
  5
AB71
  8
0
 10
3596.9972615045107887
 20
252.1665029278221084
 30
0.0
 40
0.0798581572605248
 50
83.7482302263106959
 51
155.7802668069749075
  0
ARC
  5
AB72
  8
0
 10
3597.1231384283141779
 20
252.112144468120789
 30
0.0
 40
0.2169649461992656
 50
156.325761819805706
 51
174.4561753468452139
  0
LINE
  5
AB73
  8
0
 10
3596.907188314763971
 20
252.1331048196678069
 30
0.0
 11
3596.9032156597040739
 21
251.9863489005369104
 31
0.0
  0
LINE
  5
AB74
  8
0
 10
3596.8965314295469398
 20
251.987013452173187
 30
0.0
 11
3596.8965314295469398
 21
251.9995432708271039
 31
0.0
  0
LINE
  5
AB75
  8
0
 10
3596.8965314295469398
 20
251.9995432708271039
 30
0.0
 11
3596.8532243428471702
 21
251.9995497499272119
 31
0.0
  0
ARC
  5
AB76
  8
0
 10
3596.8532272883330734
 20
252.0192377348132027
 30
0.0
 40
0.0196879851064604
 50
180.0085719246143867
 51
269.9914280754049969
  0
LINE
  5
AB77
  8
0
 10
3596.833539303445832
 20
252.0192347893271858
 30
0.0
 11
3596.8334880596571566
 21
252.3617544704939064
 31
0.0
  0
ARC
  5
AB78
  8
0
 10
3596.7941120449681875
 20
252.3617485795149094
 30
0.0
 40
0.0393760151289699
 50
0.0085719246144627
 51
89.9167980527019353
  0
LINE
  5
AB79
  8
0
 10
3596.7941692247468382
 20
252.4011245531270902
 30
0.0
 11
3595.4949579961930795
 21
252.4011245531270902
 31
0.0
  0
ARC
  5
AB7A
  8
0
 10
3595.494956626558178
 20
252.3617544742396035
 30
0.0
 40
0.0393700789113817
 50
89.9980067526559537
 51
179.9999998725839987
  0
LINE
  5
AB7B
  8
0
 10
3595.4555865476468171
 20
252.3617544743271992
 30
0.0
 11
3595.455586547052917
 21
252.094796983689406
 31
0.0
  0
ARC
  5
AB7C
  8
0
 10
3593.1666526090948537
 20
266.3232933466570103
 30
0.0
 40
11.8930646634262605
 50
269.9842123343116782
 51
301.8073550462460162
  0
LINE
  5
AB7D
  8
0
 10
3600.1422436664570341
 20
257.0611727170465883
 30
0.0
 11
3600.1491952658470836
 21
256.7037091330270755
 31
0.0
  0
ARC
  5
AB7E
  8
0
 10
3608.6778718965310873
 20
243.4419014322670023
 30
0.0
 40
15.7674940482853607
 50
122.7450957085655006
 51
125.8873498048551056
  0
ARC
  5
AB7F
  8
0
 10
3326.8034222461651552
 20
249.2848493464207138
 30
0.0
 40
273.4464318806537904
 50
0.9055648898227007
 51
1.554679346196957
  0
ARC
  5
AB80
  8
0
 10
3324.5872310842000843
 20
249.2498372183409003
 30
0.0
 40
275.6628995919384124
 50
0.5304288405823772
 51
0.9055611724837827
  0
ARC
  5
AB81
  8
0
 10
3593.1444083585402041
 20
200.7537318005348936
 30
0.0
 40
53.5190730231747835
 50
87.1285842699566047
 51
89.9796943700463174
  0
ARC
  5
AB82
  8
0
 10
3593.1731541830658898
 20
201.3267673221278073
 30
0.0
 40
52.9453169500731065
 50
83.9194849473892219
 51
87.1285882745472691
  0
ARC
  5
AB83
  8
0
 10
3514.7609443262831519
 20
-534.7637846983864165
 30
0.0
 40
793.2005266098833545
 50
83.8155386455763534
 51
83.9194849473892219
  0
ARC
  5
AB85
  8
0
 10
3593.1644461910232167
 20
205.4184437910423071
 30
0.0
 40
48.2342267270654972
 50
90.0012719443858487
 51
93.4791457199643361
  0
ARC
  5
AB86
  8
0
 10
3593.1843198454680532
 20
205.0915599070791018
 30
0.0
 40
48.5617141859640569
 50
93.4791457198076898
 51
96.6214868381258754
  0
ARC
  5
AB87
  8
0
 10
3593.204174158162914
 20
204.9205258923377926
 30
0.0
 40
48.7338967284332014
 50
96.6214868381258754
 51
98.3767878150031692
  0
ARC
  5
AB88
  8
0
 10
3593.161051372359907
 20
205.4184438426898964
 30
0.0
 40
48.2342267195211178
 50
86.5193653456408782
 51
89.9972393560298087
  0
ARC
  5
AB89
  8
0
 10
3593.1411692229098662
 20
205.0915604677524868
 30
0.0
 40
48.5617141859640569
 50
83.3770242276122246
 51
86.5193653459019316
  0
ARC
  5
AB8A
  8
0
 10
3593.1213104655948882
 20
204.9205269690191074
 30
0.0
 40
48.7338967284332014
 50
81.6217232507179347
 51
83.3770242276122246
  0
CIRCLE
  5
AB8B
  8
0
 10
3593.1633753164528571
 20
258.0066127420270732
 30
0.0
 40
0.7086614173000001
  0
ARC
  5
AB8C
  8
0
 10
3592.8171261484458228
 20
258.5922049863410166
 30
0.0
 40
0.0172669786388267
 50
200.033474457186486
 51
232.0344356376637904
  0
ARC
  5
AB8D
  8
0
 10
3592.805806396360822
 20
258.5880774423710022
 30
0.0
 40
0.0052181858991924
 50
130.6402462620947063
 51
200.0334744571987073
  0
ARC
  5
AB8E
  8
0
 10
3592.8286423574968467
 20
258.5671729394118756
 30
0.0
 40
0.0361452581766782
 50
117.3013589064219957
 51
136.5363051070823985
  0
ARC
  5
AB8F
  8
0
 10
3592.9895979560419619
 20
258.3279642074888898
 30
0.0
 40
0.3242485752934712
 50
113.6090031587316957
 51
123.197417751377202
  0
ARC
  5
AB90
  8
0
 10
3593.1591565180619909
 20
258.0161563128648936
 30
0.0
 40
0.6785504572596039
 50
106.8393377987912061
 51
116.184365594455997
  0
ARC
  5
AB91
  8
0
 10
3593.1228155426529156
 20
258.2109924073438947
 30
0.0
 40
0.4820280480854404
 50
93.2251706515205143
 51
109.4147002344971042
  0
ARC
  5
AB92
  8
0
 10
3593.1633649649211293
 20
258.0090091807301746
 30
0.0
 40
0.6865905493613635
 50
74.0215443823946515
 51
95.6560885426825251
  0
ARC
  5
AB93
  8
0
 10
3593.1652311797251969
 20
258.0100158719764067
 30
0.0
 40
0.6851107069253596
 50
57.1432737307663814
 51
74.1484108211824946
  0
ARC
  5
AB94
  8
0
 10
3593.1633753164560403
 20
258.0066127420301996
 30
0.0
 40
0.6889763779961181
 50
31.8936915333867503
 51
57.167170306585362
  0
ARC
  5
AB95
  8
0
 10
3593.1633753164542213
 20
258.0066127420270163
 30
0.0
 40
0.6889763779990634
 50
340.1892480494594793
 51
31.8936915335414106
  0
ARC
  5
AB96
  8
0
 10
3593.1637800485727894
 20
258.0063199707512922
 30
0.0
 40
0.688496388527579
 50
275.8739917482959072
 51
340.2007550891207757
  0
ARC
  5
AB97
  8
0
 10
3593.1628139755089251
 20
258.0050826021188186
 30
0.0
 40
0.6873652462330209
 50
241.1505497487619039
 51
275.9646522394402268
  0
ARC
  5
AB98
  8
0
 10
3592.992318535612867
 20
257.7037427992166272
 30
0.0
 40
0.341181537093279
 50
236.7352817163377097
 51
241.8115397280350862
  0
ARC
  5
AB99
  8
0
 10
3592.8132567092789031
 20
257.4293245111308011
 30
0.0
 40
0.0135347298318293
 50
207.6940583266749911
 51
233.3512262599296037
  0
ARC
  5
AB9A
  8
0
 10
3592.8077014603209136
 20
257.4255537552289752
 30
0.0
 40
0.00690503880427
 50
149.7564612960293005
 51
201.400218314474813
  0
ARC
  5
AB9B
  8
0
 10
3592.9146349995889977
 20
257.3213375080816263
 30
0.0
 40
0.1560261459856833
 50
121.7834977062930051
 51
136.3515668911261969
  0
ARC
  5
AB9C
  8
0
 10
3592.4524470767501043
 20
258.008406814044406
 30
0.0
 40
0.6721676723344538
 50
304.4263146339761761
 51
327.3777247784801716
  0
ARC
  5
AB9D
  8
0
 10
3592.4547138991529209
 20
258.0066127420271869
 30
0.0
 40
0.6692913385999965
 50
327.4024654678607931
 51
7.1481782922393986
  0
ARC
  5
AB9E
  8
0
 10
3592.4547138991529209
 20
258.0066127420271869
 30
0.0
 40
0.6692913385999062
 50
7.1481782922393986
 51
42.5017529191264103
  0
ARC
  5
AB9F
  8
0
 10
3592.451374846753879
 20
258.0031580407116962
 30
0.0
 40
0.6740871804001075
 50
42.5264953041342295
 51
56.3206373759949699
  0
ARC
  5
ABA0
  8
0
 10
3593.0279141688961317
 20
258.844783256371727
 30
0.0
 40
0.346237426819503
 50
230.2472579312808989
 51
234.160492319187
  0
ARC
  5
ABA1
  8
0
 10
3592.4576173122400178
 20
258.0102005179160187
 30
0.0
 40
0.6528541427320085
 50
46.893436006270889
 51
60.5045614923431216
  0
ARC
  5
ABA2
  8
0
 10
3592.4537448732808116
 20
258.0060632895459207
 30
0.0
 40
0.6585209268357914
 50
22.0691981889127007
 51
46.893436006270889
  0
ARC
  5
ABA3
  8
0
 10
3592.4548729523871771
 20
258.0065206486842158
 30
0.0
 40
0.6573036594651663
 50
345.9486720216809772
 51
22.0691981889127007
  0
ARC
  5
ABA4
  8
0
 10
3592.4551983796241075
 20
258.0064392008376899
 30
0.0
 40
0.6569681946567268
 50
299.514043777981783
 51
345.9486720216809772
  0
ARC
  5
ABA5
  8
0
 10
3593.1714535418941523
 20
258.0148531091411996
 30
0.0
 40
0.7004947379063634
 50
222.1246367226573
 51
235.9114834155583083
  0
ARC
  5
ABA6
  8
0
 10
3593.1633788938829639
 20
258.0066139327748829
 30
0.0
 40
0.6889798315501371
 50
123.9051026736052989
 51
222.0668519828159049
  0
ENDSEC
  0
EOF
