  0
SECTION
  2
HEADER
  9
$ACADVER
  1
AC1009
  9
$INSBASE
 10
944.802248761528972
 20
168.0628154207703915
 30
0.0
  9
$EXTMIN
 10
917.3190013475408477
 20
154.3981466354601082
 30
-0.0000000349181948
  9
$EXTMAX
 10
972.2911793864103629
 20
181.7323249632366071
 30
0.0000000814935746
  9
$LIMMIN
 10
0.0
 20
0.0
  9
$LIMMAX
 10
11.6929133858000007
 20
8.2677165353999982
  9
$ORTHOMODE
 70
     0
  9
$REGENMODE
 70
     1
  9
$FILLMODE
 70
     1
  9
$QTEXTMODE
 70
     0
  9
$MIRRTEXT
 70
     0
  9
$DRAGMODE
 70
     2
  9
$LTSCALE
 40
0.6431102362
  9
$OSMODE
 70
  4095
  9
$ATTMODE
 70
     1
  9
$TEXTSIZE
 40
0.2
  9
$TRACEWID
 40
0.05
  9
$TEXTSTYLE
  7
STANDARD
  9
$CLAYER
  8
0
  9
$CELTYPE
  6
BYLAYER
  9
$CECOLOR
 62
   256
  9
$DIMSCALE
 40
1.0
  9
$DIMASZ
 40
0.1875
  9
$DIMEXO
 40
0.0625
  9
$DIMDLI
 40
0.4443307087
  9
$DIMRND
 40
0.0
  9
$DIMDLE
 40
0.0
  9
$DIMEXE
 40
0.125
  9
$DIMTP
 40
0.01
  9
$DIMTM
 40
0.01
  9
$DIMTXT
 40
1.0
  9
$DIMCEN
 40
0.1052362205
  9
$DIMTSZ
 40
0.0
  9
$DIMTOL
 70
     1
  9
$DIMLIM
 70
     0
  9
$DIMTIH
 70
     0
  9
$DIMTOH
 70
     1
  9
$DIMSE1
 70
     0
  9
$DIMSE2
 70
     0
  9
$DIMTAD
 70
     0
  9
$DIMZIN
 70
     0
  9
$DIMBLK
  1

  9
$DIMASO
 70
     1
  9
$DIMSHO
 70
     1
  9
$DIMPOST
  1
\X
  9
$DIMAPOST
  1

  9
$DIMALT
 70
     1
  9
$DIMALTD
 70
     2
  9
$DIMALTF
 40
25.3999999999999986
  9
$DIMLFAC
 40
1.0
  9
$DIMTOFL
 70
     0
  9
$DIMTVP
 40
0.0
  9
$DIMTIX
 70
     0
  9
$DIMSOXD
 70
     0
  9
$DIMSAH
 70
     0
  9
$DIMBLK1
  1

  9
$DIMBLK2
  1

  9
$DIMSTYLE
  2
STANDARD
  9
$DIMCLRD
 70
     0
  9
$DIMCLRE
 70
     0
  9
$DIMCLRT
 70
     0
  9
$DIMTFAC
 40
1.0
  9
$DIMGAP
 40
0.09
  9
$LUNITS
 70
     2
  9
$LUPREC
 70
     4
  9
$SKETCHINC
 40
0.1
  9
$FILLETRAD
 40
0.0
  9
$AUNITS
 70
     0
  9
$AUPREC
 70
     0
  9
$MENU
  1
.
  9
$ELEVATION
 40
0.0
  9
$PELEVATION
 40
0.0
  9
$THICKNESS
 40
0.0
  9
$LIMCHECK
 70
     0
  9
$BLIPMODE
 70
     0
  9
$CHAMFERA
 40
0.0
  9
$CHAMFERB
 40
0.0
  9
$SKPOLY
 70
     0
  9
$TDCREATE
 40
2458172.5207638889551163
  9
$TDUPDATE
 40
2459122.6375231482088566
  9
$TDINDWG
 40
0.4277669213
  9
$TDUSRTIMER
 40
0.4277669213
  9
$USRTIMER
 70
     1
  9
$ANGBASE
 50
0.0
  9
$ANGDIR
 70
     0
  9
$PDMODE
 70
     0
  9
$PDSIZE
 40
0.3125
  9
$PLINEWID
 40
0.0
  9
$COORDS
 70
     1
  9
$SPLFRAME
 70
     0
  9
$SPLINETYPE
 70
     6
  9
$SPLINESEGS
 70
     8
  9
$ATTDIA
 70
     1
  9
$ATTREQ
 70
     1
  9
$HANDLING
 70
     1
  9
$HANDSEED
  5
B1EC
  9
$SURFTAB1
 70
     6
  9
$SURFTAB2
 70
     6
  9
$SURFTYPE
 70
     6
  9
$SURFU
 70
     6
  9
$SURFV
 70
     6
  9
$UCSNAME
  2

  9
$UCSORG
 10
0.0
 20
0.0
 30
0.0
  9
$UCSXDIR
 10
1.0
 20
0.0
 30
0.0
  9
$UCSYDIR
 10
0.0
 20
1.0
 30
0.0
  9
$PUCSNAME
  2

  9
$PUCSORG
 10
0.0
 20
0.0
 30
0.0
  9
$PUCSXDIR
 10
1.0
 20
0.0
 30
0.0
  9
$PUCSYDIR
 10
0.0
 20
1.0
 30
0.0
  9
$USERI1
 70
     0
  9
$USERI2
 70
     0
  9
$USERI3
 70
     0
  9
$USERI4
 70
     0
  9
$USERI5
 70
     0
  9
$USERR1
 40
0.0
  9
$USERR2
 40
0.0
  9
$USERR3
 40
0.0
  9
$USERR4
 40
0.0
  9
$USERR5
 40
0.0
  9
$WORLDVIEW
 70
     1
  9
$SHADEDGE
 70
     3
  9
$SHADEDIF
 70
    70
  9
$TILEMODE
 70
     1
  9
$MAXACTVP
 70
    64
  9
$PLIMCHECK
 70
     0
  9
$PEXTMIN
 10
1.0000000000000000E+20
 20
1.0000000000000000E+20
 30
1.0000000000000000E+20
  9
$PEXTMAX
 10
-1.0000000000000000E+20
 20
-1.0000000000000000E+20
 30
-1.0000000000000000E+20
  9
$PLIMMIN
 10
0.0
 20
0.0
  9
$PLIMMAX
 10
12.0
 20
9.0
  9
$UNITMODE
 70
     0
  9
$VISRETAIN
 70
     1
  9
$PLINEGEN
 70
     0
  9
$PSLTSCALE
 70
     1
  0
ENDSEC
  0
SECTION
  2
TABLES
  0
TABLE
  2
VPORT
 70
     1
  0
VPORT
  2
*ACTIVE
 70
     0
 10
0.0
 20
0.0
 11
1.0
 21
1.0
 12
478.0628886591455853
 22
78.9320886794185697
 13
0.0
 23
0.0
 14
1.0
 24
1.0
 15
0.0
 25
0.0
 16
0.0
 26
0.0
 36
24.1179433675886514
 17
466.74220170783002
 27
89.133147119929788
 37
0.0
 40
27.6570229536950514
 41
2.6528599605522678
 42
50.0
 43
0.0
 44
0.0
 50
0.0
 51
0.0
 71
     0
 72
   100
 73
     1
 74
     1
 75
     0
 76
     0
 77
     0
 78
     0
  0
ENDTAB
  0
TABLE
  2
LTYPE
 70
     3
  0
LTYPE
  2
CONTINUOUS
 70
     0
  3
Solid line
 72
    65
 73
     0
 40
0.0
  0
LTYPE
  2
PHANTOM2
 70
     0
  3
___ _ _ ___ _ _ ___ _ _ ___ _ _
 72
    65
 73
     6
 40
1.25
 49
0.625
 49
-0.125
 49
0.125
 49
-0.125
 49
0.125
 49
-0.125
  0
ENDTAB
  0
TABLE
  2
LAYER
 70
     2
  0
LAYER
  2
0
 70
     0
 62
   255
  6
CONTINUOUS
  0
LAYER
  2
DEFPOINTS
 70
     0
 62
     7
  6
CONTINUOUS
  0
ENDTAB
  0
TABLE
  2
STYLE
 70
     1
  0
STYLE
  2
STANDARD
 70
     0
 40
0.0
 41
0.8
 50
0.0
 71
     0
 42
0.2
  3
txt
  4

  0
ENDTAB
  0
TABLE
  2
VIEW
 70
     0
  0
ENDTAB
  0
TABLE
  2
UCS
 70
     0
  0
ENDTAB
  0
TABLE
  2
APPID
 70
    11
  0
APPID
  2
ACAD
 70
     0
  0
APPID
  2
ACAD_MLEADERVER
 70
     0
  0
APPID
  2
ACAD_EXEMPT_FROM_CAD_STANDARDS
 70
     0
  0
APPID
  2
ACAD_DSTYLE_DIMJAG
 70
     0
  0
APPID
  2
ACAD_DSTYLE_DIMTALN
 70
     0
  0
APPID
  2
ACAD_NAV_VCDISPLAY
 70
     0
  0
APPID
  2
ACAECLAYERSTANDARD
 70
     0
  0
APPID
  2
ACCMTRANSPARENCY
 70
     0
  0
APPID
  2
DCO15
 70
     0
  0
APPID
  2
ACDBATTR
 70
     0
  0
APPID
  2
ACADANNOTATIVE
 70
     0
  0
ENDTAB
  0
TABLE
  2
DIMSTYLE
 70
     2
  0
DIMSTYLE
  2
STANDARD
 70
     0
  3

  4

  5

  6

  7

 40
1.0
 41
0.1875
 42
0.0625
 43
0.38
 44
0.125
 45
0.0
 46
0.0
 47
0.01
 48
0.01
140
0.15625
141
0.09
142
0.0
143
25.3999999999999986
144
1.0
145
0.0
146
1.0
147
0.09
 71
     1
 72
     0
 73
     1
 74
     1
 75
     0
 76
     0
 77
     0
 78
     4
170
     0
171
     2
172
     0
173
     0
174
     0
175
     0
176
     0
177
     0
178
     0
  0
ENDTAB
  0
ENDSEC
  0
SECTION
  2
BLOCKS
  0
BLOCK
  8
0
  2
$MODEL_SPACE
 70
     0
 10
0.0
 20
0.0
 30
0.0
  3
$MODEL_SPACE
  1

  0
ENDBLK
  5
21
  8
0
  0
BLOCK
 67
     1
  8
0
  2
$PAPER_SPACE
 70
     0
 10
0.0
 20
0.0
 30
0.0
  3
$PAPER_SPACE
  1

  0
ENDBLK
  5
1D
 67
     1
  8
0
  0
ENDSEC
  0
SECTION
  2
ENTITIES
  0
ATTDEF
  5
829
  8
DEFPOINTS
 10
944.7982825285797617
 20
168.0590243963258104
 30
0.0
 40
0.001
  1
K-8262T
  3

  2
MODELNUMBER
 70
     0
1001
ACDBATTR
1070
     0
1070
     1
  0
ATTDEF
  5
82A
  8
DEFPOINTS
 10
944.7982825285797617
 20
168.0573577296590884
 30
0.0
 40
0.001
  1
QUIETUDE
  3

  2
TRADENAME
 70
     0
1001
ACDBATTR
1070
     0
1070
     1
  0
ATTDEF
  5
82B
  8
DEFPOINTS
 10
944.7982825285797617
 20
168.0556910629923948
 30
0.0
 40
0.001
  1
BATH
  3

  2
PRODUCT
 70
     0
1001
ACDBATTR
1070
     0
1070
     1
  0
LINE
  5
B06C
  8
0
 10
917.361248761919569
 20
155.1884438344931141
 30
0.0
 11
917.361248761919569
 21
180.9371870070476973
 31
0.0
  0
LINE
  5
B06D
  8
0
 10
972.2432487611381475
 20
155.1884438344931141
 30
0.0
 11
972.2432487611381475
 21
180.9371870070476973
 31
0.0
  0
LINE
  5
B06E
  8
0
 10
971.4562487611383403
 20
154.4014438344929943
 30
0.0
 11
918.1482487619197173
 21
154.4014438344929943
 31
0.0
  0
LINE
  5
B06F
  8
0
 10
918.1482487619197173
 20
181.7241870070477034
 30
0.0
 11
971.4562487611383403
 21
181.7241870070477034
 31
0.0
  0
ARC
  5
B070
  8
0
 10
971.4562487611383403
 20
155.1884438344931141
 30
0.0
 40
0.787
 50
270.0
 51
359.9999999999992042
  0
ARC
  5
B071
  8
0
 10
918.1482487619197173
 20
155.1884438344931141
 30
0.0
 40
0.787
 50
180.0000000000007958
 51
270.0
  0
ARC
  5
B072
  8
0
 10
918.1482487619197173
 20
180.9371870070476973
 30
0.0
 40
0.787
 50
90.0
 51
180.0000000000007958
  0
ARC
  5
B073
  8
0
 10
971.4562487611383403
 20
180.9371870070476973
 30
0.0
 40
0.787
 50
359.9999999999992042
 51
90.0
  0
ARC
  5
B074
  8
0
 10
1002.0060468914530247
 20
168.2313747550134906
 30
0.0
 40
82.211470968431513
 50
178.7459832871485901
 51
180.1174744242183863
  0
ARC
  5
B075
  8
0
 10
950.7608488163442644
 20
169.3531432084031962
 30
0.0
 40
30.9539964869460285
 50
173.0907781770077065
 51
178.7459832871485901
  0
ARC
  5
B076
  8
0
 10
924.6349706991636594
 20
172.5189885029485879
 30
0.0
 40
4.6370041849602917
 50
93.6974047240213963
 51
173.0907781770077065
  0
ARC
  5
B077
  8
0
 10
981.1018078970962506
 20
-701.2883013467660476
 30
0.0
 40
880.2668823284832342
 50
93.0244607600667592
 51
93.6974047240213963
  0
ARC
  5
B078
  8
0
 10
934.5345059681077373
 20
180.0692143913628058
 30
0.0
 40
2.3199882723836551
 50
273.0244607600666882
 51
311.37141911153509
  0
ARC
  5
B079
  8
0
 10
940.4654335968215264
 20
172.936193778940293
 30
0.0
 40
6.9578926807077961
 50
90.0431539340541036
 51
129.1996607943949869
  0
ARC
  5
B07A
  8
0
 10
942.2186706367486977
 20
-265.236449968477018
 30
0.0
 40
445.1340078529265725
 50
87.174302648773704
 51
90.2263444346482544
  0
ARC
  5
B07B
  8
0
 10
963.8381934529675164
 20
173.8098595716116961
 30
0.0
 40
5.55596094648104
 50
6.841419149355235
 51
86.6509219582063963
  0
ARC
  5
B07C
  8
0
 10
930.4925575392084056
 20
168.9839422051067004
 30
0.0
 40
39.2475899342287207
 50
358.6551652333658922
 51
8.0376593000023355
  0
ARC
  5
B07D
  8
0
 10
949.9721858228440396
 20
169.651862382972098
 30
0.0
 40
28.4068303319630893
 50
177.0372861722113953
 51
179.2835253732897911
  0
ARC
  5
B07E
  8
0
 10
926.35054506074664
 20
170.7712571726837893
 30
0.0
 40
4.7600203262089016
 50
94.8649459384435829
 51
175.7972561501944142
  0
ARC
  5
B07F
  8
0
 10
953.7269860631809024
 20
-262.9952757981333775
 30
0.0
 40
439.3884766230200967
 50
91.472207129217054
 51
93.624915916427085
  0
ARC
  5
B080
  8
0
 10
956.8028189460624162
 20
-382.6750770351688971
 30
0.0
 40
559.1077965845860263
 50
89.8579047816557051
 51
91.472207129217054
  0
ARC
  5
B081
  8
0
 10
957.6690450448159027
 20
170.4903273212811996
 30
0.0
 40
5.9634205792561312
 50
7.6970552310129436
 51
84.9939247625012229
  0
ARC
  5
B082
  8
0
 10
920.0648014215945523
 20
168.0583482104202062
 30
0.0
 40
43.6337007813975077
 50
0.0058659315005289
 51
4.2461336542002961
  0
CIRCLE
  5
B083
  8
0
 10
927.0162603654423492
 20
168.0628154207703915
 30
0.0
 40
1.1558569059146959
  0
ARC
  5
B084
  8
0
 10
922.8277316549317675
 20
168.1681952520150105
 30
0.0
 40
2.9245703725836072
 50
159.7003667818914039
 51
182.0649620633842005
  0
ARC
  5
B085
  8
0
 10
916.8030309108601159
 20
168.1463625471814112
 30
0.0
 40
3.4415494184303999
 50
358.6089497927482057
 51
17.5272162920158507
  0
ARC
  5
B086
  8
0
 10
912.0619697532461032
 20
168.0708398178987011
 30
0.0
 40
7.9160183156769026
 50
359.9419197696374795
 51
4.61688908205522
  0
ARC
  5
B087
  8
0
 10
1124.3372588781330705
 20
167.5182144037190142
 30
0.0
 40
202.784956390096113
 50
179.296768114122699
 51
179.8461257784591965
  0
ARC
  5
B088
  8
0
 10
1002.0060468914530247
 20
167.8942560865272924
 30
0.0
 40
82.211470968431513
 50
179.8825255757815
 51
181.2540167128514099
  0
ARC
  5
B089
  8
0
 10
950.7608488163442644
 20
166.7724876331375867
 30
0.0
 40
30.9539964869460285
 50
181.2540167128514099
 51
186.9092218229922935
  0
ARC
  5
B08A
  8
0
 10
924.6349706991636594
 20
163.6066423385921098
 30
0.0
 40
4.6370041849602917
 50
186.9092218229922935
 51
266.3025952759786037
  0
ARC
  5
B08B
  8
0
 10
981.1018078970962506
 20
1037.4139321883060347
 30
0.0
 40
880.2668823284832342
 50
266.3025952759786037
 51
266.9755392399331981
  0
ARC
  5
B08C
  8
0
 10
934.5345059681077373
 20
156.0564164501780056
 30
0.0
 40
2.3199882723836551
 50
48.6285808884649313
 51
86.9755392399332266
  0
ARC
  5
B08D
  8
0
 10
940.4654335968215264
 20
163.1894370626004047
 30
0.0
 40
6.9578926807077961
 50
230.8003392056048995
 51
269.9568460659459106
  0
ARC
  5
B08E
  8
0
 10
942.2186706367486977
 20
601.362080810017801
 30
0.0
 40
445.1340078529265725
 50
269.7736555653518167
 51
272.8256973512263244
  0
ARC
  5
B08F
  8
0
 10
963.8381934529675164
 20
162.3157712699290869
 30
0.0
 40
5.55596094648104
 50
273.3490780417935753
 51
353.1585808506446824
  0
ARC
  5
B090
  8
0
 10
930.4925575392084056
 20
167.1416886364339973
 30
0.0
 40
39.2475899342287207
 50
351.9623406999976964
 51
1.3448347666333329
  0
ARC
  5
B091
  8
0
 10
949.9721858228440396
 20
166.4737684585685997
 30
0.0
 40
28.4068303319630893
 50
180.7164746267100952
 51
182.9627138277886047
  0
ARC
  5
B092
  8
0
 10
926.35054506074664
 20
165.3543736688569084
 30
0.0
 40
4.7600203262089016
 50
184.2027438498055005
 51
265.1350540615565023
  0
ARC
  5
B093
  8
0
 10
953.7269860631809024
 20
599.1209066396741036
 30
0.0
 40
439.3884766230200967
 50
266.375084083572915
 51
268.5277928707828892
  0
ARC
  5
B094
  8
0
 10
956.8028189460624162
 20
718.8007078767095663
 30
0.0
 40
559.1077965845860263
 50
268.5277928707828892
 51
270.1420952183441955
  0
ARC
  5
B095
  8
0
 10
957.6690450448159027
 20
165.6353035202596118
 30
0.0
 40
5.9634205792561312
 50
275.0060752374988056
 51
352.3029447689871176
  0
ARC
  5
B096
  8
0
 10
920.0648014215945523
 20
168.0672826311206052
 30
0.0
 40
43.6337007813975077
 50
355.753866345799679
 51
359.9941340685085152
  0
ARC
  5
B097
  8
0
 10
922.8277316549316538
 20
167.9574355895256872
 30
0.0
 40
2.9245703725834709
 50
177.9350379366157995
 51
200.2996332181093067
  0
ARC
  5
B098
  8
0
 10
916.8030309108598885
 20
167.9792682943594002
 30
0.0
 40
3.4415494184306068
 50
342.4727837079848882
 51
1.3910502072518329
  0
ARC
  5
B099
  8
0
 10
912.0619697532461032
 20
168.0547910236421103
 30
0.0
 40
7.9160183156769026
 50
355.3831109179448049
 51
0.0580802303625482
  0
ARC
  5
B09A
  8
0
 10
1124.3372588781330705
 20
168.6074164378217972
 30
0.0
 40
202.784956390096113
 50
180.1538742215408035
 51
180.703231885877301
  0
ENDSEC
  0
EOF
