  0
SECTION
  2
HEADER
  9
$ACADVER
  1
AC1009
  9
$INSBASE
 10
4556.8395861995340965
 20
392.4792823179831203
 30
0.0
  9
$EXTMIN
 10
4527.1695973116347886
 20
392.4623926788942754
 30
-0.0000000000112498
  9
$EXTMAX
 10
4557.0688812227690505
 20
414.17001204667298
 30
0.0000000000002956
  9
$LIMMIN
 10
0.0
 20
0.0
  9
$LIMMAX
 10
11.6929133858000007
 20
8.2677165353999982
  9
$ORTHOMODE
 70
     0
  9
$REGENMODE
 70
     1
  9
$FILLMODE
 70
     1
  9
$QTEXTMODE
 70
     0
  9
$MIRRTEXT
 70
     0
  9
$DRAGMODE
 70
     2
  9
$LTSCALE
 40
0.6431102362
  9
$OSMODE
 70
     7
  9
$ATTMODE
 70
     1
  9
$TEXTSIZE
 40
0.2
  9
$TRACEWID
 40
0.05
  9
$TEXTSTYLE
  7
STANDARD
  9
$CLAYER
  8
0
  9
$CELTYPE
  6
BYLAYER
  9
$CECOLOR
 62
   256
  9
$DIMSCALE
 40
1.0
  9
$DIMASZ
 40
0.1875
  9
$DIMEXO
 40
0.0625
  9
$DIMDLI
 40
0.4443307087
  9
$DIMRND
 40
0.0
  9
$DIMDLE
 40
0.0
  9
$DIMEXE
 40
0.125
  9
$DIMTP
 40
0.01
  9
$DIMTM
 40
0.01
  9
$DIMTXT
 40
2.0
  9
$DIMCEN
 40
0.1052362205
  9
$DIMTSZ
 40
0.0
  9
$DIMTOL
 70
     1
  9
$DIMLIM
 70
     0
  9
$DIMTIH
 70
     1
  9
$DIMTOH
 70
     1
  9
$DIMSE1
 70
     0
  9
$DIMSE2
 70
     0
  9
$DIMTAD
 70
     0
  9
$DIMZIN
 70
     0
  9
$DIMBLK
  1

  9
$DIMASO
 70
     1
  9
$DIMSHO
 70
     1
  9
$DIMPOST
  1
\X
  9
$DIMAPOST
  1

  9
$DIMALT
 70
     1
  9
$DIMALTD
 70
     2
  9
$DIMALTF
 40
25.3999999999999986
  9
$DIMLFAC
 40
1.0
  9
$DIMTOFL
 70
     0
  9
$DIMTVP
 40
0.0
  9
$DIMTIX
 70
     0
  9
$DIMSOXD
 70
     0
  9
$DIMSAH
 70
     0
  9
$DIMBLK1
  1

  9
$DIMBLK2
  1

  9
$DIMSTYLE
  2
STANDARD
  9
$DIMCLRD
 70
     0
  9
$DIMCLRE
 70
     0
  9
$DIMCLRT
 70
     0
  9
$DIMTFAC
 40
1.0
  9
$DIMGAP
 40
0.09
  9
$LUNITS
 70
     2
  9
$LUPREC
 70
     4
  9
$SKETCHINC
 40
0.1
  9
$FILLETRAD
 40
0.0
  9
$AUNITS
 70
     0
  9
$AUPREC
 70
     0
  9
$MENU
  1
.
  9
$ELEVATION
 40
0.0
  9
$PELEVATION
 40
0.0
  9
$THICKNESS
 40
0.0
  9
$LIMCHECK
 70
     0
  9
$BLIPMODE
 70
     0
  9
$CHAMFERA
 40
0.0
  9
$CHAMFERB
 40
0.0
  9
$SKPOLY
 70
     0
  9
$TDCREATE
 40
2458060.468368056230247
  9
$TDUPDATE
 40
2459393.6296759261749685
  9
$TDINDWG
 40
1.1555745139
  9
$TDUSRTIMER
 40
1.1555745139
  9
$USRTIMER
 70
     1
  9
$ANGBASE
 50
0.0
  9
$ANGDIR
 70
     0
  9
$PDMODE
 70
     0
  9
$PDSIZE
 40
0.3125
  9
$PLINEWID
 40
0.0
  9
$COORDS
 70
     1
  9
$SPLFRAME
 70
     0
  9
$SPLINETYPE
 70
     6
  9
$SPLINESEGS
 70
     8
  9
$ATTDIA
 70
     1
  9
$ATTREQ
 70
     1
  9
$HANDLING
 70
     1
  9
$HANDSEED
  5
18EC0
  9
$SURFTAB1
 70
     6
  9
$SURFTAB2
 70
     6
  9
$SURFTYPE
 70
     6
  9
$SURFU
 70
     6
  9
$SURFV
 70
     6
  9
$UCSNAME
  2

  9
$UCSORG
 10
0.0
 20
0.0
 30
0.0
  9
$UCSXDIR
 10
1.0
 20
0.0
 30
0.0
  9
$UCSYDIR
 10
0.0
 20
1.0
 30
0.0
  9
$PUCSNAME
  2

  9
$PUCSORG
 10
0.0
 20
0.0
 30
0.0
  9
$PUCSXDIR
 10
1.0
 20
0.0
 30
0.0
  9
$PUCSYDIR
 10
0.0
 20
1.0
 30
0.0
  9
$USERI1
 70
     0
  9
$USERI2
 70
     0
  9
$USERI3
 70
     0
  9
$USERI4
 70
     0
  9
$USERI5
 70
     0
  9
$USERR1
 40
0.0
  9
$USERR2
 40
0.0
  9
$USERR3
 40
0.0
  9
$USERR4
 40
0.0
  9
$USERR5
 40
0.0
  9
$WORLDVIEW
 70
     1
  9
$SHADEDGE
 70
     3
  9
$SHADEDIF
 70
    70
  9
$TILEMODE
 70
     1
  9
$MAXACTVP
 70
    64
  9
$PLIMCHECK
 70
     0
  9
$PEXTMIN
 10
1.0000000000000000E+20
 20
1.0000000000000000E+20
 30
1.0000000000000000E+20
  9
$PEXTMAX
 10
-1.0000000000000000E+20
 20
-1.0000000000000000E+20
 30
-1.0000000000000000E+20
  9
$PLIMMIN
 10
0.0
 20
0.0
  9
$PLIMMAX
 10
12.0
 20
9.0
  9
$UNITMODE
 70
     0
  9
$VISRETAIN
 70
     1
  9
$PLINEGEN
 70
     0
  9
$PSLTSCALE
 70
     1
  0
ENDSEC
  0
SECTION
  2
TABLES
  0
TABLE
  2
VPORT
 70
     1
  0
VPORT
  2
*ACTIVE
 70
     0
 10
0.0
 20
0.0
 11
1.0
 21
1.0
 12
630.7538828218894196
 22
270.7365972602445936
 13
0.0
 23
0.0
 14
1.0
 24
1.0
 15
0.0
 25
0.0
 16
0.0
 26
0.0
 36
60.4960186965801583
 17
3911.3653564453120453
 27
132.5796051025390057
 37
0.0
 40
21.8743872502457215
 41
2.3461538461538458
 42
50.0
 43
0.0
 44
0.0
 50
0.0
 51
0.0
 71
     0
 72
   100
 73
     1
 74
     1
 75
     0
 76
     0
 77
     0
 78
     0
  0
ENDTAB
  0
TABLE
  2
LTYPE
 70
     2
  0
LTYPE
  2
CONTINUOUS
 70
     0
  3
Solid line
 72
    65
 73
     0
 40
0.0
  0
LTYPE
  2
PHANTOM2
 70
     0
  3
___ _ _ ___ _ _ ___ _ _ ___ _ _
 72
    65
 73
     6
 40
1.25
 49
0.625
 49
-0.125
 49
0.125
 49
-0.125
 49
0.125
 49
-0.125
  0
ENDTAB
  0
TABLE
  2
LAYER
 70
     2
  0
LAYER
  2
0
 70
     0
 62
   255
  6
CONTINUOUS
  0
LAYER
  2
DEFPOINTS
 70
     0
 62
     7
  6
CONTINUOUS
  0
ENDTAB
  0
TABLE
  2
STYLE
 70
     1
  0
STYLE
  2
STANDARD
 70
     0
 40
0.0
 41
0.8
 50
0.0
 71
     0
 42
0.2
  3
txt
  4

  0
ENDTAB
  0
TABLE
  2
VIEW
 70
     0
  0
ENDTAB
  0
TABLE
  2
UCS
 70
     0
  0
ENDTAB
  0
TABLE
  2
APPID
 70
    11
  0
APPID
  2
ACAD
 70
     0
  0
APPID
  2
ACAD_MLEADERVER
 70
     0
  0
APPID
  2
ACAD_EXEMPT_FROM_CAD_STANDARDS
 70
     0
  0
APPID
  2
ACAD_NAV_VCDISPLAY
 70
     0
  0
APPID
  2
ACAECLAYERSTANDARD
 70
     0
  0
APPID
  2
ACCMTRANSPARENCY
 70
     0
  0
APPID
  2
ACAD_DSTYLE_DIMJAG
 70
     0
  0
APPID
  2
ACAD_DSTYLE_DIMTALN
 70
     0
  0
APPID
  2
ACDBATTR
 70
     0
  0
APPID
  2
ACADANNOTATIVE
 70
     0
  0
APPID
  2
DCO15
 70
     0
  0
ENDTAB
  0
TABLE
  2
DIMSTYLE
 70
     1
  0
DIMSTYLE
  2
STANDARD
 70
     0
  3

  4

  5

  6

  7

 40
1.0
 41
0.1875
 42
0.0625
 43
0.38
 44
0.125
 45
0.0
 46
0.0
 47
0.01
 48
0.01
140
0.15625
141
0.09
142
0.0
143
25.3999999999999986
144
1.0
145
0.0
146
1.0
147
0.09
 71
     1
 72
     0
 73
     1
 74
     1
 75
     0
 76
     0
 77
     0
 78
     4
170
     0
171
     2
172
     0
173
     0
174
     0
175
     0
176
     0
177
     0
178
     0
  0
ENDTAB
  0
ENDSEC
  0
SECTION
  2
BLOCKS
  0
BLOCK
  8
0
  2
$MODEL_SPACE
 70
     0
 10
0.0
 20
0.0
 30
0.0
  3
$MODEL_SPACE
  1

  0
ENDBLK
  5
21
  8
0
  0
BLOCK
 67
     1
  8
0
  2
$PAPER_SPACE
 70
     0
 10
0.0
 20
0.0
 30
0.0
  3
$PAPER_SPACE
  1

  0
ENDBLK
  5
1D
 67
     1
  8
0
  0
ENDSEC
  0
SECTION
  2
ENTITIES
  0
ATTDEF
  5
159BF
  8
DEFPOINTS
 10
4556.8395863253572315
 20
392.4826536868333164
 30
0.0
 40
0.001
  1
K-80160T-2EX
  3

  2
MODELNUMBER
 70
     0
1001
ACDBATTR
1070
     0
1070
     1
  0
ATTDEF
  5
159C0
  8
DEFPOINTS
 10
4556.8395863253572315
 20
392.4809868464540727
 30
0.0
 40
0.001
  1
INNATE
  3

  2
TRADENAME
 70
     0
1001
ACDBATTR
1070
     0
1070
     1
  0
ATTDEF
  5
159C1
  8
DEFPOINTS
 10
4556.8395863253572315
 20
392.4793203534999861
 30
0.0
 40
0.001
  1
TOILET
  3

  2
PRODUCT
 70
     0
1001
ACDBATTR
1070
     0
1070
     1
  0
LINE
  5
189A5
  8
0
 10
4555.7491518232436647
 20
406.6525070811200067
 30
0.0
 11
4555.7491518232436647
 21
412.9664021448830908
 31
0.0
  0
LINE
  5
189A6
  8
0
 10
4531.4704789227725996
 20
392.4792823179831203
 30
0.0
 11
4555.9001191435263536
 21
392.4792823179831203
 31
0.0
  0
ARC
  5
189A7
  8
0
 10
4527.4337195133630303
 20
409.7828458293234917
 30
0.0
 40
0.039405756633516
 50
142.4913801429433136
 51
191.020438144190706
  0
ARC
  5
189A8
  8
0
 10
4525.7808933351561791
 20
595.3020510751426855
 30
0.0
 40
185.3779986271528912
 50
270.5368197591718058
 51
271.7449822962418011
  0
ARC
  5
189A9
  8
0
 10
4528.4133164824088453
 20
513.8805847193226555
 30
0.0
 40
103.9142416186344064
 50
271.6612619045855013
 51
274.3859705932770225
  0
ARC
  5
189AA
  8
0
 10
4534.0993377176373542
 20
445.0562430841237074
 30
0.0
 40
34.8589785245552335
 50
273.7185766359787067
 51
281.8416441971392032
  0
ARC
  5
189AB
  8
0
 10
4535.6920740513778583
 20
435.7380515959761738
 30
0.0
 40
25.4147068780080687
 50
282.6382108912466151
 51
293.3010233827515094
  0
ARC
  5
189AC
  8
0
 10
4561.9774663855068866
 20
372.1466540636250784
 30
0.0
 40
43.3994519500985234
 50
109.6437675677799035
 51
111.9638118762884034
  0
LINE
  5
189AD
  8
0
 10
4554.2484265497496381
 20
414.1459586218829827
 30
0.0
 11
4555.5862964101434045
 21
414.1459586218829827
 31
0.0
  0
ARC
  5
189AE
  8
0
 10
4553.5834751022666751
 20
395.5730390294698964
 30
0.0
 40
18.5198970593231884
 50
97.9164818286278802
 51
109.2055186898654995
  0
ARC
  5
189AF
  8
0
 10
4547.5017417907010895
 20
413.0445452605770242
 30
0.0
 40
0.0205600481164063
 50
120.8002563640790044
 51
235.9800241239915124
  0
LINE
  5
189B0
  8
0
 10
4527.4024604340429505
 20
409.8068392370830111
 30
0.0
 11
4527.486909669241868
 21
409.9168010559830009
 31
0.0
  0
ARC
  5
189B1
  8
0
 10
4527.5181816247240931
 20
409.8927256117486877
 30
0.0
 40
0.0394659627369873
 50
90.6631217308803343
 51
142.4082856942052899
  0
LINE
  5
189B2
  8
0
 10
4527.3950404360430184
 20
409.7753130586830821
 30
0.0
 11
4527.7671147010432833
 21
407.8700167290830905
 31
0.0
  0
ARC
  5
189B3
  8
0
 10
4520.7542754555242936
 20
826.5774326787494601
 30
0.0
 40
418.7661400895858037
 50
270.9595448048211779
 51
271.4995439273748161
  0
ARC
  5
189B4
  8
0
 10
4531.0545552510211564
 20
483.2271711088915822
 30
0.0
 40
75.2753445540728023
 50
270.5011528936237255
 51
278.1005845338539189
  0
ARC
  5
189B5
  8
0
 10
4536.585543931659231
 20
438.1968341867595882
 30
0.0
 40
29.9275646118636693
 50
279.7654283640940776
 51
285.4118339715454908
  0
ARC
  5
189B6
  8
0
 10
4546.5043599724886008
 20
411.53023796969768
 30
0.0
 40
1.7322788867433281
 50
313.8977850442115027
 51
59.3360644718764192
  0
LINE
  5
189B7
  8
0
 10
4528.4111632726326206
 20
407.5165281901830099
 30
0.0
 11
4531.3932552609330742
 21
392.5426432578831282
 31
0.0
  0
ARC
  5
189B8
  8
0
 10
4531.4704789227725996
 20
392.558022490309213
 30
0.0
 40
0.0787401723261166
 50
191.2631965789896924
 51
270.0
  0
ARC
  5
189B9
  8
0
 10
4528.6692731126868239
 20
407.5688225385075043
 30
0.0
 40
0.2633541121744947
 50
90.1183998906603847
 51
191.4533761155265097
  0
LINE
  5
189BA
  8
0
 10
4544.907279602671224
 20
407.8321760883829938
 30
0.0
 11
4528.6687289002493344
 21
407.8321760883829938
 31
0.0
  0
ARC
  5
189BB
  8
0
 10
4544.9179381583826398
 20
407.8486940163949157
 30
0.0
 40
0.0196582491985689
 50
179.8993066519244906
 51
269.9809489136309821
  0
LINE
  5
189BC
  8
0
 10
4544.8982799395416805
 20
407.8487285643830091
 30
0.0
 11
4544.8982707043942355
 21
409.4431883863500161
 31
0.0
  0
LINE
  5
189BD
  8
0
 10
4544.8932504561716996
 20
409.4418079524406835
 30
0.0
 11
4544.8930314155632004
 21
407.8321760883829938
 31
0.0
  0
LINE
  5
189BE
  8
0
 10
4547.6768301329630049
 20
407.8294275328751723
 30
0.0
 11
4547.6758499020434101
 21
408.2034348231829881
 31
0.0
  0
LINE
  5
189BF
  8
0
 10
4547.6758499020434101
 20
408.2034348231829881
 30
0.0
 11
4547.4597610176433591
 21
408.2034345234829971
 31
0.0
  0
LINE
  5
189C0
  8
0
 10
4547.5108414047426777
 20
408.2558419422829843
 30
0.0
 11
4547.5447030269433526
 21
408.2446329608829956
 31
0.0
  0
LINE
  5
189C1
  8
0
 10
4547.5447030269433526
 20
408.2446329608829956
 30
0.0
 11
4547.6757418740417052
 21
408.2446514557831279
 31
0.0
  0
LINE
  5
189C2
  8
0
 10
4547.6757418740417052
 20
408.2446514557831279
 30
0.0
 11
4547.6745309849420664
 21
408.7133144697830858
 31
0.0
  0
LINE
  5
189C3
  8
0
 10
4547.6745309849420664
 20
408.7133144697830858
 30
0.0
 11
4547.5446384125425539
 21
408.7133137356830161
 31
0.0
  0
LINE
  5
189C4
  8
0
 10
4547.5446384125425539
 20
408.7133137356830161
 30
0.0
 11
4547.5107828560430789
 21
408.7020282038830032
 31
0.0
  0
LINE
  5
189C5
  8
0
 10
4547.4152029531433072
 20
408.7132219780830837
 30
0.0
 11
4547.4488844418428926
 21
408.7020320660831203
 31
0.0
  0
LINE
  5
189C6
  8
0
 10
4547.4775084526427236
 20
408.7011018119829941
 30
0.0
 11
4547.4806848215421269
 21
408.701098572583021
 31
0.0
  0
ARC
  5
189C7
  8
0
 10
4547.4736053295446254
 20
409.0218492784908904
 30
0.0
 40
0.3207712138599095
 50
265.5800012266292924
 51
270.6971884931439263
  0
ARC
  5
189C8
  8
0
 10
4547.4852881932301898
 20
409.0397548847149096
 30
0.0
 40
0.3386875976141204
 50
269.2212236510226262
 51
274.3170154901213778
  0
ARC
  5
189C9
  8
0
 10
4547.4541489769580949
 20
408.7155792053280265
 30
0.0
 40
0.0390172947710818
 50
89.7498319159416411
 51
183.4636298778922878
  0
LINE
  5
189CA
  8
0
 10
4547.4543193359431825
 20
408.7545961281829818
 30
0.0
 11
4547.6744219525417066
 21
408.7546289099830119
 31
0.0
  0
LINE
  5
189CB
  8
0
 10
4547.6744219525417066
 20
408.7546289099830119
 30
0.0
 11
4547.6711369359418313
 21
410.0597335065829725
 31
0.0
  0
ARC
  5
189CC
  8
0
 10
4547.6514454154948908
 20
410.059667178117877
 30
0.0
 40
0.0196916321571155
 50
0.1929930575995885
 51
78.6420696704544184
  0
ARC
  5
189CD
  8
0
 10
4547.6897862995519972
 20
410.2327753942299182
 30
0.0
 40
0.1576160304237063
 50
188.9434260164495925
 51
257.3702027329268844
  0
LINE
  5
189CE
  8
0
 10
4547.534086513944203
 20
410.2082725411830779
 30
0.0
 11
4547.5312828474216076
 21
410.2260109695524193
 31
0.0
  0
LINE
  5
189CF
  8
0
 10
4547.6027144285608301
 20
410.2489048893622794
 30
0.0
 11
4547.6067708912160015
 21
410.2231948222529923
 31
0.0
  0
ARC
  5
189D0
  8
0
 10
4547.6845552214663257
 20
410.2354112007382128
 30
0.0
 40
0.0787378049960861
 50
188.9256491035191061
 51
312.353722222865315
  0
ARC
  5
189D1
  8
0
 10
4546.5513678971110494
 20
411.4815863541941781
 30
0.0
 40
1.7630969776551511
 50
312.2844967420437001
 51
320.4957828648040277
  0
ARC
  5
189D2
  8
0
 10
4546.4968842860143923
 20
411.5215379467309731
 30
0.0
 40
1.8305539406246629
 50
311.615375500558514
 51
320.616011756789419
  0
ARC
  5
189D3
  8
0
 10
4547.764899856950251
 20
410.0941135296750986
 30
0.0
 40
0.0787401579154021
 50
131.61739154777419
 51
179.9991592600547108
  0
ARC
  5
189D4
  8
0
 10
4547.7649000390347283
 20
392.5580226579784835
 30
0.0
 40
0.0787403399954446
 50
185.3947826146105058
 51
270.0000577818307761
  0
LINE
  5
189D5
  8
0
 10
4555.7491518232427552
 20
406.6525070811200067
 30
0.0
 11
4555.7491518232427552
 21
412.9664021448830908
 31
0.0
  0
LINE
  5
189D6
  8
0
 10
4555.7206620339484289
 20
414.0116307446932069
 30
0.0
 11
4555.7205932278502587
 21
411.3074676468668827
 31
0.0
  0
LINE
  5
189D7
  8
0
 10
4555.6861596972430561
 20
411.307478845009598
 30
0.0
 11
4555.6861596972430561
 21
406.7104966330829825
 31
0.0
  0
LINE
  5
189D8
  8
0
 10
4555.6389156045433992
 20
411.3074942092802075
 30
0.0
 11
4555.6389156045433992
 21
392.5580226246830762
 31
0.0
  0
LINE
  5
189D9
  8
0
 10
4555.7176557599132138
 20
406.6525070635357793
 30
0.0
 11
4555.7176557602433604
 21
406.7104966330829825
 31
0.0
  0
LINE
  5
189DA
  8
0
 10
4555.6389156045433992
 20
406.7104966330829825
 30
0.0
 11
4555.7491518232427552
 21
406.7104966329829949
 31
0.0
  0
LINE
  5
189DB
  8
0
 10
4554.4295686992290939
 20
411.3078875014822984
 30
0.0
 11
4555.7205932278502587
 21
411.3074676468668827
 31
0.0
  0
ARC
  5
189DC
  8
0
 10
4554.32979758761212
 20
383.8318239832618133
 30
0.0
 40
27.4762446621077707
 50
89.7919484177917013
 51
95.7122473576389581
  0
ARC
  5
189DD
  8
0
 10
4553.1424592223029322
 20
395.6503624705487141
 30
0.0
 40
15.5982154360854306
 50
95.693461152818557
 51
109.465894007830201
  0
ARC
  5
189DE
  8
0
 10
4547.9313933180910681
 20
410.3941148208821801
 30
0.0
 40
0.0393497342751908
 50
141.4107175489583881
 51
289.334431903925406
  0
ARC
  5
189DF
  8
0
 10
4546.4996081995586792
 20
411.5349655917693212
 30
0.0
 40
1.7913739328584151
 50
321.4529636572028153
 51
56.426898146347213
  0
ARC
  5
189E0
  8
0
 10
4555.5601752420179764
 20
392.5580226805067241
 30
0.0
 40
0.0787403625238583
 50
270.0001491865227194
 51
359.9999593797118109
  0
ARC
  5
189E1
  8
0
 10
4555.6861596972430561
 20
412.9664021448830908
 30
0.0
 40
0.0629921259999549
 50
359.9999999999805027
 51
56.8164000951787287
  0
LINE
  5
189E2
  8
0
 10
4555.6141556842430873
 20
414.1343279874830046
 30
0.0
 11
4555.7091199526430501
 21
414.0394800752829951
 31
0.0
  0
ARC
  5
189E3
  8
0
 10
4555.6812919911426434
 20
414.0116303925315719
 30
0.0
 40
0.0393700428068703
 50
0.0005125057153145
 51
45.0223525251974692
  0
ARC
  5
189E4
  8
0
 10
4555.5859113681881354
 20
414.1058548426486254
 30
0.0
 40
0.0401056276124462
 50
45.2311607736651524
 51
89.4499121642404162
  0
LINE
  5
189E5
  8
0
 10
4547.4532913290431679
 20
408.25583398798301
 30
0.0
 11
4547.4198346884431885
 21
408.244709567282996
 31
0.0
  0
LINE
  5
189E6
  8
0
 10
4547.4198346884431885
 20
408.244709567282996
 30
0.0
 11
4547.4198566430432038
 21
408.2425131887829934
 31
0.0
  0
ARC
  5
189E7
  8
0
 10
4547.4595851732328811
 20
408.2431680615605956
 30
0.0
 40
0.0397339271833558
 50
180.9443603450868068
 51
270.2535660616931068
  0
ARC
  5
189E8
  8
0
 10
4547.5723337526951582
 20
408.2209213415767977
 30
0.0
 40
0.0196914746964772
 50
297.3730836396767927
 51
359.9353167788323162
  0
LINE
  5
189E9
  8
0
 10
4547.592044308243203
 20
408.244639642683012
 30
0.0
 11
4547.5920252148416694
 21
408.2208991111830869
 31
0.0
  0
LINE
  5
189EA
  8
0
 10
4547.5555557929428687
 20
408.2446344926830761
 30
0.0
 11
4547.5555562151430422
 21
408.2043703588830112
 31
0.0
  0
LINE
  5
189EB
  8
0
 10
4547.5555562151430422
 20
408.2043703588830112
 30
0.0
 11
4547.4510106040679602
 21
408.2043703588830112
 31
0.0
  0
ARC
  5
189EC
  8
0
 10
4545.1603383210449465
 20
407.986240491645674
 30
0.0
 40
0.0433068871024333
 50
0.0008404302543362
 51
179.9998196232934049
  0
CIRCLE
  5
189ED
  8
0
 10
4545.1605218468876046
 20
409.3720510940531199
 30
0.0
 40
0.0433068165411181
  0
CIRCLE
  5
189EE
  8
0
 10
4545.1605106795686879
 20
409.2460510945479086
 30
0.0
 40
0.0433068165411181
  0
CIRCLE
  5
189EF
  8
0
 10
4545.1604995122506807
 20
409.1200510950428111
 30
0.0
 40
0.0433068165411181
  0
CIRCLE
  5
189F0
  8
0
 10
4545.160488344931764
 20
408.9940510955377135
 30
0.0
 40
0.0433068165411181
  0
CIRCLE
  5
189F1
  8
0
 10
4545.1604771776128473
 20
408.8680510960325023
 30
0.0
 40
0.0433068165411181
  0
CIRCLE
  5
189F2
  8
0
 10
4545.1604660102930211
 20
408.7420510965274048
 30
0.0
 40
0.0433068165411181
  0
CIRCLE
  5
189F3
  8
0
 10
4545.1604548429741044
 20
408.6160510970223072
 30
0.0
 40
0.0433068165411181
  0
CIRCLE
  5
189F4
  8
0
 10
4545.1604436756560972
 20
408.4900510975172097
 30
0.0
 40
0.0433068165411181
  0
CIRCLE
  5
189F5
  8
0
 10
4545.1604325083371805
 20
408.3640510980121121
 30
0.0
 40
0.0433068165411181
  0
CIRCLE
  5
189F6
  8
0
 10
4545.1604213410191733
 20
408.2380510985069009
 30
0.0
 40
0.0433068165411181
  0
CIRCLE
  5
189F7
  8
0
 10
4545.1604101736984376
 20
408.1120510990018033
 30
0.0
 40
0.0433068165411181
  0
CIRCLE
  5
189F8
  8
0
 10
4545.1603990063804304
 20
407.9860510994967058
 30
0.0
 40
0.0433068165411181
  0
CIRCLE
  5
189F9
  8
0
 10
4545.2926594859391116
 20
409.4111297899219153
 30
0.0
 40
0.0433068165411181
  0
CIRCLE
  5
189FA
  8
0
 10
4545.2926467514625983
 20
409.2851297905655201
 30
0.0
 40
0.0433068165411181
  0
CIRCLE
  5
189FB
  8
0
 10
4545.2926340169869945
 20
409.1591297912088976
 30
0.0
 40
0.0433068165411181
  0
CIRCLE
  5
189FC
  8
0
 10
4545.2926212825113907
 20
409.0331297918525024
 30
0.0
 40
0.0433068165411181
  0
CIRCLE
  5
189FD
  8
0
 10
4545.2926085480348775
 20
408.9071297924959936
 30
0.0
 40
0.0433068165411181
  0
CIRCLE
  5
189FE
  8
0
 10
4545.2925958135592737
 20
408.7811297931395984
 30
0.0
 40
0.0433068165411181
  0
CIRCLE
  5
189FF
  8
0
 10
4545.2925830790836699
 20
408.6551297937829759
 30
0.0
 40
0.0433068165411181
  0
CIRCLE
  5
18A00
  8
0
 10
4545.2925703446062471
 20
408.5291297944265807
 30
0.0
 40
0.0433068165411181
  0
CIRCLE
  5
18A01
  8
0
 10
4545.2925576101306433
 20
408.403129795070015
 30
0.0
 40
0.0433068165411181
  0
CIRCLE
  5
18A02
  8
0
 10
4545.292544875655949
 20
408.2771297957136198
 30
0.0
 40
0.0433068165411181
  0
CIRCLE
  5
18A03
  8
0
 10
4545.2925321411794357
 20
408.151129796357111
 30
0.0
 40
0.0433068165411181
  0
CIRCLE
  5
18A04
  8
0
 10
4545.2925194067038319
 20
408.0251297970007158
 30
0.0
 40
0.0433068165411181
  0
CIRCLE
  5
18A05
  8
0
 10
4545.4247971805889392
 20
409.4502087220295152
 30
0.0
 40
0.0433068165411181
  0
CIRCLE
  5
18A06
  8
0
 10
4545.4247844461133354
 20
409.3242087226730064
 30
0.0
 40
0.0433068165411181
  0
CIRCLE
  5
18A07
  8
0
 10
4545.4247717116377316
 20
409.1982087233164975
 30
0.0
 40
0.0433068165411181
  0
CIRCLE
  5
18A08
  8
0
 10
4545.4247589771612184
 20
409.0722087239599887
 30
0.0
 40
0.0433068165411181
  0
CIRCLE
  5
18A09
  8
0
 10
4545.4247462426847051
 20
408.9462087246035935
 30
0.0
 40
0.0433068165411181
  0
CIRCLE
  5
18A0A
  8
0
 10
4545.4247335082100108
 20
408.8202087252470847
 30
0.0
 40
0.0433068165411181
  0
CIRCLE
  5
18A0B
  8
0
 10
4545.424720773732588
 20
408.6942087258905758
 30
0.0
 40
0.0433068165411181
  0
CIRCLE
  5
18A0C
  8
0
 10
4545.4247080392578937
 20
408.5682087265341238
 30
0.0
 40
0.0433068165411181
  0
CIRCLE
  5
18A0D
  8
0
 10
4545.4246953047822899
 20
408.4422087271776149
 30
0.0
 40
0.0433068165411181
  0
CIRCLE
  5
18A0E
  8
0
 10
4545.4246825703048671
 20
408.3162087278211061
 30
0.0
 40
0.0433068165411181
  0
CIRCLE
  5
18A0F
  8
0
 10
4545.4246698358301728
 20
408.1902087284647109
 30
0.0
 40
0.0433068165411181
  0
CIRCLE
  5
18A10
  8
0
 10
4545.42465710135275
 20
408.0642087291082021
 30
0.0
 40
0.0433068165411181
  0
CIRCLE
  5
18A11
  8
0
 10
4545.5569348753888335
 20
409.4892876580053098
 30
0.0
 40
0.0433068165411181
  0
CIRCLE
  5
18A12
  8
0
 10
4545.5569221409141392
 20
409.3632876586489147
 30
0.0
 40
0.0433068165411181
  0
CIRCLE
  5
18A13
  8
0
 10
4545.5569094064376259
 20
409.2372876592922921
 30
0.0
 40
0.0433068165411181
  0
CIRCLE
  5
18A14
  8
0
 10
4545.5568966719611126
 20
409.111287659935897
 30
0.0
 40
0.0433068165411181
  0
CIRCLE
  5
18A15
  8
0
 10
4545.5568839374864183
 20
408.9852876605793881
 30
0.0
 40
0.0433068165411181
  0
CIRCLE
  5
18A16
  8
0
 10
4545.556871203009905
 20
408.8592876612229929
 30
0.0
 40
0.0433068165411181
  0
CIRCLE
  5
18A17
  8
0
 10
4545.5568584685343012
 20
408.7332876618664272
 30
0.0
 40
0.0433068165411181
  0
CIRCLE
  5
18A18
  8
0
 10
4545.5568457340568784
 20
408.6072876625099752
 30
0.0
 40
0.0433068165411181
  0
CIRCLE
  5
18A19
  8
0
 10
4545.5568329995821841
 20
408.4812876631535232
 30
0.0
 40
0.0433068165411181
  0
CIRCLE
  5
18A1A
  8
0
 10
4545.5568202651056708
 20
408.3552876637971281
 30
0.0
 40
0.0433068165411181
  0
CIRCLE
  5
18A1B
  8
0
 10
4545.556807530630067
 20
408.2292876644405055
 30
0.0
 40
0.0433068165411181
  0
CIRCLE
  5
18A1C
  8
0
 10
4545.5567947961535538
 20
408.1032876650841104
 30
0.0
 40
0.0433068165411181
  0
CIRCLE
  5
18A1D
  8
0
 10
4545.5567820616788595
 20
407.9772876657274878
 30
0.0
 40
0.0433068165411181
  0
CIRCLE
  5
18A1E
  8
0
 10
4545.6890725705889054
 20
409.5283665945303255
 30
0.0
 40
0.0433068165411181
  0
CIRCLE
  5
18A1F
  8
0
 10
4545.6890598361142111
 20
409.4023665951738167
 30
0.0
 40
0.0433068165411181
  0
CIRCLE
  5
18A20
  8
0
 10
4545.6890471016376978
 20
409.2763665958173078
 30
0.0
 40
0.0433068165411181
  0
CIRCLE
  5
18A21
  8
0
 10
4545.689034367162094
 20
409.150366596460799
 30
0.0
 40
0.0433068165411181
  0
CIRCLE
  5
18A22
  8
0
 10
4545.6890216326873997
 20
409.0243665971042901
 30
0.0
 40
0.0433068165411181
  0
CIRCLE
  5
18A23
  8
0
 10
4545.6890088982099769
 20
408.898366597747895
 30
0.0
 40
0.0433068165411181
  0
CIRCLE
  5
18A24
  8
0
 10
4545.6889961637343731
 20
408.7723665983913861
 30
0.0
 40
0.0433068165411181
  0
CIRCLE
  5
18A25
  8
0
 10
4545.6889834292587693
 20
408.6463665990348773
 30
0.0
 40
0.0433068165411181
  0
CIRCLE
  5
18A26
  8
0
 10
4545.688970694782256
 20
408.5203665996784252
 30
0.0
 40
0.0433068165411181
  0
CIRCLE
  5
18A27
  8
0
 10
4545.6889579603057427
 20
408.3943666003219732
 30
0.0
 40
0.0433068165411181
  0
CIRCLE
  5
18A28
  8
0
 10
4545.6889452258310484
 20
408.2683666009655212
 30
0.0
 40
0.0433068165411181
  0
CIRCLE
  5
18A29
  8
0
 10
4545.6889324913536257
 20
408.1423666016090124
 30
0.0
 40
0.0433068165411181
  0
CIRCLE
  5
18A2A
  8
0
 10
4545.6889197568789314
 20
408.0163666022525035
 30
0.0
 40
0.0433068165411181
  0
CIRCLE
  5
18A2B
  8
0
 10
4545.8212102659899756
 20
409.5674455315163982
 30
0.0
 40
0.0433068165411181
  0
CIRCLE
  5
18A2C
  8
0
 10
4545.8211975315143718
 20
409.441445532160003
 30
0.0
 40
0.0433068165411181
  0
CIRCLE
  5
18A2D
  8
0
 10
4545.821184797038768
 20
409.3154455328034942
 30
0.0
 40
0.0433068165411181
  0
CIRCLE
  5
18A2E
  8
0
 10
4545.8211720625622547
 20
409.1894455334469853
 30
0.0
 40
0.0433068165411181
  0
CIRCLE
  5
18A2F
  8
0
 10
4545.8211593280857414
 20
409.0634455340904765
 30
0.0
 40
0.0433068165411181
  0
CIRCLE
  5
18A30
  8
0
 10
4545.8211465936110471
 20
408.9374455347340245
 30
0.0
 40
0.0433068165411181
  0
CIRCLE
  5
18A31
  8
0
 10
4545.8211338591336244
 20
408.8114455353775725
 30
0.0
 40
0.0433068165411181
  0
CIRCLE
  5
18A32
  8
0
 10
4545.8211211246589301
 20
408.6854455360211205
 30
0.0
 40
0.0433068165411181
  0
CIRCLE
  5
18A33
  8
0
 10
4545.8211083901824168
 20
408.5594455366646116
 30
0.0
 40
0.0433068165411181
  0
CIRCLE
  5
18A34
  8
0
 10
4545.8210956557059035
 20
408.4334455373081028
 30
0.0
 40
0.0433068165411181
  0
CIRCLE
  5
18A35
  8
0
 10
4545.8210829212312092
 20
408.3074455379515939
 30
0.0
 40
0.0433068165411181
  0
CIRCLE
  5
18A36
  8
0
 10
4545.8210701867546959
 20
408.1814455385950851
 30
0.0
 40
0.0433068165411181
  0
CIRCLE
  5
18A37
  8
0
 10
4545.8210574522790921
 20
408.0554455392386899
 30
0.0
 40
0.0433068165411181
  0
CIRCLE
  5
18A38
  8
0
 10
4545.9533479607898698
 20
409.6065244674923065
 30
0.0
 40
0.0433068165411181
  0
CIRCLE
  5
18A39
  8
0
 10
4545.9533352263151755
 20
409.4805244681357976
 30
0.0
 40
0.0433068165411181
  0
CIRCLE
  5
18A3A
  8
0
 10
4545.9533224918386622
 20
409.3545244687792888
 30
0.0
 40
0.0433068165411181
  0
CIRCLE
  5
18A3B
  8
0
 10
4545.9533097573630585
 20
409.2285244694227799
 30
0.0
 40
0.0433068165411181
  0
CIRCLE
  5
18A3C
  8
0
 10
4545.9532970228856357
 20
409.1025244700663848
 30
0.0
 40
0.0433068165411181
  0
CIRCLE
  5
18A3D
  8
0
 10
4545.9532842884109414
 20
408.9765244707098759
 30
0.0
 40
0.0433068165411181
  0
CIRCLE
  5
18A3E
  8
0
 10
4545.9532715539353376
 20
408.8505244713534239
 30
0.0
 40
0.0433068165411181
  0
CIRCLE
  5
18A3F
  8
0
 10
4545.9532588194588243
 20
408.7245244719969151
 30
0.0
 40
0.0433068165411181
  0
CIRCLE
  5
18A40
  8
0
 10
4545.9532460849832205
 20
408.5985244726404062
 30
0.0
 40
0.0433068165411181
  0
CIRCLE
  5
18A41
  8
0
 10
4545.9532333505067072
 20
408.4725244732838974
 30
0.0
 40
0.0433068165411181
  0
CIRCLE
  5
18A42
  8
0
 10
4545.9532206160311034
 20
408.3465244739275022
 30
0.0
 40
0.0433068165411181
  0
CIRCLE
  5
18A43
  8
0
 10
4545.9532078815545901
 20
408.2205244745709933
 30
0.0
 40
0.0433068165411181
  0
CIRCLE
  5
18A44
  8
0
 10
4545.9531951470789863
 20
408.0945244752144845
 30
0.0
 40
0.0433068165411181
  0
CIRCLE
  5
18A45
  8
0
 10
4545.9531824126033825
 20
407.9685244758579756
 30
0.0
 40
0.0433068165411181
  0
CIRCLE
  5
18A46
  8
0
 10
4546.0854856559908512
 20
409.6456034040172085
 30
0.0
 40
0.0433068165411181
  0
CIRCLE
  5
18A47
  8
0
 10
4546.0854729215143379
 20
409.5196034046606997
 30
0.0
 40
0.0433068165411181
  0
CIRCLE
  5
18A48
  8
0
 10
4546.0854601870387341
 20
409.3936034053043045
 30
0.0
 40
0.0433068165411181
  0
CIRCLE
  5
18A49
  8
0
 10
4546.0854474525631304
 20
409.2676034059476819
 30
0.0
 40
0.0433068165411181
  0
CIRCLE
  5
18A4A
  8
0
 10
4546.0854347180866171
 20
409.1416034065912868
 30
0.0
 40
0.0433068165411181
  0
CIRCLE
  5
18A4B
  8
0
 10
4546.0854219836110133
 20
409.0156034072347779
 30
0.0
 40
0.0433068165411181
  0
CIRCLE
  5
18A4C
  8
0
 10
4546.0854092491354095
 20
408.8896034078783828
 30
0.0
 40
0.0433068165411181
  0
CIRCLE
  5
18A4D
  8
0
 10
4546.0853965146588962
 20
408.7636034085218171
 30
0.0
 40
0.0433068165411181
  0
CIRCLE
  5
18A4E
  8
0
 10
4546.0853837801832924
 20
408.6376034091654219
 30
0.0
 40
0.0433068165411181
  0
CIRCLE
  5
18A4F
  8
0
 10
4546.0853710457076886
 20
408.5116034098087994
 30
0.0
 40
0.0433068165411181
  0
CIRCLE
  5
18A50
  8
0
 10
4546.0853583112311753
 20
408.3856034104524042
 30
0.0
 40
0.0433068165411181
  0
CIRCLE
  5
18A51
  8
0
 10
4546.085345576754662
 20
408.2596034110958954
 30
0.0
 40
0.0433068165411181
  0
CIRCLE
  5
18A52
  8
0
 10
4546.0853328422799677
 20
408.1336034117395002
 30
0.0
 40
0.0433068165411181
  0
CIRCLE
  5
18A53
  8
0
 10
4546.0853201078034544
 20
408.0076034123829913
 30
0.0
 40
0.0433068165411181
  0
CIRCLE
  5
18A54
  8
0
 10
4546.2176233531054095
 20
409.6846886887643109
 30
0.0
 40
0.0433068165411181
  0
CIRCLE
  5
18A55
  8
0
 10
4546.2176106186279867
 20
409.5586886894079157
 30
0.0
 40
0.0433068165411181
  0
CIRCLE
  5
18A56
  8
0
 10
4546.2175978841542019
 20
409.4326886900512932
 30
0.0
 40
0.0433068165411181
  0
CIRCLE
  5
18A57
  8
0
 10
4546.2175851496758696
 20
409.306688690694898
 30
0.0
 40
0.0433068165411181
  0
CIRCLE
  5
18A58
  8
0
 10
4546.2175724152002658
 20
409.1806886913382755
 30
0.0
 40
0.0433068165411181
  0
CIRCLE
  5
18A59
  8
0
 10
4546.2175596807255715
 20
409.0546886919818803
 30
0.0
 40
0.0433068165411181
  0
CIRCLE
  5
18A5A
  8
0
 10
4546.2175469462490582
 20
408.9286886926254283
 30
0.0
 40
0.0433068165411181
  0
CIRCLE
  5
18A5B
  8
0
 10
4546.2175342117734544
 20
408.8026886932689763
 30
0.0
 40
0.0433068165411181
  0
CIRCLE
  5
18A5C
  8
0
 10
4546.2175214772978507
 20
408.6766886939124106
 30
0.0
 40
0.0433068165411181
  0
CIRCLE
  5
18A5D
  8
0
 10
4546.2175087428213374
 20
408.5506886945560154
 30
0.0
 40
0.0433068165411181
  0
CIRCLE
  5
18A5E
  8
0
 10
4546.2174960083448241
 20
408.4246886951993929
 30
0.0
 40
0.0433068165411181
  0
CIRCLE
  5
18A5F
  8
0
 10
4546.2174832738692203
 20
408.2986886958429977
 30
0.0
 40
0.0433068165411181
  0
CIRCLE
  5
18A60
  8
0
 10
4546.217470539392707
 20
408.1726886964864889
 30
0.0
 40
0.0433068165411181
  0
CIRCLE
  5
18A61
  8
0
 10
4546.2174578049171032
 20
408.0466886971300937
 30
0.0
 40
0.0433068165411181
  0
CIRCLE
  5
18A62
  8
0
 10
4546.349760992156007
 20
409.72376738463322
 30
0.0
 40
0.0433068165411181
  0
CIRCLE
  5
18A63
  8
0
 10
4546.3497482576804032
 20
409.5977673852767111
 30
0.0
 40
0.0433068165411181
  0
CIRCLE
  5
18A64
  8
0
 10
4546.3497355232038899
 20
409.471767385920316
 30
0.0
 40
0.0433068165411181
  0
CIRCLE
  5
18A65
  8
0
 10
4546.3497227887273766
 20
409.3457673865636934
 30
0.0
 40
0.0433068165411181
  0
CIRCLE
  5
18A66
  8
0
 10
4546.3497100542517728
 20
409.2197673872072983
 30
0.0
 40
0.0433068165411181
  0
CIRCLE
  5
18A67
  8
0
 10
4546.349697319776169
 20
409.0937673878507894
 30
0.0
 40
0.0433068165411181
  0
CIRCLE
  5
18A68
  8
0
 10
4546.3496845852987462
 20
408.9677673884942806
 30
0.0
 40
0.0433068165411181
  0
CIRCLE
  5
18A69
  8
0
 10
4546.3496718508240519
 20
408.8417673891377717
 30
0.0
 40
0.0433068165411181
  0
CIRCLE
  5
18A6A
  8
0
 10
4546.3496591163466292
 20
408.7157673897813197
 30
0.0
 40
0.0433068165411181
  0
CIRCLE
  5
18A6B
  8
0
 10
4546.3496463818719349
 20
408.5897673904248109
 30
0.0
 40
0.0433068165411181
  0
CIRCLE
  5
18A6C
  8
0
 10
4546.3496336473963311
 20
408.4637673910684157
 30
0.0
 40
0.0433068165411181
  0
CIRCLE
  5
18A6D
  8
0
 10
4546.3496209129189083
 20
408.3377673917119068
 30
0.0
 40
0.0433068165411181
  0
CIRCLE
  5
18A6E
  8
0
 10
4546.349608178444214
 20
408.211767392355398
 30
0.0
 40
0.0433068165411181
  0
CIRCLE
  5
18A6F
  8
0
 10
4546.3495954439677007
 20
408.0857673929988891
 30
0.0
 40
0.0433068165411181
  0
CIRCLE
  5
18A70
  8
0
 10
4546.3495827094920969
 20
407.9597673936423803
 30
0.0
 40
0.0433068165411181
  0
CIRCLE
  5
18A71
  8
0
 10
4546.4818986868049251
 20
409.7628463167407062
 30
0.0
 40
0.0433068165411181
  0
CIRCLE
  5
18A72
  8
0
 10
4546.4818859523311403
 20
409.6368463173843111
 30
0.0
 40
0.0433068165411181
  0
CIRCLE
  5
18A73
  8
0
 10
4546.481873217852808
 20
409.5108463180276885
 30
0.0
 40
0.0433068165411181
  0
CIRCLE
  5
18A74
  8
0
 10
4546.4818604833772042
 20
409.3848463186712934
 30
0.0
 40
0.0433068165411181
  0
CIRCLE
  5
18A75
  8
0
 10
4546.4818477489034194
 20
409.2588463193147845
 30
0.0
 40
0.0433068165411181
  0
CIRCLE
  5
18A76
  8
0
 10
4546.4818350144259966
 20
409.1328463199583894
 30
0.0
 40
0.0433068165411181
  0
CIRCLE
  5
18A77
  8
0
 10
4546.4818222799503928
 20
409.0068463206018237
 30
0.0
 40
0.0433068165411181
  0
CIRCLE
  5
18A78
  8
0
 10
4546.4818095454738796
 20
408.8808463212453717
 30
0.0
 40
0.0433068165411181
  0
CIRCLE
  5
18A79
  8
0
 10
4546.4817968109982758
 20
408.754846321888806
 30
0.0
 40
0.0433068165411181
  0
CIRCLE
  5
18A7A
  8
0
 10
4546.4817840765217625
 20
408.6288463225324108
 30
0.0
 40
0.0433068165411181
  0
CIRCLE
  5
18A7B
  8
0
 10
4546.4817713420470682
 20
408.5028463231759019
 30
0.0
 40
0.0433068165411181
  0
CIRCLE
  5
18A7C
  8
0
 10
4546.4817586075696454
 20
408.3768463238195068
 30
0.0
 40
0.0433068165411181
  0
CIRCLE
  5
18A7D
  8
0
 10
4546.4817458730931321
 20
408.2508463244629979
 30
0.0
 40
0.0433068165411181
  0
CIRCLE
  5
18A7E
  8
0
 10
4546.4817331386193473
 20
408.1248463251064891
 30
0.0
 40
0.0433068165411181
  0
CIRCLE
  5
18A7F
  8
0
 10
4546.481720404142834
 20
407.9988463257499802
 30
0.0
 40
0.0433068165411181
  0
CIRCLE
  5
18A80
  8
0
 10
4546.6140363816057288
 20
409.8019252527166145
 30
0.0
 40
0.0433068165411181
  0
CIRCLE
  5
18A81
  8
0
 10
4546.614023647130125
 20
409.6759252533601057
 30
0.0
 40
0.0433068165411181
  0
CIRCLE
  5
18A82
  8
0
 10
4546.6140109126536117
 20
409.5499252540035968
 30
0.0
 40
0.0433068165411181
  0
CIRCLE
  5
18A83
  8
0
 10
4546.6139981781780079
 20
409.423925254647088
 30
0.0
 40
0.0433068165411181
  0
CIRCLE
  5
18A84
  8
0
 10
4546.6139854437024042
 20
409.2979252552906928
 30
0.0
 40
0.0433068165411181
  0
CIRCLE
  5
18A85
  8
0
 10
4546.6139727092258909
 20
409.171925255934184
 30
0.0
 40
0.0433068165411181
  0
CIRCLE
  5
18A86
  8
0
 10
4546.6139599747511966
 20
409.0459252565776751
 30
0.0
 40
0.0433068165411181
  0
CIRCLE
  5
18A87
  8
0
 10
4546.6139472402737738
 20
408.9199252572212231
 30
0.0
 40
0.0433068165411181
  0
CIRCLE
  5
18A88
  8
0
 10
4546.61393450579817
 20
408.7939252578648279
 30
0.0
 40
0.0433068165411181
  0
CIRCLE
  5
18A89
  8
0
 10
4546.6139217713225662
 20
408.6679252585083191
 30
0.0
 40
0.0433068165411181
  0
CIRCLE
  5
18A8A
  8
0
 10
4546.6139090368469624
 20
408.5419252591518102
 30
0.0
 40
0.0433068165411181
  0
CIRCLE
  5
18A8B
  8
0
 10
4546.6138963023704491
 20
408.4159252597953014
 30
0.0
 40
0.0433068165411181
  0
CIRCLE
  5
18A8C
  8
0
 10
4546.6138835678948453
 20
408.2899252604387925
 30
0.0
 40
0.0433068165411181
  0
CIRCLE
  5
18A8D
  8
0
 10
4546.6138708334192415
 20
408.1639252610822837
 30
0.0
 40
0.0433068165411181
  0
CIRCLE
  5
18A8E
  8
0
 10
4546.6138580989418188
 20
408.0379252617258885
 30
0.0
 40
0.0433068165411181
  0
CIRCLE
  5
18A8F
  8
0
 10
4546.7461740768058007
 20
409.8410041892415734
 30
0.0
 40
0.0433068165411181
  0
CIRCLE
  5
18A90
  8
0
 10
4546.7461613423301969
 20
409.7150041898850077
 30
0.0
 40
0.0433068165411181
  0
CIRCLE
  5
18A91
  8
0
 10
4546.7461486078536836
 20
409.5890041905286125
 30
0.0
 40
0.0433068165411181
  0
CIRCLE
  5
18A92
  8
0
 10
4546.7461358733789893
 20
409.46300419117199
 30
0.0
 40
0.0433068165411181
  0
CIRCLE
  5
18A93
  8
0
 10
4546.7461231389015666
 20
409.3370041918155948
 30
0.0
 40
0.0433068165411181
  0
CIRCLE
  5
18A94
  8
0
 10
4546.7461104044259628
 20
409.211004192459086
 30
0.0
 40
0.0433068165411181
  0
CIRCLE
  5
18A95
  8
0
 10
4546.746097669950359
 20
409.0850041931026908
 30
0.0
 40
0.0433068165411181
  0
CIRCLE
  5
18A96
  8
0
 10
4546.7460849354747552
 20
408.9590041937461251
 30
0.0
 40
0.0433068165411181
  0
CIRCLE
  5
18A97
  8
0
 10
4546.7460722009991514
 20
408.8330041943896731
 30
0.0
 40
0.0433068165411181
  0
CIRCLE
  5
18A98
  8
0
 10
4546.7460594665217286
 20
408.7070041950331074
 30
0.0
 40
0.0433068165411181
  0
CIRCLE
  5
18A99
  8
0
 10
4546.7460467320470343
 20
408.5810041956767122
 30
0.0
 40
0.0433068165411181
  0
CIRCLE
  5
18A9A
  8
0
 10
4546.7460339975714305
 20
408.4550041963202034
 30
0.0
 40
0.0433068165411181
  0
CIRCLE
  5
18A9B
  8
0
 10
4546.7460212630949172
 20
408.3290041969638082
 30
0.0
 40
0.0433068165411181
  0
CIRCLE
  5
18A9C
  8
0
 10
4546.7460085286193134
 20
408.2030041976071857
 30
0.0
 40
0.0433068165411181
  0
CIRCLE
  5
18A9D
  8
0
 10
4546.7459957941418907
 20
408.0770041982507905
 30
0.0
 40
0.0433068165411181
  0
CIRCLE
  5
18A9E
  8
0
 10
4546.8783117722059615
 20
409.8800831262277029
 30
0.0
 40
0.0433068165411181
  0
CIRCLE
  5
18A9F
  8
0
 10
4546.8782990377312672
 20
409.7540831268711941
 30
0.0
 40
0.0433068165411181
  0
CIRCLE
  5
18AA0
  8
0
 10
4546.8782863032547539
 20
409.6280831275146852
 30
0.0
 40
0.0433068165411181
  0
CIRCLE
  5
18AA1
  8
0
 10
4546.8782735687782406
 20
409.50208312815829
 30
0.0
 40
0.0433068165411181
  0
CIRCLE
  5
18AA2
  8
0
 10
4546.8782608343026368
 20
409.3760831288017243
 30
0.0
 40
0.0433068165411181
  0
CIRCLE
  5
18AA3
  8
0
 10
4546.878248099827033
 20
409.2500831294452723
 30
0.0
 40
0.0433068165411181
  0
CIRCLE
  5
18AA4
  8
0
 10
4546.8782353653514292
 20
409.1240831300888203
 30
0.0
 40
0.0433068165411181
  0
CIRCLE
  5
18AA5
  8
0
 10
4546.8782226308749159
 20
408.9980831307324252
 30
0.0
 40
0.0433068165411181
  0
CIRCLE
  5
18AA6
  8
0
 10
4546.8782098963993121
 20
408.8720831313758026
 30
0.0
 40
0.0433068165411181
  0
CIRCLE
  5
18AA7
  8
0
 10
4546.8781971619218893
 20
408.7460831320194075
 30
0.0
 40
0.0433068165411181
  0
CIRCLE
  5
18AA8
  8
0
 10
4546.878184427447195
 20
408.6200831326627849
 30
0.0
 40
0.0433068165411181
  0
CIRCLE
  5
18AA9
  8
0
 10
4546.8781716929715913
 20
408.4940831333063898
 30
0.0
 40
0.0433068165411181
  0
CIRCLE
  5
18AAA
  8
0
 10
4546.8781589584941685
 20
408.3680831339498809
 30
0.0
 40
0.0433068165411181
  0
CIRCLE
  5
18AAB
  8
0
 10
4546.8781462240185647
 20
408.2420831345934857
 30
0.0
 40
0.0433068165411181
  0
CIRCLE
  5
18AAC
  8
0
 10
4546.8781334895438704
 20
408.11608313523692
 30
0.0
 40
0.0433068165411181
  0
CIRCLE
  5
18AAD
  8
0
 10
4547.0104494670058557
 20
409.9191620622034975
 30
0.0
 40
0.0433068165411181
  0
CIRCLE
  5
18AAE
  8
0
 10
4547.0104367325311614
 20
409.7931620628471023
 30
0.0
 40
0.0433068165411181
  0
CIRCLE
  5
18AAF
  8
0
 10
4547.0104239980546481
 20
409.6671620634904798
 30
0.0
 40
0.0433068165411181
  0
CIRCLE
  5
18AB0
  8
0
 10
4547.0104112635781348
 20
409.5411620641340846
 30
0.0
 40
0.0433068165411181
  0
CIRCLE
  5
18AB1
  8
0
 10
4547.0103985291034405
 20
409.4151620647775758
 30
0.0
 40
0.0433068165411181
  0
CIRCLE
  5
18AB2
  8
0
 10
4547.0103857946269272
 20
409.2891620654211806
 30
0.0
 40
0.0433068165411181
  0
CIRCLE
  5
18AB3
  8
0
 10
4547.0103730601513234
 20
409.1631620660646149
 30
0.0
 40
0.0433068165411181
  0
CIRCLE
  5
18AB4
  8
0
 10
4547.0103603256757197
 20
409.0371620667082198
 30
0.0
 40
0.0433068165411181
  0
CIRCLE
  5
18AB5
  8
0
 10
4547.0103475911992064
 20
408.9111620673515972
 30
0.0
 40
0.0433068165411181
  0
CIRCLE
  5
18AB6
  8
0
 10
4547.0103348567226931
 20
408.7851620679952021
 30
0.0
 40
0.0433068165411181
  0
CIRCLE
  5
18AB7
  8
0
 10
4547.0103221222479988
 20
408.6591620686386932
 30
0.0
 40
0.0433068165411181
  0
CIRCLE
  5
18AB8
  8
0
 10
4547.010309387770576
 20
408.533162069282298
 30
0.0
 40
0.0433068165411181
  0
CIRCLE
  5
18AB9
  8
0
 10
4547.0102966532958817
 20
408.4071620699256755
 30
0.0
 40
0.0433068165411181
  0
CIRCLE
  5
18ABA
  8
0
 10
4547.0102839188193684
 20
408.2811620705692803
 30
0.0
 40
0.0433068165411181
  0
CIRCLE
  5
18ABB
  8
0
 10
4547.0102711843428551
 20
408.1551620712128283
 30
0.0
 40
0.0433068165411181
  0
CIRCLE
  5
18ABC
  8
0
 10
4547.1425871622077466
 20
409.9582409987283995
 30
0.0
 40
0.0433068165411181
  0
CIRCLE
  5
18ABD
  8
0
 10
4547.1425744277312333
 20
409.8322409993720044
 30
0.0
 40
0.0433068165411181
  0
CIRCLE
  5
18ABE
  8
0
 10
4547.14256169325472
 20
409.7062410000154955
 30
0.0
 40
0.0433068165411181
  0
CIRCLE
  5
18ABF
  8
0
 10
4547.1425489587791162
 20
409.5802410006589866
 30
0.0
 40
0.0433068165411181
  0
CIRCLE
  5
18AC0
  8
0
 10
4547.1425362243044219
 20
409.4542410013024778
 30
0.0
 40
0.0433068165411181
  0
CIRCLE
  5
18AC1
  8
0
 10
4547.1425234898269991
 20
409.3282410019460258
 30
0.0
 40
0.0433068165411181
  0
CIRCLE
  5
18AC2
  8
0
 10
4547.1425107553513953
 20
409.2022410025895169
 30
0.0
 40
0.0433068165411181
  0
CIRCLE
  5
18AC3
  8
0
 10
4547.1424980208757916
 20
409.0762410032331218
 30
0.0
 40
0.0433068165411181
  0
CIRCLE
  5
18AC4
  8
0
 10
4547.1424852864001878
 20
408.9502410038766129
 30
0.0
 40
0.0433068165411181
  0
CIRCLE
  5
18AC5
  8
0
 10
4547.142472551922765
 20
408.8242410045201041
 30
0.0
 40
0.0433068165411181
  0
CIRCLE
  5
18AC6
  8
0
 10
4547.1424598174480707
 20
408.6982410051635952
 30
0.0
 40
0.0433068165411181
  0
CIRCLE
  5
18AC7
  8
0
 10
4547.1424470829706479
 20
408.5722410058072001
 30
0.0
 40
0.0433068165411181
  0
CIRCLE
  5
18AC8
  8
0
 10
4547.1424343484959536
 20
408.4462410064506912
 30
0.0
 40
0.0433068165411181
  0
CIRCLE
  5
18AC9
  8
0
 10
4547.1424216140212593
 20
408.3202410070941824
 30
0.0
 40
0.0433068165411181
  0
CIRCLE
  5
18ACA
  8
0
 10
4547.142408879542927
 20
408.1942410077377872
 30
0.0
 40
0.0433068165411181
  0
CIRCLE
  5
18ACB
  8
0
 10
4547.2747248570076408
 20
409.9973199347044215
 30
0.0
 40
0.0433068165411181
  0
CIRCLE
  5
18ACC
  8
0
 10
4547.274712122532037
 20
409.8713199353477989
 30
0.0
 40
0.0433068165411181
  0
CIRCLE
  5
18ACD
  8
0
 10
4547.2746993880546142
 20
409.7453199359914038
 30
0.0
 40
0.0433068165411181
  0
CIRCLE
  5
18ACE
  8
0
 10
4547.2746866535799199
 20
409.6193199366347812
 30
0.0
 40
0.0433068165411181
  0
CIRCLE
  5
18ACF
  8
0
 10
4547.2746739191043162
 20
409.4933199372783861
 30
0.0
 40
0.0433068165411181
  0
CIRCLE
  5
18AD0
  8
0
 10
4547.2746611846268934
 20
409.3673199379218772
 30
0.0
 40
0.0433068165411181
  0
CIRCLE
  5
18AD1
  8
0
 10
4547.2746484501521991
 20
409.2413199385654821
 30
0.0
 40
0.0433068165411181
  0
CIRCLE
  5
18AD2
  8
0
 10
4547.2746357156756858
 20
409.1153199392089164
 30
0.0
 40
0.0433068165411181
  0
CIRCLE
  5
18AD3
  8
0
 10
4547.274622981200082
 20
408.9893199398525212
 30
0.0
 40
0.0433068165411181
  0
CIRCLE
  5
18AD4
  8
0
 10
4547.2746102467235687
 20
408.8633199404958987
 30
0.0
 40
0.0433068165411181
  0
CIRCLE
  5
18AD5
  8
0
 10
4547.2745975122479649
 20
408.7373199411395035
 30
0.0
 40
0.0433068165411181
  0
CIRCLE
  5
18AD6
  8
0
 10
4547.2745847777723611
 20
408.6113199417829946
 30
0.0
 40
0.0433068165411181
  0
CIRCLE
  5
18AD7
  8
0
 10
4547.2745720432958478
 20
408.4853199424265995
 30
0.0
 40
0.0433068165411181
  0
CIRCLE
  5
18AD8
  8
0
 10
4547.274559308820244
 20
408.3593199430699769
 30
0.0
 40
0.0433068165411181
  0
CIRCLE
  5
18AD9
  8
0
 10
4547.2745465743446402
 20
408.2333199437135818
 30
0.0
 40
0.0433068165411181
  0
CIRCLE
  5
18ADA
  8
0
 10
4547.4068625522068032
 20
410.0363988712293235
 30
0.0
 40
0.0433068165411181
  0
CIRCLE
  5
18ADB
  8
0
 10
4547.4068498177321089
 20
409.9103988718728147
 30
0.0
 40
0.0433068165411181
  0
CIRCLE
  5
18ADC
  8
0
 10
4547.4068370832574146
 20
409.7843988725163058
 30
0.0
 40
0.0433068165411181
  0
CIRCLE
  5
18ADD
  8
0
 10
4547.4068243487790824
 20
409.6583988731597969
 30
0.0
 40
0.0433068165411181
  0
CIRCLE
  5
18ADE
  8
0
 10
4547.4068116143043881
 20
409.5323988738032881
 30
0.0
 40
0.0433068165411181
  0
CIRCLE
  5
18ADF
  8
0
 10
4547.4067988798278748
 20
409.4063988744467792
 30
0.0
 40
0.0433068165411181
  0
CIRCLE
  5
18AE0
  8
0
 10
4547.406786145352271
 20
409.2803988750903841
 30
0.0
 40
0.0433068165411181
  0
CIRCLE
  5
18AE1
  8
0
 10
4547.4067734108757577
 20
409.1543988757338752
 30
0.0
 40
0.0433068165411181
  0
CIRCLE
  5
18AE2
  8
0
 10
4547.4067606764001539
 20
409.0283988763774232
 30
0.0
 40
0.0433068165411181
  0
CIRCLE
  5
18AE3
  8
0
 10
4547.4067479419236406
 20
408.9023988770209144
 30
0.0
 40
0.0433068165411181
  0
CIRCLE
  5
18AE4
  8
0
 10
4546.7459830596671964
 20
407.9510041988942817
 30
0.0
 40
0.0433068165411181
  0
CIRCLE
  5
18AE5
  8
0
 10
4546.8781207550673571
 20
407.9900831358805249
 30
0.0
 40
0.0433068165411181
  0
CIRCLE
  5
18AE6
  8
0
 10
4547.0102584498681608
 20
408.0291620718563195
 30
0.0
 40
0.0433068165411181
  0
CIRCLE
  5
18AE7
  8
0
 10
4547.1423961450682327
 20
408.0682410083812215
 30
0.0
 40
0.0433068165411181
  0
CIRCLE
  5
18AE8
  8
0
 10
4547.274533839868127
 20
408.1073199443570161
 30
0.0
 40
0.0433068165411181
  0
CIRCLE
  5
18AE9
  8
0
 10
4547.2745211053916137
 20
407.9813199450006209
 30
0.0
 40
0.0433068165411181
  0
CIRCLE
  5
18AEA
  8
0
 10
4544.0023797663488949
 20
408.4515316773550921
 30
0.0
 40
0.2362204268488665
  0
CIRCLE
  5
18AEB
  8
0
 10
4543.3724584969486386
 20
408.4515240928550952
 30
0.0
 40
0.2362204268488665
  0
CIRCLE
  5
18AEC
  8
0
 10
4542.7425372250481814
 20
408.4515165059551123
 30
0.0
 40
0.2362204268488665
  0
CIRCLE
  5
18AED
  8
0
 10
4542.112616321049245
 20
408.4515091481550826
 30
0.0
 40
0.2362204268488665
  0
LINE
  5
18AEE
  8
0
 10
4546.4777195057667996
 20
407.8292572587299105
 30
0.0
 11
4546.1539011124341414
 21
407.5054387557830182
 31
0.0
  0
LINE
  5
18AEF
  8
0
 10
4546.5343310456255495
 20
407.8292652975891883
 30
0.0
 11
4546.2106139528341373
 21
407.5055481012830114
 31
0.0
  0
LINE
  5
18AF0
  8
0
 10
4546.1539011124341414
 20
407.5054387557830182
 30
0.0
 11
4546.2106139528341373
 21
407.5055481012830114
 31
0.0
  0
LINE
  5
18AF1
  8
0
 10
4547.5501803738434319
 20
408.7105641966829808
 30
0.0
 11
4547.5502474475433701
 21
408.2474100449829848
 31
0.0
  0
LINE
  5
18AF2
  8
0
 10
4547.5502474475433701
 20
408.2474100449829848
 30
0.0
 11
4547.5447030269433526
 21
408.2446329608829956
 31
0.0
  0
LINE
  5
18AF3
  8
0
 10
4547.5501803738434319
 20
408.7105641966829808
 30
0.0
 11
4547.5446384125425539
 21
408.7133137356830161
 31
0.0
  0
LINE
  5
18AF4
  8
0
 10
4547.4089101757417666
 20
408.7173308546829844
 30
0.0
 11
4547.413625385843261
 21
408.2404490190829733
 31
0.0
  0
LINE
  5
18AF5
  8
0
 10
4547.4535297349430039
 20
408.2013702830830084
 30
0.0
 11
4547.675855314081673
 21
408.201369858605517
 31
0.0
  0
ARC
  5
18AF6
  8
0
 10
4547.4478417865466326
 20
408.7177396262056845
 30
0.0
 40
0.0389337567405302
 50
89.6986626388247146
 51
180.6015682868772956
  0
LINE
  5
18AF7
  8
0
 10
4547.4480465510432623
 20
408.7566728444830915
 30
0.0
 11
4547.6744167223550903
 21
408.7567068116126165
 31
0.0
  0
ARC
  5
18AF8
  8
0
 10
4547.4533540853653903
 20
408.2411039930000243
 30
0.0
 40
0.0397340981593639
 50
180.9445021420123965
 51
270.2532840240543806
  0
ARC
  5
18AF9
  8
0
 10
4547.4776675970606448
 20
407.9428602898599934
 30
0.0
 40
0.3139215477779429
 50
89.349543482764318
 51
94.4535479295727782
  0
ARC
  5
18AFA
  8
0
 10
4547.4856521688398061
 20
407.9219663637639997
 30
0.0
 40
0.3348244309139407
 50
85.6854947232589552
 51
90.7565209410753653
  0
LINE
  5
18AFB
  8
0
 10
4547.5924451828432211
 20
408.7430843222829822
 30
0.0
 11
4547.592421240045951
 21
408.7133140057321157
 31
0.0
  0
ARC
  5
18AFC
  8
0
 10
4547.572740041686302
 20
408.7431024349234008
 30
0.0
 40
0.0197051494812379
 50
359.9473346804260245
 51
35.7535306536096726
  0
LINE
  5
18AFD
  8
0
 10
4547.5555508782417746
 20
408.7133137973559087
 30
0.0
 11
4547.5555504451322122
 21
408.7546112054138803
 31
0.0
  0
LINE
  5
18AFE
  8
0
 10
4530.2512491369352574
 20
407.918994836604611
 30
0.0
 11
4530.2512492194427978
 21
407.9032471937829882
 31
0.0
  0
ARC
  5
18AFF
  8
0
 10
4530.3224618655831364
 20
407.9033877856779782
 30
0.0
 40
0.0712127849220887
 50
180.1131163099279888
 51
269.683335625476218
  0
LINE
  5
18B00
  8
0
 10
4531.3685359335431713
 20
407.9229467766830908
 30
0.0
 11
4531.3685359275432347
 21
407.9030206282830022
 31
0.0
  0
LINE
  5
18B01
  8
0
 10
4531.4086547661781879
 20
407.9468505576684834
 30
0.0
 11
4531.4079886895433447
 21
407.9341397836830083
 31
0.0
  0
LINE
  5
18B02
  8
0
 10
4531.3961755977443318
 20
407.9229468415829842
 30
0.0
 11
4530.4236607909324448
 21
407.9229413941511098
 31
0.0
  0
ARC
  5
18B03
  8
0
 10
4531.3961938278944217
 20
407.9347578730105965
 30
0.0
 40
0.0118110454966253
 50
269.9115648857674046
 51
357.000257616166607
  0
ARC
  5
18B04
  8
0
 10
4531.2974966235788088
 20
407.9032156295393179
 30
0.0
 40
0.0710395716002035
 50
270.0530442281101955
 51
359.8427247974440206
  0
LINE
  5
18B05
  8
0
 10
4535.7347904266425758
 20
407.9111599989830097
 30
0.0
 11
4538.2656719514434371
 21
407.9111733455829949
 31
0.0
  0
LINE
  5
18B06
  8
0
 10
4535.6130599289972452
 20
408.0899796998746183
 30
0.0
 11
4535.6168193590419833
 21
408.0226832176829816
 31
0.0
  0
ARC
  5
18B07
  8
0
 10
4535.7347547283852691
 20
408.0292796994531841
 30
0.0
 40
0.1181197058646024
 50
183.2013904355250133
 51
270.0173159892602257
  0
ARC
  5
18B08
  8
0
 10
4538.2656613404242307
 20
408.0292954972811117
 30
0.0
 40
0.1181221521746373
 50
270.0051469312861059
 51
356.7892374449367026
  0
LINE
  5
18B09
  8
0
 10
4538.383598071643064
 20
408.0226795873829815
 30
0.0
 11
4538.3997495012008585
 21
408.311047215823578
 31
0.0
  0
LINE
  5
18B0A
  8
0
 10
4538.6254061994422955
 20
408.3335150781489915
 30
0.0
 11
4538.6166581700426832
 21
407.8321761860830748
 31
0.0
  0
ARC
  5
18B0B
  8
0
 10
4525.1053529887767581
 20
617.2951365058577267
 30
0.0
 40
207.5010167397277883
 50
270.634295995397224
 51
271.7306239563233135
  0
ARC
  5
18B0C
  8
0
 10
4527.7874465753766344
 20
522.542214447002948
 30
0.0
 40
112.7104595029615979
 50
271.8224894412912818
 51
274.3541221602018823
  0
ARC
  5
18B0D
  8
0
 10
4533.0767148730756162
 20
452.4818655506472282
 30
0.0
 40
42.4507735920577929
 50
274.4148911338742209
 51
281.1355060220711835
  0
ARC
  5
18B0E
  8
0
 10
4534.9773119477758883
 20
438.0227926111626857
 30
0.0
 40
27.9122765660630705
 50
283.0400858346284281
 51
292.8667827213599821
  0
ARC
  5
18B0F
  8
0
 10
4560.7559823029678228
 20
375.2824984884621813
 30
0.0
 40
39.9195720204845088
 50
109.3785888957855974
 51
111.9661164044984929
  0
LINE
  5
18B10
  8
0
 10
4555.6813142847449853
 20
414.0303824752829769
 30
0.0
 11
4554.272098667280261
 21
414.0303824752829769
 31
0.0
  0
ARC
  5
18B11
  8
0
 10
4553.5446668977410809
 20
395.7812638023943919
 30
0.0
 40
18.1923037127224312
 50
97.9732691368475201
 51
109.1517856953870051
  0
ARC
  5
18B12
  8
0
 10
4554.4740928964865816
 20
388.3427517549608865
 30
0.0
 40
25.8041936498164795
 50
90.5010772372865659
 51
97.6640352058264511
  0
ARC
  5
18B13
  8
0
 10
4554.4701001697112588
 20
388.4377242186419039
 30
0.0
 40
25.5934241795853694
 50
90.4432686895176658
 51
97.744601125330135
  0
ARC
  5
18B14
  8
0
 10
4555.6812024474756981
 20
413.9878457343763785
 30
0.0
 40
0.0425368879272513
 50
21.9284440164984602
 51
89.8493587310924084
  0
ARC
  5
18B15
  8
0
 10
4527.2236501016213879
 20
473.7109724553163232
 30
0.0
 40
66.65388422730706
 50
285.0569683090768081
 51
287.8957675493160195
  0
LINE
  5
18B17
  8
0
 10
4547.6861597167662694
 20
410.0941184728013127
 30
0.0
 11
4547.6865084770097383
 21
392.5506196757397106
 31
0.0
  0
LINE
  5
18B18
  8
0
 10
4555.6586006597326559
 20
406.7104970135752069
 30
0.0
 11
4555.6586006597326559
 21
406.6525070305654026
 31
0.0
  0
LINE
  5
18B19
  8
0
 10
4555.6389156221339363
 20
406.6525070195751823
 30
0.0
 11
4556.0173861995335756
 21
406.6525072308751874
 31
0.0
  0
LINE
  5
18B1A
  8
0
 10
4556.0173861995335756
 20
406.6525072308751874
 30
0.0
 11
4556.0173858062325962
 21
392.5973895270752791
 31
0.0
  0
ARC
  5
18B1B
  8
0
 10
4555.8992755682365896
 20
392.5973895434194105
 30
0.0
 40
0.118110237996228
 50
270.4092254450583823
 51
359.9999920714091104
  0
ARC
  5
18B1C
  8
0
 10
4555.957827213784185
 20
404.8596390495433752
 30
0.0
 40
0.099414200684155
 50
233.9171518113327863
 51
269.6390505195220726
  0
ARC
  5
18B1D
  8
0
 10
4555.9576391827531552
 20
404.8297920970741188
 30
0.0
 40
0.0695666559380191
 50
269.6390505195220726
 51
329.1871287540158733
  0
ARC
  5
18B1E
  8
0
 10
4551.7907694769146474
 20
399.2144219207605147
 30
0.0
 40
6.9171998733287108
 50
53.5618087351387118
 51
56.1985672944355699
  0
LINE
  5
18B1F
  8
0
 10
4555.6389156221339363
 20
399.8746930077753063
 30
0.0
 11
4555.9066024939384079
 21
399.8746930077753063
 31
0.0
  0
ARC
  5
18B20
  8
0
 10
4555.9029401258658254
 20
398.8132249048376821
 30
0.0
 40
1.0614744210265601
 50
83.8104634283761243
 51
89.8023139834829607
  0
ARC
  5
18B21
  8
0
 10
4555.9029401258658254
 20
398.8132249048376821
 30
0.0
 40
1.0614744210265601
 50
90.1976860165170251
 51
90.197795497589226
  0
LINE
  5
18B22
  8
0
 10
4555.6389156221339363
 20
393.5086478055753219
 30
0.0
 11
4555.8992685666325997
 21
393.5086565579752005
 31
0.0
  0
ARC
  5
18B23
  8
0
 10
4555.8992957551763539
 20
393.3905664860967022
 30
0.0
 40
0.1180900750084488
 50
0.0098792920350758
 51
90.0131915299927527
  0
LINE
  5
18B24
  8
0
 10
4544.9179316219342581
 20
407.8290357682830063
 30
0.0
 11
4547.6768301329630049
 21
407.8294275328751723
 31
0.0
  0
ENDSEC
  0
EOF
