  0
SECTION
  2
HEADER
  9
$ACADVER
  1
AC1009
  9
$INSBASE
 10
3457.8108775196701572
 20
159.8207515680529127
 30
0.0
  9
$EXTMIN
 10
3455.5943556856541363
 20
156.6711455656684109
 30
0.0
  9
$EXTMAX
 10
3457.8222140981420125
 20
162.970357867253
 30
0.0
  9
$LIMMIN
 10
0.0
 20
0.0
  9
$LIMMAX
 10
11.6929133858000007
 20
8.2677165353999982
  9
$ORTHOMODE
 70
     0
  9
$REGENMODE
 70
     1
  9
$FILLMODE
 70
     1
  9
$QTEXTMODE
 70
     0
  9
$MIRRTEXT
 70
     0
  9
$DRAGMODE
 70
     2
  9
$LTSCALE
 40
0.6431102362
  9
$OSMODE
 70
  4095
  9
$ATTMODE
 70
     1
  9
$TEXTSIZE
 40
0.2
  9
$TRACEWID
 40
0.05
  9
$TEXTSTYLE
  7
STANDARD
  9
$CLAYER
  8
0
  9
$CELTYPE
  6
BYLAYER
  9
$CECOLOR
 62
   256
  9
$DIMSCALE
 40
1.0
  9
$DIMASZ
 40
0.1875
  9
$DIMEXO
 40
0.0625
  9
$DIMDLI
 40
0.4443307087
  9
$DIMRND
 40
0.0
  9
$DIMDLE
 40
0.0
  9
$DIMEXE
 40
0.125
  9
$DIMTP
 40
0.01
  9
$DIMTM
 40
0.01
  9
$DIMTXT
 40
2.0
  9
$DIMCEN
 40
0.1052362205
  9
$DIMTSZ
 40
0.0
  9
$DIMTOL
 70
     1
  9
$DIMLIM
 70
     0
  9
$DIMTIH
 70
     1
  9
$DIMTOH
 70
     1
  9
$DIMSE1
 70
     0
  9
$DIMSE2
 70
     0
  9
$DIMTAD
 70
     0
  9
$DIMZIN
 70
     0
  9
$DIMBLK
  1

  9
$DIMASO
 70
     1
  9
$DIMSHO
 70
     1
  9
$DIMPOST
  1
\X
  9
$DIMAPOST
  1

  9
$DIMALT
 70
     1
  9
$DIMALTD
 70
     2
  9
$DIMALTF
 40
25.3999999999999986
  9
$DIMLFAC
 40
1.0
  9
$DIMTOFL
 70
     0
  9
$DIMTVP
 40
0.0
  9
$DIMTIX
 70
     0
  9
$DIMSOXD
 70
     0
  9
$DIMSAH
 70
     0
  9
$DIMBLK1
  1

  9
$DIMBLK2
  1

  9
$DIMSTYLE
  2
STANDARD
  9
$DIMCLRD
 70
     0
  9
$DIMCLRE
 70
     0
  9
$DIMCLRT
 70
     0
  9
$DIMTFAC
 40
1.0
  9
$DIMGAP
 40
0.09
  9
$LUNITS
 70
     2
  9
$LUPREC
 70
     4
  9
$SKETCHINC
 40
0.1
  9
$FILLETRAD
 40
0.0
  9
$AUNITS
 70
     0
  9
$AUPREC
 70
     0
  9
$MENU
  1
.
  9
$ELEVATION
 40
0.0
  9
$PELEVATION
 40
0.0
  9
$THICKNESS
 40
0.0
  9
$LIMCHECK
 70
     0
  9
$BLIPMODE
 70
     0
  9
$CHAMFERA
 40
0.0
  9
$CHAMFERB
 40
0.0
  9
$SKPOLY
 70
     0
  9
$TDCREATE
 40
2458060.468368056230247
  9
$TDUPDATE
 40
2459108.7645486108958721
  9
$TDINDWG
 40
0.5796019676
  9
$TDUSRTIMER
 40
0.5796019676
  9
$USRTIMER
 70
     1
  9
$ANGBASE
 50
0.0
  9
$ANGDIR
 70
     0
  9
$PDMODE
 70
     0
  9
$PDSIZE
 40
0.3125
  9
$PLINEWID
 40
0.0
  9
$COORDS
 70
     1
  9
$SPLFRAME
 70
     0
  9
$SPLINETYPE
 70
     6
  9
$SPLINESEGS
 70
     8
  9
$ATTDIA
 70
     1
  9
$ATTREQ
 70
     1
  9
$HANDLING
 70
     1
  9
$HANDSEED
  5
175B6
  9
$SURFTAB1
 70
     6
  9
$SURFTAB2
 70
     6
  9
$SURFTYPE
 70
     6
  9
$SURFU
 70
     6
  9
$SURFV
 70
     6
  9
$UCSNAME
  2

  9
$UCSORG
 10
0.0
 20
0.0
 30
0.0
  9
$UCSXDIR
 10
1.0
 20
0.0
 30
0.0
  9
$UCSYDIR
 10
0.0
 20
1.0
 30
0.0
  9
$PUCSNAME
  2

  9
$PUCSORG
 10
0.0
 20
0.0
 30
0.0
  9
$PUCSXDIR
 10
1.0
 20
0.0
 30
0.0
  9
$PUCSYDIR
 10
0.0
 20
1.0
 30
0.0
  9
$USERI1
 70
     0
  9
$USERI2
 70
     0
  9
$USERI3
 70
     0
  9
$USERI4
 70
     0
  9
$USERI5
 70
     0
  9
$USERR1
 40
0.0
  9
$USERR2
 40
0.0
  9
$USERR3
 40
0.0
  9
$USERR4
 40
0.0
  9
$USERR5
 40
0.0
  9
$WORLDVIEW
 70
     1
  9
$SHADEDGE
 70
     3
  9
$SHADEDIF
 70
    70
  9
$TILEMODE
 70
     1
  9
$MAXACTVP
 70
    64
  9
$PLIMCHECK
 70
     0
  9
$PEXTMIN
 10
1.0000000000000000E+20
 20
1.0000000000000000E+20
 30
1.0000000000000000E+20
  9
$PEXTMAX
 10
-1.0000000000000000E+20
 20
-1.0000000000000000E+20
 30
-1.0000000000000000E+20
  9
$PLIMMIN
 10
0.0
 20
0.0
  9
$PLIMMAX
 10
12.0
 20
9.0
  9
$UNITMODE
 70
     0
  9
$VISRETAIN
 70
     1
  9
$PLINEGEN
 70
     0
  9
$PSLTSCALE
 70
     1
  0
ENDSEC
  0
SECTION
  2
TABLES
  0
TABLE
  2
VPORT
 70
     1
  0
VPORT
  2
*ACTIVE
 70
     0
 10
0.0
 20
0.0
 11
1.0
 21
1.0
 12
153.0151696575225913
 22
-35.4407598594270894
 13
0.0
 23
0.0
 14
1.0
 24
1.0
 15
0.0
 25
0.0
 16
0.0
 26
0.0
 36
96.5995694866707311
 17
3303.693115234375
 27
195.2615115758877096
 37
0.0
 40
6.351632931001375
 41
2.6486111111111108
 42
50.0
 43
0.0
 44
0.0
 50
0.0
 51
0.0
 71
     0
 72
   100
 73
     1
 74
     1
 75
     0
 76
     0
 77
     0
 78
     0
  0
ENDTAB
  0
TABLE
  2
LTYPE
 70
     2
  0
LTYPE
  2
CONTINUOUS
 70
     0
  3
Solid line
 72
    65
 73
     0
 40
0.0
  0
LTYPE
  2
PHANTOM2
 70
     0
  3
___ _ _ ___ _ _ ___ _ _ ___ _ _
 72
    65
 73
     6
 40
1.25
 49
0.625
 49
-0.125
 49
0.125
 49
-0.125
 49
0.125
 49
-0.125
  0
ENDTAB
  0
TABLE
  2
LAYER
 70
     2
  0
LAYER
  2
0
 70
     0
 62
   255
  6
CONTINUOUS
  0
LAYER
  2
DEFPOINTS
 70
     0
 62
     7
  6
CONTINUOUS
  0
ENDTAB
  0
TABLE
  2
STYLE
 70
     1
  0
STYLE
  2
STANDARD
 70
     0
 40
0.0
 41
0.8
 50
0.0
 71
     0
 42
0.2
  3
txt
  4

  0
ENDTAB
  0
TABLE
  2
VIEW
 70
     0
  0
ENDTAB
  0
TABLE
  2
UCS
 70
     0
  0
ENDTAB
  0
TABLE
  2
APPID
 70
     9
  0
APPID
  2
ACAD
 70
     0
  0
APPID
  2
ACAD_MLEADERVER
 70
     0
  0
APPID
  2
ACAD_EXEMPT_FROM_CAD_STANDARDS
 70
     0
  0
APPID
  2
ACAD_NAV_VCDISPLAY
 70
     0
  0
APPID
  2
ACAECLAYERSTANDARD
 70
     0
  0
APPID
  2
ACCMTRANSPARENCY
 70
     0
  0
APPID
  2
ACAD_DSTYLE_DIMJAG
 70
     0
  0
APPID
  2
ACAD_DSTYLE_DIMTALN
 70
     0
  0
APPID
  2
ACDBATTR
 70
     0
  0
ENDTAB
  0
TABLE
  2
DIMSTYLE
 70
     1
  0
DIMSTYLE
  2
STANDARD
 70
     0
  3

  4

  5

  6

  7

 40
1.0
 41
0.1875
 42
0.0625
 43
0.38
 44
0.125
 45
0.0
 46
0.0
 47
0.01
 48
0.01
140
0.15625
141
0.09
142
0.0
143
25.3999999999999986
144
1.0
145
0.0
146
1.0
147
0.09
 71
     1
 72
     0
 73
     1
 74
     1
 75
     0
 76
     0
 77
     0
 78
     4
170
     0
171
     2
172
     0
173
     0
174
     0
175
     0
176
     0
177
     0
178
     0
  0
ENDTAB
  0
ENDSEC
  0
SECTION
  2
BLOCKS
  0
BLOCK
  8
0
  2
$MODEL_SPACE
 70
     0
 10
0.0
 20
0.0
 30
0.0
  3
$MODEL_SPACE
  1

  0
ENDBLK
  5
21
  8
0
  0
BLOCK
 67
     1
  8
0
  2
$PAPER_SPACE
 70
     0
 10
0.0
 20
0.0
 30
0.0
  3
$PAPER_SPACE
  1

  0
ENDBLK
  5
1D
 67
     1
  8
0
  0
BLOCK
  8
0
  2
_FILLED
 70
     0
 10
0.0
 20
0.0
 30
0.0
  3
_FILLED
  1

  0
SOLID
  5
1223D
  8
0
  6
BYBLOCK
 62
     0
 10
0.0
 20
0.0
 30
0.0
 11
-1.0
 21
0.1666666667
 31
0.0
 12
-1.0
 22
-0.1666666667
 32
0.0
 13
-1.0
 23
-0.1666666667
 33
0.0
  0
ENDBLK
  5
1223E
  8
0
  6
BYBLOCK
 62
     0
  0
ENDSEC
  0
SECTION
  2
ENTITIES
  0
ATTDEF
  5
16930
  8
DEFPOINTS
 10
3457.8115474314731728
 20
159.8246489287379859
 30
0.0
 40
0.001
  1
K-79010T-4
  3

  2
MODELNUMBER
 70
     0
1001
ACDBATTR
1070
     0
1070
     1
  0
ATTDEF
  5
16931
  8
DEFPOINTS
 10
3457.8115474314731728
 20
159.8229822620712923
 30
0.0
 40
0.001
  1
LOURE
  3

  2
TRADENAME
 70
     0
1001
ACDBATTR
1070
     0
1070
     1
  0
ATTDEF
  5
16932
  8
DEFPOINTS
 10
3457.8115474314731728
 20
159.8213155954045988
 30
0.0
 40
0.001
  1
VALVE TRIM
  3

  2
PRODUCT
 70
     0
1001
ACDBATTR
1070
     0
1070
     1
  0
LINE
  5
16F9D
  8
0
 10
3457.6730822439872099
 20
161.8699641676028875
 30
0.0
 11
3456.6415861810710339
 21
161.8699641676028875
 31
0.0
  0
LINE
  5
16F9E
  8
0
 10
3457.8108775196701572
 20
156.6711455656684109
 30
0.0
 11
3457.6925614253168533
 21
156.6711455656684109
 31
0.0
  0
LINE
  5
16FA7
  8
0
 10
3457.8108775196701572
 20
162.970357867253
 30
0.0
 11
3457.8108775196701572
 21
156.6711455656684109
 31
0.0
  0
ARC
  5
16FA8
  8
0
 10
3457.6927686329640892
 20
156.6908308641089889
 30
0.0
 40
0.019686388945257
 50
179.9958395583311983
 51
269.3969263280131941
  0
LINE
  5
16FA9
  8
0
 10
3457.673082244069974
 20
156.6908322936047
 30
0.0
 11
3457.6730822439699296
 21
162.9506728291030129
 31
0.0
  0
ARC
  5
16FAA
  8
0
 10
3457.6927672812930723
 20
162.95067282997951
 30
0.0
 40
0.0196850373228398
 50
90.0144318688699769
 51
180.0000025514264905
  0
LINE
  5
16FAB
  8
0
 10
3457.6730822440208613
 20
159.7715389708220926
 30
0.0
 11
3456.6415861834761927
 21
159.7715389693678958
 31
0.0
  0
LINE
  5
16FEE
  8
0
 10
3457.6927623229548772
 20
162.9703578666778867
 30
0.0
 11
3457.8108775196701572
 21
162.970357867253
 31
0.0
  0
LINE
  5
16FEF
  8
0
 10
3455.8427988918829215
 20
157.5392571461125044
 30
0.0
 11
3455.6219147407618948
 21
157.5392571461125897
 31
0.0
  0
LINE
  5
16FF0
  8
0
 10
3457.6927623229548772
 20
162.9703578666778867
 30
0.0
 11
3457.8108775196701572
 21
162.970357867253
 31
0.0
  0
LINE
  5
16FF1
  8
0
 10
3455.637136751466187
 20
161.8728549858981864
 30
0.0
 11
3455.968358038579936
 21
161.8699644593860114
 31
0.0
  0
ARC
  5
16FF2
  8
0
 10
3455.9710651394971137
 20
161.638680545119712
 30
0.0
 40
0.2312997629086718
 50
59.2931628663736774
 51
90.6706480459774866
  0
ARC
  5
16FF3
  8
0
 10
3455.9228438973400444
 20
161.5574887891596063
 30
0.0
 40
0.3257316930539614
 50
37.4543894493677598
 51
59.2931628663736774
  0
ARC
  5
16FF4
  8
0
 10
3455.335915121816015
 20
161.1078643728519069
 30
0.0
 40
1.065087834083293
 50
26.8177715219288899
 51
37.4543894493677598
  0
ARC
  5
16FF5
  8
0
 10
3453.2925683946727986
 20
160.0749000373812123
 30
0.0
 40
3.354690674246354
 50
15.4808841770673293
 51
26.8177715219288899
  0
ARC
  5
16FF6
  8
0
 10
3453.6068697787418387
 20
160.4807848145703986
 30
0.0
 40
2.9718564696654171
 50
359.4595818282991786
 51
3.5545715912600762
  0
ARC
  5
16FF7
  8
0
 10
3454.8548525012579375
 20
160.5489349840335933
 30
0.0
 40
1.7220747708040629
 50
3.8658219138259788
 51
10.1327297039603703
  0
ARC
  5
16FF8
  8
0
 10
3454.3516626472728603
 20
160.4590066261272909
 30
0.0
 40
2.23323730729361
 50
10.1327297039603703
 51
13.2388141295748891
  0
LINE
  5
16FF9
  8
0
 10
3456.5785940551700151
 20
160.4527544528183967
 30
0.0
 11
3456.5785940551700151
 21
159.7988588667184047
 31
0.0
  0
ARC
  5
16FFA
  8
0
 10
3456.5510349754531489
 20
159.7988588667184047
 30
0.0
 40
0.0275590797178556
 50
270.5000490646107778
 51
0.0000000000016284
  0
LINE
  5
16FFB
  8
0
 10
3456.5512754943388245
 20
159.771300836571811
 30
0.0
 11
3456.2601977859590079
 21
159.7687603906136928
 31
0.0
  0
ARC
  5
16FFC
  8
0
 10
3456.2451885134341865
 20
159.3093699745350023
 30
0.0
 40
0.4596355432804661
 50
88.1286893705701431
 51
119.6804649105806959
  0
ARC
  5
16FFD
  8
0
 10
3456.1820711432260396
 20
159.4549922060255085
 30
0.0
 40
0.3023591660486394
 50
122.954889776708896
 51
166.8356879289802919
  0
ARC
  5
16FFE
  8
0
 10
3456.4442321272567824
 20
159.3820990517299094
 30
0.0
 40
0.5743424364991668
 50
165.7111439541687048
 51
180.7006834679841063
  0
LINE
  5
16FFF
  8
0
 10
3455.8699326378700789
 20
159.3750754590184044
 30
0.0
 11
3455.8699326377700345
 21
157.566814857016908
 31
0.0
  0
ARC
  5
17000
  8
0
 10
3455.8423702024520026
 20
157.5668162570777042
 30
0.0
 40
0.0275624449535371
 50
270.8911794849134935
 51
359.9970896090583778
  0
ARC
  5
17001
  8
0
 10
3455.6219124462218133
 20
157.5668139065855087
 30
0.0
 40
0.0275567605684868
 50
179.9980238681690139
 51
270.0047708042595218
  0
LINE
  5
17002
  8
0
 10
3455.594355685670962
 20
157.566814857018386
 30
0.0
 11
3455.594355685670962
 21
161.8453965960709979
 31
0.0
  0
ARC
  5
17003
  8
0
 10
3455.6219490904800296
 20
161.8453965960709979
 30
0.0
 40
0.0275934048090925
 50
95.6702630730758017
 51
180.0
  0
ARC
  5
17004
  8
0
 10
3455.6250024987948564
 20
161.7226835472023936
 30
0.0
 40
0.1502826212560043
 50
88.806426936931615
 51
92.2040851231641483
  0
ARC
  5
17005
  8
0
 10
3455.6358801926271553
 20
162.2447762525382871
 30
0.0
 40
0.3719233890388897
 50
268.8064269369315866
 51
270.1935723851598823
  0
ARC
  5
17006
  8
0
 10
3456.6415861811710784
 20
161.8502794239184084
 30
0.0
 40
0.0196850394000041
 50
90.0
 51
179.9999999994903135
  0
LINE
  5
17007
  8
0
 10
3456.621901141770195
 20
161.8502794239186073
 30
0.0
 11
3456.6219011417520051
 21
159.791224305818389
 31
0.0
  0
ARC
  5
17008
  8
0
 10
3456.6415864782038625
 20
159.7912243058183037
 30
0.0
 40
0.0196853364525058
 50
179.9999999994886082
 51
269.9991421686360127
  0
ARC
  5
17009
  8
0
 10
3456.5255939267372014
 20
159.9359336131977898
 30
0.0
 40
0.0773322185748708
 50
38.2435326146676999
 51
46.7363600989963714
  0
ARC
  5
1700A
  8
0
 10
3456.5241633496048053
 20
159.9348060989343026
 30
0.0
 40
0.079153712286957
 50
15.0617281512497705
 51
38.2435326146676999
  0
ARC
  5
1700B
  8
0
 10
3426.4824914882569828
 20
151.8504649227583059
 30
0.0
 40
31.1895799465541188
 50
14.9382718949625506
 51
15.0617281512497705
  0
ARC
  5
1700C
  8
0
 10
3456.6369179482239815
 20
159.8955095720947952
 30
0.0
 40
0.0195882342765605
 50
194.9382718949609909
 51
219.9483310878700877
  0
ARC
  5
1700D
  8
0
 10
3456.5357085186237782
 20
160.8207520249436868
 30
0.0
 40
0.8070864490735766
 50
90.7223516630719757
 51
107.9893015385838027
  0
ARC
  5
1700E
  8
0
 10
3456.5245408331820727
 20
161.7065080545270064
 30
0.0
 40
0.0787399792638751
 50
270.7223516630720042
 51
345.0001016508418843
  0
ARC
  5
1700F
  8
0
 10
21752.35863835013879
 20
-4740.6126733600240186
 30
0.0
 40
18941.1534976638104126
 50
164.9998983608143135
 51
165.0001016508419127
  0
ARC
  5
17010
  8
0
 10
3456.6370061810389416
 20
161.7459486230901859
 30
0.0
 40
0.0196852345068527
 50
140.114582890206691
 51
164.9998983608174115
  0
ARC
  5
17011
  8
0
 10
3456.0785858300978362
 20
159.886969619576206
 30
0.0
 40
0.188413087476214
 50
251.112435341958701
 51
321.0668898235982169
  0
ENDSEC
  0
EOF
