  0
SECTION
  2
HEADER
  9
$ACADVER
  1
AC1009
  9
$INSBASE
 10
3483.3884813835070418
 20
160.5860287872054073
 30
0.0
  9
$EXTMIN
 10
3481.4199774465050723
 20
156.6898634329054119
 30
0.0
  9
$EXTMAX
 10
3485.3569853205090112
 20
160.5909688756034939
 30
0.0
  9
$LIMMIN
 10
0.0
 20
0.0
  9
$LIMMAX
 10
11.6929133858000007
 20
8.2677165353999982
  9
$ORTHOMODE
 70
     0
  9
$REGENMODE
 70
     1
  9
$FILLMODE
 70
     1
  9
$QTEXTMODE
 70
     0
  9
$MIRRTEXT
 70
     0
  9
$DRAGMODE
 70
     2
  9
$LTSCALE
 40
0.6431102362
  9
$OSMODE
 70
  3839
  9
$ATTMODE
 70
     1
  9
$TEXTSIZE
 40
0.2
  9
$TRACEWID
 40
0.05
  9
$TEXTSTYLE
  7
STANDARD
  9
$CLAYER
  8
0
  9
$CELTYPE
  6
BYLAYER
  9
$CECOLOR
 62
   256
  9
$DIMSCALE
 40
1.0
  9
$DIMASZ
 40
0.1875
  9
$DIMEXO
 40
0.0625
  9
$DIMDLI
 40
0.4443307087
  9
$DIMRND
 40
0.0
  9
$DIMDLE
 40
0.0
  9
$DIMEXE
 40
0.125
  9
$DIMTP
 40
0.01
  9
$DIMTM
 40
0.01
  9
$DIMTXT
 40
2.0
  9
$DIMCEN
 40
0.1052362205
  9
$DIMTSZ
 40
0.0
  9
$DIMTOL
 70
     1
  9
$DIMLIM
 70
     0
  9
$DIMTIH
 70
     1
  9
$DIMTOH
 70
     1
  9
$DIMSE1
 70
     0
  9
$DIMSE2
 70
     0
  9
$DIMTAD
 70
     0
  9
$DIMZIN
 70
     0
  9
$DIMBLK
  1

  9
$DIMASO
 70
     1
  9
$DIMSHO
 70
     1
  9
$DIMPOST
  1
\X
  9
$DIMAPOST
  1

  9
$DIMALT
 70
     1
  9
$DIMALTD
 70
     2
  9
$DIMALTF
 40
25.3999999999999986
  9
$DIMLFAC
 40
1.0
  9
$DIMTOFL
 70
     0
  9
$DIMTVP
 40
0.0
  9
$DIMTIX
 70
     0
  9
$DIMSOXD
 70
     0
  9
$DIMSAH
 70
     0
  9
$DIMBLK1
  1

  9
$DIMBLK2
  1

  9
$DIMSTYLE
  2
STANDARD
  9
$DIMCLRD
 70
     0
  9
$DIMCLRE
 70
     0
  9
$DIMCLRT
 70
     0
  9
$DIMTFAC
 40
1.0
  9
$DIMGAP
 40
0.09
  9
$LUNITS
 70
     2
  9
$LUPREC
 70
     4
  9
$SKETCHINC
 40
0.1
  9
$FILLETRAD
 40
0.0
  9
$AUNITS
 70
     0
  9
$AUPREC
 70
     0
  9
$MENU
  1
.
  9
$ELEVATION
 40
0.0
  9
$PELEVATION
 40
0.0
  9
$THICKNESS
 40
0.0
  9
$LIMCHECK
 70
     0
  9
$BLIPMODE
 70
     0
  9
$CHAMFERA
 40
0.0
  9
$CHAMFERB
 40
0.0
  9
$SKPOLY
 70
     0
  9
$TDCREATE
 40
2458060.468368056230247
  9
$TDUPDATE
 40
2459144.6423611110076308
  9
$TDINDWG
 40
0.5837107639
  9
$TDUSRTIMER
 40
0.5837107639
  9
$USRTIMER
 70
     1
  9
$ANGBASE
 50
0.0
  9
$ANGDIR
 70
     0
  9
$PDMODE
 70
     0
  9
$PDSIZE
 40
0.3125
  9
$PLINEWID
 40
0.0
  9
$COORDS
 70
     1
  9
$SPLFRAME
 70
     0
  9
$SPLINETYPE
 70
     6
  9
$SPLINESEGS
 70
     8
  9
$ATTDIA
 70
     1
  9
$ATTREQ
 70
     1
  9
$HANDLING
 70
     1
  9
$HANDSEED
  5
1426D
  9
$SURFTAB1
 70
     6
  9
$SURFTAB2
 70
     6
  9
$SURFTYPE
 70
     6
  9
$SURFU
 70
     6
  9
$SURFV
 70
     6
  9
$UCSNAME
  2

  9
$UCSORG
 10
0.0
 20
0.0
 30
0.0
  9
$UCSXDIR
 10
1.0
 20
0.0
 30
0.0
  9
$UCSYDIR
 10
0.0
 20
1.0
 30
0.0
  9
$PUCSNAME
  2

  9
$PUCSORG
 10
0.0
 20
0.0
 30
0.0
  9
$PUCSXDIR
 10
1.0
 20
0.0
 30
0.0
  9
$PUCSYDIR
 10
0.0
 20
1.0
 30
0.0
  9
$USERI1
 70
     0
  9
$USERI2
 70
     0
  9
$USERI3
 70
     0
  9
$USERI4
 70
     0
  9
$USERI5
 70
     0
  9
$USERR1
 40
0.0
  9
$USERR2
 40
0.0
  9
$USERR3
 40
0.0
  9
$USERR4
 40
0.0
  9
$USERR5
 40
0.0
  9
$WORLDVIEW
 70
     1
  9
$SHADEDGE
 70
     3
  9
$SHADEDIF
 70
    70
  9
$TILEMODE
 70
     1
  9
$MAXACTVP
 70
    64
  9
$PLIMCHECK
 70
     0
  9
$PEXTMIN
 10
1.0000000000000000E+20
 20
1.0000000000000000E+20
 30
1.0000000000000000E+20
  9
$PEXTMAX
 10
-1.0000000000000000E+20
 20
-1.0000000000000000E+20
 30
-1.0000000000000000E+20
  9
$PLIMMIN
 10
0.0
 20
0.0
  9
$PLIMMAX
 10
12.0
 20
9.0
  9
$UNITMODE
 70
     0
  9
$VISRETAIN
 70
     1
  9
$PLINEGEN
 70
     0
  9
$PSLTSCALE
 70
     1
  0
ENDSEC
  0
SECTION
  2
TABLES
  0
TABLE
  2
VPORT
 70
     1
  0
VPORT
  2
*ACTIVE
 70
     0
 10
0.0
 20
0.0
 11
1.0
 21
1.0
 12
0.0
 22
0.0
 13
0.0
 23
0.0
 14
1.0
 24
1.0
 15
0.0
 25
0.0
 16
0.0
 26
0.0
 36
21.7831398310511304
 17
3483.388427734375
 27
158.6405848406336929
 37
0.0
 40
5.5422064928179244
 41
3.1182994454713491
 42
50.0
 43
0.0
 44
0.0
 50
0.0
 51
0.0
 71
     0
 72
   100
 73
     1
 74
     1
 75
     0
 76
     0
 77
     0
 78
     0
  0
ENDTAB
  0
TABLE
  2
LTYPE
 70
     2
  0
LTYPE
  2
CONTINUOUS
 70
     0
  3
Solid line
 72
    65
 73
     0
 40
0.0
  0
LTYPE
  2
PHANTOM2
 70
     0
  3
___ _ _ ___ _ _ ___ _ _ ___ _ _
 72
    65
 73
     6
 40
1.25
 49
0.625
 49
-0.125
 49
0.125
 49
-0.125
 49
0.125
 49
-0.125
  0
ENDTAB
  0
TABLE
  2
LAYER
 70
     2
  0
LAYER
  2
0
 70
     0
 62
   255
  6
CONTINUOUS
  0
LAYER
  2
DEFPOINTS
 70
     0
 62
     7
  6
CONTINUOUS
  0
ENDTAB
  0
TABLE
  2
STYLE
 70
     1
  0
STYLE
  2
STANDARD
 70
     0
 40
0.0
 41
0.8
 50
0.0
 71
     0
 42
0.2
  3
txt
  4

  0
ENDTAB
  0
TABLE
  2
VIEW
 70
     0
  0
ENDTAB
  0
TABLE
  2
UCS
 70
     0
  0
ENDTAB
  0
TABLE
  2
APPID
 70
     9
  0
APPID
  2
ACAD
 70
     0
  0
APPID
  2
ACAD_MLEADERVER
 70
     0
  0
APPID
  2
ACAD_EXEMPT_FROM_CAD_STANDARDS
 70
     0
  0
APPID
  2
ACAD_NAV_VCDISPLAY
 70
     0
  0
APPID
  2
ACAECLAYERSTANDARD
 70
     0
  0
APPID
  2
ACCMTRANSPARENCY
 70
     0
  0
APPID
  2
ACAD_DSTYLE_DIMJAG
 70
     0
  0
APPID
  2
ACAD_DSTYLE_DIMTALN
 70
     0
  0
APPID
  2
ACDBATTR
 70
     0
  0
ENDTAB
  0
TABLE
  2
DIMSTYLE
 70
     1
  0
DIMSTYLE
  2
STANDARD
 70
     0
  3

  4

  5

  6

  7

 40
1.0
 41
0.1875
 42
0.0625
 43
0.38
 44
0.125
 45
0.0
 46
0.0
 47
0.01
 48
0.01
140
0.15625
141
0.09
142
0.0
143
25.3999999999999986
144
1.0
145
0.0
146
1.0
147
0.09
 71
     1
 72
     0
 73
     1
 74
     1
 75
     0
 76
     0
 77
     0
 78
     4
170
     0
171
     2
172
     0
173
     0
174
     0
175
     0
176
     0
177
     0
178
     0
  0
ENDTAB
  0
ENDSEC
  0
SECTION
  2
BLOCKS
  0
BLOCK
  8
0
  2
$MODEL_SPACE
 70
     0
 10
0.0
 20
0.0
 30
0.0
  3
$MODEL_SPACE
  1

  0
ENDBLK
  5
21
  8
0
  0
BLOCK
 67
     1
  8
0
  2
$PAPER_SPACE
 70
     0
 10
0.0
 20
0.0
 30
0.0
  3
$PAPER_SPACE
  1

  0
ENDBLK
  5
1D
 67
     1
  8
0
  0
BLOCK
  8
0
  2
_FILLED
 70
     0
 10
0.0
 20
0.0
 30
0.0
  3
_FILLED
  1

  0
SOLID
  5
1223D
  8
0
  6
BYBLOCK
 62
     0
 10
0.0
 20
0.0
 30
0.0
 11
-1.0
 21
0.1666666667
 31
0.0
 12
-1.0
 22
-0.1666666667
 32
0.0
 13
-1.0
 23
-0.1666666667
 33
0.0
  0
ENDBLK
  5
1223E
  8
0
  6
BYBLOCK
 62
     0
  0
ENDSEC
  0
SECTION
  2
ENTITIES
  0
ATTDEF
  5
135EF
  8
DEFPOINTS
 10
3483.3889258495028116
 20
160.5899688756034038
 30
0.0
 40
0.001
  1
K-79006T-4
  3

  2
MODELNUMBER
 70
     0
1001
ACDBATTR
1070
     0
1070
     1
  0
ATTDEF
  5
135F0
  8
DEFPOINTS
 10
3483.3889258495028116
 20
160.5883022089367103
 30
0.0
 40
0.001
  1
PURIST
  3

  2
TRADENAME
 70
     0
1001
ACDBATTR
1070
     0
1070
     1
  0
ATTDEF
  5
135F1
  8
DEFPOINTS
 10
3483.3889258495028116
 20
160.586635542270102
 30
0.0
 40
0.001
  1
VALVE TRIM
  3

  2
PRODUCT
 70
     0
1001
ACDBATTR
1070
     0
1070
     1
  0
LINE
  5
14068
  8
0
 10
3485.3373005585040119
 20
160.4482335116053946
 30
0.0
 11
3481.4396622085109811
 21
160.4482335116053946
 31
0.0
  0
ARC
  5
14069
  8
0
 10
3485.3373005585040119
 20
160.4679182735370944
 30
0.0
 40
0.0196847620056833
 50
270.0
 51
0.0008073266829505
  0
LINE
  5
1406A
  8
0
 10
3485.3569853205071922
 20
160.4679185509054093
 30
0.0
 11
3485.3569853205071922
 21
160.5860287872054073
 31
0.0
  0
LINE
  5
1406B
  8
0
 10
3485.3569853205071922
 20
160.5860287872054073
 30
0.0
 11
3481.4199774465068913
 21
160.5860287872054073
 31
0.0
  0
LINE
  5
1406C
  8
0
 10
3484.3530483126069157
 20
159.3165184473112959
 30
0.0
 11
3484.3530483126069157
 21
160.4482335116053946
 31
0.0
  0
LINE
  5
1406D
  8
0
 10
3484.3190920794559133
 20
159.1633496622164898
 30
0.0
 11
3484.1966232330660205
 21
159.1633496622164898
 31
0.0
  0
LINE
  5
1406E
  8
0
 10
3484.3333632733069862
 20
159.2867768187053912
 30
0.0
 11
3482.4435994937070973
 21
159.2867768187053912
 31
0.0
  0
ARC
  5
1406F
  8
0
 10
3484.2978267518228677
 20
159.1122589573475068
 30
0.0
 40
0.0553396267004156
 50
3.9853441138833512
 51
67.401606002686222
  0
LINE
  5
14070
  8
0
 10
3484.3333632733069862
 20
159.2867768187053912
 30
0.0
 11
3484.3333632733069862
 21
159.2625116019054019
 31
0.0
  0
ARC
  5
14071
  8
0
 10
3484.3136782339070123
 20
159.2625116019054019
 30
0.0
 40
0.0196850394000013
 50
284.999975962209021
 51
0.0
  0
ARC
  5
14072
  8
0
 10
3484.2742508956839629
 20
159.1500264928523052
 30
0.0
 40
0.0787626868859301
 50
105.0055170282353032
 51
179.267748286622691
  0
ARC
  5
14073
  8
0
 10
3483.3892755920401214
 20
159.1610758430286978
 30
0.0
 40
0.8062815961166068
 50
344.1652532139747223
 51
359.2863244412865811
  0
ARC
  5
14074
  8
0
 10
3484.3212307031408272
 20
159.3184829901811099
 30
0.0
 40
0.0318782010291515
 50
275.955082147567623
 51
356.4668211881821094
  0
ARC
  5
14075
  8
0
 10
3484.3149715451068005
 20
158.1898634329054119
 30
0.0
 40
0.029999999999994
 50
270.0
 51
359.49999993306551
  0
ARC
  5
14076
  8
0
 10
3484.0367458628279564
 20
159.1617656481606957
 30
0.0
 40
0.3195655756922012
 50
328.3077789434851752
 51
351.7852876181905231
  0
ARC
  5
14077
  8
0
 10
3483.8846079569689209
 20
159.3291388964381952
 30
0.0
 40
0.5405714888384417
 50
280.2807901485249999
 51
321.669725681035402
  0
ARC
  5
14078
  8
0
 10
3484.2709454556411401
 20
159.1604823748145918
 30
0.0
 40
0.0032532528362993
 50
359.9846577461444781
 51
61.8119463259549917
  0
ARC
  5
14079
  8
0
 10
3483.9502331635208066
 20
159.1826096168464915
 30
0.0
 40
0.3247203837700567
 50
346.7165935798536793
 51
356.0925433832417752
  0
ARC
  5
1407A
  8
0
 10
3484.00186249467788
 20
159.154255294749106
 30
0.0
 40
0.2684189370312402
 50
291.297515227860913
 51
350.0768213257014736
  0
ARC
  5
1407B
  8
0
 10
3483.6442372722572145
 20
159.8552531141428972
 30
0.0
 40
1.0543700205511359
 50
279.2841918223629136
 51
295.572262712783413
  0
LINE
  5
1407C
  8
0
 10
3484.3149715451068005
 20
158.1598634329054107
 30
0.0
 11
3482.4619912219068283
 21
158.1598634329054107
 31
0.0
  0
LINE
  5
1407E
  8
0
 10
3484.3187730890299463
 20
159.2434973118199082
 30
0.0
 11
3484.2538582867068726
 21
159.2261034430053996
 31
0.0
  0
LINE
  5
1407F
  8
0
 10
3484.344970402798026
 20
158.1896016368054063
 30
0.0
 11
3484.3530325596070725
 21
159.116105133405398
 31
0.0
  0
LINE
  5
14080
  8
0
 10
3483.6482890046431748
 20
157.1398634329054005
 30
0.0
 11
3483.6584813835070236
 21
157.1398634329054005
 31
0.0
  0
LINE
  5
14081
  8
0
 10
3483.6584813835070236
 20
157.759863432905405
 30
0.0
 11
3483.6584813835070236
 21
157.1398634329054005
 31
0.0
  0
ARC
  5
14082
  8
0
 10
3484.0584813835071145
 20
157.759863432905405
 30
0.0
 40
0.4000000000000058
 50
90.0
 51
180.0
  0
CIRCLE
  5
14083
  8
0
 10
3483.3884813835070418
 20
156.9898634329053948
 30
0.0
 40
0.3000000000000007
  0
LINE
  5
14084
  8
0
 10
3484.3187730890299463
 20
159.2434973118199082
 30
0.0
 11
3482.4581896779841372
 21
159.2434973118199082
 31
0.0
  0
LINE
  5
14085
  8
0
 10
3482.4239144544071678
 20
159.3165184473112959
 30
0.0
 11
3482.4239144544071678
 21
160.4482335116053946
 31
0.0
  0
LINE
  5
14086
  8
0
 10
3482.4578706875590797
 20
159.1633496622164898
 30
0.0
 11
3482.580339533948063
 21
159.1633496622164898
 31
0.0
  0
ARC
  5
14087
  8
0
 10
3482.4791360151912158
 20
159.1122589573475068
 30
0.0
 40
0.0553396267004156
 50
112.5983939973138064
 51
176.0146558861150083
  0
LINE
  5
14088
  8
0
 10
3482.4435994937070973
 20
159.2867768187053912
 30
0.0
 11
3482.4435994937070973
 21
159.2625116019054019
 31
0.0
  0
ARC
  5
14089
  8
0
 10
3482.4632845331070712
 20
159.2625116019054019
 30
0.0
 40
0.0196850394000013
 50
180.0
 51
255.0000240377910075
  0
ARC
  5
1408A
  8
0
 10
3482.5027118713301206
 20
159.1500264928523052
 30
0.0
 40
0.0787626868859301
 50
0.7322517133772437
 51
74.994482971764711
  0
ARC
  5
1408B
  8
0
 10
3483.3876871749748716
 20
159.1610758430286978
 30
0.0
 40
0.8062815961166068
 50
180.7136755587133052
 51
195.8347467860253914
  0
ARC
  5
1408C
  8
0
 10
3482.4557320638741658
 20
159.3184829901811099
 30
0.0
 40
0.0318782010291515
 50
183.5331788118178054
 51
264.044917852432377
  0
ARC
  5
1408D
  8
0
 10
3482.4619912219068283
 20
158.1898634329054119
 30
0.0
 40
0.029999999999994
 50
180.5000000669346036
 51
270.0
  0
ARC
  5
1408E
  8
0
 10
3482.7402169041870366
 20
159.1617656481606957
 30
0.0
 40
0.3195655756922012
 50
188.2147123818095054
 51
211.6922210565147111
  0
ARC
  5
1408F
  8
0
 10
3482.8923548100451626
 20
159.3291388964381952
 30
0.0
 40
0.5405714888384417
 50
218.330274318964598
 51
259.7192098514750001
  0
ARC
  5
14090
  8
0
 10
3482.5060173113729434
 20
159.1604823748145918
 30
0.0
 40
0.0032532528362993
 50
118.1880536740449941
 51
180.0153422538554935
  0
ARC
  5
14091
  8
0
 10
3482.8267296034928222
 20
159.1826096168464915
 30
0.0
 40
0.3247203837700567
 50
183.9074566167581963
 51
193.283406420146207
  0
ARC
  5
14092
  8
0
 10
3482.7751002723362035
 20
159.154255294749106
 30
0.0
 40
0.2684189370312402
 50
189.923178674298498
 51
248.702484772139087
  0
ARC
  5
14093
  8
0
 10
3483.132725494756869
 20
159.8552531141428972
 30
0.0
 40
1.0543700205511359
 50
244.427737287216587
 51
260.7158081776370864
  0
LINE
  5
14094
  8
0
 10
3482.4581896779841372
 20
159.2434973118199082
 30
0.0
 11
3482.5231044803072109
 21
159.2261034430053996
 31
0.0
  0
LINE
  5
14095
  8
0
 10
3482.431992364215148
 20
158.1896016368054063
 30
0.0
 11
3482.423930207407011
 21
159.116105133405398
 31
0.0
  0
LINE
  5
14096
  8
0
 10
3483.1286737623709087
 20
157.1398634329054005
 30
0.0
 11
3483.1184813835070599
 21
157.1398634329054005
 31
0.0
  0
LINE
  5
14097
  8
0
 10
3483.1184813835070599
 20
157.759863432905405
 30
0.0
 11
3483.1184813835070599
 21
157.1398634329054005
 31
0.0
  0
ARC
  5
14098
  8
0
 10
3482.718481383506969
 20
157.759863432905405
 30
0.0
 40
0.4000000000000058
 50
0.0
 51
90.0
  0
ARC
  5
14099
  8
0
 10
3483.3884813835070418
 20
161.3412473687228044
 30
0.0
 40
2.5621909522929349
 50
260.4325289554246865
 51
279.5674710445751998
  0
ARC
  5
1409A
  8
0
 10
3483.3884813835070418
 20
161.3935250654390074
 30
0.0
 40
2.6630513292335798
 50
257.1424387435686185
 51
282.8575612564313815
  0
ARC
  5
1409B
  8
0
 10
3481.4396622085109811
 20
160.4679182735370944
 30
0.0
 40
0.0196847620056833
 50
179.9991926733169976
 51
270.0
  0
LINE
  5
1409C
  8
0
 10
3481.4199774465068913
 20
160.4679185509054093
 30
0.0
 11
3481.4199774465068913
 21
160.5860287872054073
 31
0.0
  0
ENDSEC
  0
EOF
