  0
SECTION
  2
HEADER
  9
$ACADVER
  1
AC1009
  9
$INSBASE
 10
3505.2955732297218674
 20
160.3836146635285047
 30
0.0
  9
$EXTMIN
 10
3502.1459669305218085
 20
157.234008364328389
 30
0.0
  9
$EXTMAX
 10
3508.4451795289228357
 20
163.5332209627285067
 30
0.0
  9
$LIMMIN
 10
0.0
 20
0.0
  9
$LIMMAX
 10
11.6929133858000007
 20
8.2677165353999982
  9
$ORTHOMODE
 70
     0
  9
$REGENMODE
 70
     1
  9
$FILLMODE
 70
     1
  9
$QTEXTMODE
 70
     0
  9
$MIRRTEXT
 70
     0
  9
$DRAGMODE
 70
     2
  9
$LTSCALE
 40
0.6431102362
  9
$OSMODE
 70
  3839
  9
$ATTMODE
 70
     1
  9
$TEXTSIZE
 40
0.2
  9
$TRACEWID
 40
0.05
  9
$TEXTSTYLE
  7
STANDARD
  9
$CLAYER
  8
0
  9
$CELTYPE
  6
BYLAYER
  9
$CECOLOR
 62
   256
  9
$DIMSCALE
 40
1.0
  9
$DIMASZ
 40
0.1875
  9
$DIMEXO
 40
0.0625
  9
$DIMDLI
 40
0.4443307087
  9
$DIMRND
 40
0.0
  9
$DIMDLE
 40
0.0
  9
$DIMEXE
 40
0.125
  9
$DIMTP
 40
0.01
  9
$DIMTM
 40
0.01
  9
$DIMTXT
 40
2.0
  9
$DIMCEN
 40
0.1052362205
  9
$DIMTSZ
 40
0.0
  9
$DIMTOL
 70
     1
  9
$DIMLIM
 70
     0
  9
$DIMTIH
 70
     1
  9
$DIMTOH
 70
     1
  9
$DIMSE1
 70
     0
  9
$DIMSE2
 70
     0
  9
$DIMTAD
 70
     0
  9
$DIMZIN
 70
     0
  9
$DIMBLK
  1

  9
$DIMASO
 70
     1
  9
$DIMSHO
 70
     1
  9
$DIMPOST
  1
\X
  9
$DIMAPOST
  1

  9
$DIMALT
 70
     1
  9
$DIMALTD
 70
     2
  9
$DIMALTF
 40
25.3999999999999986
  9
$DIMLFAC
 40
1.0
  9
$DIMTOFL
 70
     0
  9
$DIMTVP
 40
0.0
  9
$DIMTIX
 70
     0
  9
$DIMSOXD
 70
     0
  9
$DIMSAH
 70
     0
  9
$DIMBLK1
  1

  9
$DIMBLK2
  1

  9
$DIMSTYLE
  2
STANDARD
  9
$DIMCLRD
 70
     0
  9
$DIMCLRE
 70
     0
  9
$DIMCLRT
 70
     0
  9
$DIMTFAC
 40
1.0
  9
$DIMGAP
 40
0.09
  9
$LUNITS
 70
     2
  9
$LUPREC
 70
     4
  9
$SKETCHINC
 40
0.1
  9
$FILLETRAD
 40
0.0
  9
$AUNITS
 70
     0
  9
$AUPREC
 70
     0
  9
$MENU
  1
.
  9
$ELEVATION
 40
0.0
  9
$PELEVATION
 40
0.0
  9
$THICKNESS
 40
0.0
  9
$LIMCHECK
 70
     0
  9
$BLIPMODE
 70
     0
  9
$CHAMFERA
 40
0.0
  9
$CHAMFERB
 40
0.0
  9
$SKPOLY
 70
     0
  9
$TDCREATE
 40
2458060.468368056230247
  9
$TDUPDATE
 40
2459144.6408680560998619
  9
$TDINDWG
 40
0.6119399306
  9
$TDUSRTIMER
 40
0.6119399306
  9
$USRTIMER
 70
     1
  9
$ANGBASE
 50
0.0
  9
$ANGDIR
 70
     0
  9
$PDMODE
 70
     0
  9
$PDSIZE
 40
0.3125
  9
$PLINEWID
 40
0.0
  9
$COORDS
 70
     1
  9
$SPLFRAME
 70
     0
  9
$SPLINETYPE
 70
     6
  9
$SPLINESEGS
 70
     8
  9
$ATTDIA
 70
     1
  9
$ATTREQ
 70
     1
  9
$HANDLING
 70
     1
  9
$HANDSEED
  5
14138
  9
$SURFTAB1
 70
     6
  9
$SURFTAB2
 70
     6
  9
$SURFTYPE
 70
     6
  9
$SURFU
 70
     6
  9
$SURFV
 70
     6
  9
$UCSNAME
  2

  9
$UCSORG
 10
0.0
 20
0.0
 30
0.0
  9
$UCSXDIR
 10
1.0
 20
0.0
 30
0.0
  9
$UCSYDIR
 10
0.0
 20
1.0
 30
0.0
  9
$PUCSNAME
  2

  9
$PUCSORG
 10
0.0
 20
0.0
 30
0.0
  9
$PUCSXDIR
 10
1.0
 20
0.0
 30
0.0
  9
$PUCSYDIR
 10
0.0
 20
1.0
 30
0.0
  9
$USERI1
 70
     0
  9
$USERI2
 70
     0
  9
$USERI3
 70
     0
  9
$USERI4
 70
     0
  9
$USERI5
 70
     0
  9
$USERR1
 40
0.0
  9
$USERR2
 40
0.0
  9
$USERR3
 40
0.0
  9
$USERR4
 40
0.0
  9
$USERR5
 40
0.0
  9
$WORLDVIEW
 70
     1
  9
$SHADEDGE
 70
     3
  9
$SHADEDIF
 70
    70
  9
$TILEMODE
 70
     1
  9
$MAXACTVP
 70
    64
  9
$PLIMCHECK
 70
     0
  9
$PEXTMIN
 10
1.0000000000000000E+20
 20
1.0000000000000000E+20
 30
1.0000000000000000E+20
  9
$PEXTMAX
 10
-1.0000000000000000E+20
 20
-1.0000000000000000E+20
 30
-1.0000000000000000E+20
  9
$PLIMMIN
 10
0.0
 20
0.0
  9
$PLIMMAX
 10
12.0
 20
9.0
  9
$UNITMODE
 70
     0
  9
$VISRETAIN
 70
     1
  9
$PLINEGEN
 70
     0
  9
$PSLTSCALE
 70
     1
  0
ENDSEC
  0
SECTION
  2
TABLES
  0
TABLE
  2
VPORT
 70
     1
  0
VPORT
  2
*ACTIVE
 70
     0
 10
0.0
 20
0.0
 11
1.0
 21
1.0
 12
0.0
 22
0.0
 13
0.0
 23
0.0
 14
1.0
 24
1.0
 15
0.0
 25
0.0
 16
0.0
 26
0.0
 36
34.9604650672573811
 17
3505.3018798828129547
 27
160.3836135864258097
 37
0.0
 40
8.8948663044201037
 41
3.1182994454713491
 42
50.0
 43
0.0
 44
0.0
 50
0.0
 51
0.0
 71
     0
 72
   100
 73
     1
 74
     1
 75
     0
 76
     0
 77
     0
 78
     0
  0
ENDTAB
  0
TABLE
  2
LTYPE
 70
     2
  0
LTYPE
  2
CONTINUOUS
 70
     0
  3
Solid line
 72
    65
 73
     0
 40
0.0
  0
LTYPE
  2
PHANTOM2
 70
     0
  3
___ _ _ ___ _ _ ___ _ _ ___ _ _
 72
    65
 73
     6
 40
1.25
 49
0.625
 49
-0.125
 49
0.125
 49
-0.125
 49
0.125
 49
-0.125
  0
ENDTAB
  0
TABLE
  2
LAYER
 70
     2
  0
LAYER
  2
0
 70
     0
 62
   255
  6
CONTINUOUS
  0
LAYER
  2
DEFPOINTS
 70
     0
 62
     7
  6
CONTINUOUS
  0
ENDTAB
  0
TABLE
  2
STYLE
 70
     1
  0
STYLE
  2
STANDARD
 70
     0
 40
0.0
 41
0.8
 50
0.0
 71
     0
 42
0.2
  3
txt
  4

  0
ENDTAB
  0
TABLE
  2
VIEW
 70
     0
  0
ENDTAB
  0
TABLE
  2
UCS
 70
     0
  0
ENDTAB
  0
TABLE
  2
APPID
 70
     9
  0
APPID
  2
ACAD
 70
     0
  0
APPID
  2
ACAD_MLEADERVER
 70
     0
  0
APPID
  2
ACAD_EXEMPT_FROM_CAD_STANDARDS
 70
     0
  0
APPID
  2
ACAD_NAV_VCDISPLAY
 70
     0
  0
APPID
  2
ACAECLAYERSTANDARD
 70
     0
  0
APPID
  2
ACCMTRANSPARENCY
 70
     0
  0
APPID
  2
ACAD_DSTYLE_DIMJAG
 70
     0
  0
APPID
  2
ACAD_DSTYLE_DIMTALN
 70
     0
  0
APPID
  2
ACDBATTR
 70
     0
  0
ENDTAB
  0
TABLE
  2
DIMSTYLE
 70
     1
  0
DIMSTYLE
  2
STANDARD
 70
     0
  3

  4

  5

  6

  7

 40
1.0
 41
0.1875
 42
0.0625
 43
0.38
 44
0.125
 45
0.0
 46
0.0
 47
0.01
 48
0.01
140
0.15625
141
0.09
142
0.0
143
25.3999999999999986
144
1.0
145
0.0
146
1.0
147
0.09
 71
     1
 72
     0
 73
     1
 74
     1
 75
     0
 76
     0
 77
     0
 78
     4
170
     0
171
     2
172
     0
173
     0
174
     0
175
     0
176
     0
177
     0
178
     0
  0
ENDTAB
  0
ENDSEC
  0
SECTION
  2
BLOCKS
  0
BLOCK
  8
0
  2
$MODEL_SPACE
 70
     0
 10
0.0
 20
0.0
 30
0.0
  3
$MODEL_SPACE
  1

  0
ENDBLK
  5
21
  8
0
  0
BLOCK
 67
     1
  8
0
  2
$PAPER_SPACE
 70
     0
 10
0.0
 20
0.0
 30
0.0
  3
$PAPER_SPACE
  1

  0
ENDBLK
  5
1D
 67
     1
  8
0
  0
BLOCK
  8
0
  2
_FILLED
 70
     0
 10
0.0
 20
0.0
 30
0.0
  3
_FILLED
  1

  0
SOLID
  5
1223D
  8
0
  6
BYBLOCK
 62
     0
 10
0.0
 20
0.0
 30
0.0
 11
-1.0
 21
0.1666666667
 31
0.0
 12
-1.0
 22
-0.1666666667
 32
0.0
 13
-1.0
 23
-0.1666666667
 33
0.0
  0
ENDBLK
  5
1223E
  8
0
  6
BYBLOCK
 62
     0
  0
ENDSEC
  0
SECTION
  2
ENTITIES
  0
ATTDEF
  5
135EF
  8
DEFPOINTS
 10
3505.2959304954529216
 20
160.3822244345321053
 30
0.0
 40
0.001
  1
K-79005T-4
  3

  2
MODELNUMBER
 70
     0
1001
ACDBATTR
1070
     0
1070
     1
  0
ATTDEF
  5
135F0
  8
DEFPOINTS
 10
3505.2959304954529216
 20
160.380557767865497
 30
0.0
 40
0.001
  1
PURIST
  3

  2
TRADENAME
 70
     0
1001
ACDBATTR
1070
     0
1070
     1
  0
ATTDEF
  5
135F1
  8
DEFPOINTS
 10
3505.2959304954529216
 20
160.3788911011988034
 30
0.0
 40
0.001
  1
VALVE TRIM
  3

  2
PRODUCT
 70
     0
1001
ACDBATTR
1070
     0
1070
     1
  0
CIRCLE
  5
13F4D
  8
0
 10
3505.2955732297218674
 20
160.3836146635285047
 30
0.0
 40
3.1496062991999998
  0
LINE
  5
13F4F
  8
0
 10
3505.5855732297231953
 20
162.7395516714285009
 30
0.0
 11
3505.0055732297219038
 21
162.7395516714285009
 31
0.0
  0
LINE
  5
13F50
  8
0
 10
3505.5955732297220493
 20
162.72955167142851
 30
0.0
 11
3505.5955732297220493
 21
158.7595516714285111
 31
0.0
  0
ARC
  5
13F51
  8
0
 10
3505.5855732297231953
 20
162.72955167142851
 30
0.0
 40
0.0100000000000016
 50
0.0
 51
90.0
  0
LINE
  5
13F52
  8
0
 10
3505.5855732297231953
 20
158.7495516714284918
 30
0.0
 11
3505.0055732297219038
 21
158.7495516714284918
 31
0.0
  0
ARC
  5
13F53
  8
0
 10
3505.5855732297231953
 20
158.7595516714285111
 30
0.0
 40
0.0100000000000016
 50
270.0
 51
0.0
  0
ARC
  5
13F54
  8
0
 10
3505.2955732297218674
 20
161.3875516714284117
 30
0.0
 40
0.9645511761000005
 50
108.1210420057794011
 51
251.8789579942205989
  0
ARC
  5
13F55
  8
0
 10
3505.2955732297218674
 20
161.3875516714284117
 30
0.0
 40
0.9645511761000005
 50
288.1210420057793158
 51
71.8789579942206416
  0
ARC
  5
13F56
  8
0
 10
3505.2955732297218674
 20
161.3875516714284117
 30
0.0
 40
0.9744094487999994
 50
107.9314428029322954
 51
252.0685571970676051
  0
ARC
  5
13F57
  8
0
 10
3505.2955732297218674
 20
161.3875516714284117
 30
0.0
 40
0.9744094487999994
 50
287.9314428029322812
 51
72.0685571970676477
  0
ARC
  5
13F58
  8
0
 10
3505.2955732297218674
 20
158.828496553328506
 30
0.0
 40
0.4822836379000002
 50
128.4653029749445068
 51
51.5346970250554506
  0
ARC
  5
13F59
  8
0
 10
3505.2955732297218674
 20
158.828496553328506
 30
0.0
 40
0.5039370079000003
 50
126.5349127198304018
 51
53.4650872801696124
  0
ARC
  5
13F5A
  8
0
 10
3505.2955732297218674
 20
158.828496553328506
 30
0.0
 40
0.4724409448999998
 50
28.8522691751501306
 51
50.5800155347465932
  0
ARC
  5
13F5B
  8
0
 10
3505.2955732297218674
 20
158.828496553328506
 30
0.0
 40
0.4724409448999998
 50
148.8522691751107914
 51
212.0361700663665943
  0
ARC
  5
13F5C
  8
0
 10
3505.2955732297218674
 20
158.828496553328506
 30
0.0
 40
0.4724409448999998
 50
268.8522691751703064
 51
332.0361700663697775
  0
ARC
  5
13F5D
  8
0
 10
3505.6040177088621022
 20
158.6573058380895134
 30
0.0
 40
0.1199156091302723
 50
335.1765008349444201
 51
9.8906368316266402
  0
ARC
  5
13F5E
  8
0
 10
3506.5751008118350001
 20
158.828496553328506
 30
0.0
 40
0.8661417549619901
 50
169.9873757102087097
 51
190.0127022927669032
  0
ARC
  5
13F5F
  8
0
 10
3505.6058350593420982
 20
158.9996244690568119
 30
0.0
 40
0.1181147474282956
 50
349.9873757102088234
 51
28.7710083270362489
  0
ARC
  5
13F60
  8
0
 10
3504.6558094386659832
 20
159.9365999442808004
 30
0.0
 40
0.8661417549619901
 50
289.9873757101967726
 51
293.0959894308767275
  0
ARC
  5
13F61
  8
0
 10
3504.9922411925949746
 20
159.0116272217393032
 30
0.0
 40
0.1181147474282956
 50
109.987375710196801
 51
148.7710083270281132
  0
ARC
  5
13F62
  8
0
 10
3504.9930954818642022
 20
158.6469711563561873
 30
0.0
 40
0.1199156091302723
 50
215.1765008349456991
 51
249.8906368316224018
  0
ARC
  5
13F63
  8
0
 10
3504.6558094386659832
 20
157.7203931623762116
 30
0.0
 40
0.8661417549619899
 50
49.9873757102095624
 51
70.0127022927697737
  0
ARC
  5
13F64
  8
0
 10
3505.2886434372298936
 20
158.4742379691892893
 30
0.0
 40
0.1181147474282955
 50
229.9873757102095055
 51
268.7710083270317227
  0
LINE
  5
13F65
  8
0
 10
3504.9955732297221402
 20
162.72955167142851
 30
0.0
 11
3504.9955732297221402
 21
158.7595516714285111
 31
0.0
  0
ARC
  5
13F66
  8
0
 10
3505.0055732297219038
 20
162.72955167142851
 30
0.0
 40
0.0100000000000016
 50
90.0
 51
180.0
  0
ARC
  5
13F67
  8
0
 10
3505.0055732297219038
 20
158.7595516714285111
 30
0.0
 40
0.0100000000000016
 50
180.0
 51
270.0
  0
ENDSEC
  0
EOF
