  0
SECTION
  2
HEADER
  9
$ACADVER
  1
AC1009
  9
$INSBASE
 10
3487.8391665839158122
 20
160.7542910966868988
 30
0.0
  9
$EXTMIN
 10
3485.8706626469138428
 20
158.1493266104016868
 30
0.0
  9
$EXTMAX
 10
3489.8076705209191459
 20
160.7592610354888905
 30
0.0
  9
$LIMMIN
 10
0.0
 20
0.0
  9
$LIMMAX
 10
11.6929133858000007
 20
8.2677165353999982
  9
$ORTHOMODE
 70
     0
  9
$REGENMODE
 70
     1
  9
$FILLMODE
 70
     1
  9
$QTEXTMODE
 70
     0
  9
$MIRRTEXT
 70
     0
  9
$DRAGMODE
 70
     2
  9
$LTSCALE
 40
0.6431102362
  9
$OSMODE
 70
  3839
  9
$ATTMODE
 70
     1
  9
$TEXTSIZE
 40
0.2
  9
$TRACEWID
 40
0.05
  9
$TEXTSTYLE
  7
STANDARD
  9
$CLAYER
  8
0
  9
$CELTYPE
  6
BYLAYER
  9
$CECOLOR
 62
   256
  9
$DIMSCALE
 40
1.0
  9
$DIMASZ
 40
0.1875
  9
$DIMEXO
 40
0.0625
  9
$DIMDLI
 40
0.4443307087
  9
$DIMRND
 40
0.0
  9
$DIMDLE
 40
0.0
  9
$DIMEXE
 40
0.125
  9
$DIMTP
 40
0.01
  9
$DIMTM
 40
0.01
  9
$DIMTXT
 40
2.0
  9
$DIMCEN
 40
0.1052362205
  9
$DIMTSZ
 40
0.0
  9
$DIMTOL
 70
     1
  9
$DIMLIM
 70
     0
  9
$DIMTIH
 70
     1
  9
$DIMTOH
 70
     1
  9
$DIMSE1
 70
     0
  9
$DIMSE2
 70
     0
  9
$DIMTAD
 70
     0
  9
$DIMZIN
 70
     0
  9
$DIMBLK
  1

  9
$DIMASO
 70
     1
  9
$DIMSHO
 70
     1
  9
$DIMPOST
  1
\X
  9
$DIMAPOST
  1

  9
$DIMALT
 70
     1
  9
$DIMALTD
 70
     2
  9
$DIMALTF
 40
25.3999999999999986
  9
$DIMLFAC
 40
1.0
  9
$DIMTOFL
 70
     0
  9
$DIMTVP
 40
0.0
  9
$DIMTIX
 70
     0
  9
$DIMSOXD
 70
     0
  9
$DIMSAH
 70
     0
  9
$DIMBLK1
  1

  9
$DIMBLK2
  1

  9
$DIMSTYLE
  2
STANDARD
  9
$DIMCLRD
 70
     0
  9
$DIMCLRE
 70
     0
  9
$DIMCLRT
 70
     0
  9
$DIMTFAC
 40
1.0
  9
$DIMGAP
 40
0.09
  9
$LUNITS
 70
     2
  9
$LUPREC
 70
     4
  9
$SKETCHINC
 40
0.1
  9
$FILLETRAD
 40
0.0
  9
$AUNITS
 70
     0
  9
$AUPREC
 70
     0
  9
$MENU
  1
.
  9
$ELEVATION
 40
0.0
  9
$PELEVATION
 40
0.0
  9
$THICKNESS
 40
0.0
  9
$LIMCHECK
 70
     0
  9
$BLIPMODE
 70
     0
  9
$CHAMFERA
 40
0.0
  9
$CHAMFERB
 40
0.0
  9
$SKPOLY
 70
     0
  9
$TDCREATE
 40
2458060.468368056230247
  9
$TDUPDATE
 40
2459144.6353819449432194
  9
$TDINDWG
 40
0.5850765046
  9
$TDUSRTIMER
 40
0.5850765046
  9
$USRTIMER
 70
     1
  9
$ANGBASE
 50
0.0
  9
$ANGDIR
 70
     0
  9
$PDMODE
 70
     0
  9
$PDSIZE
 40
0.3125
  9
$PLINEWID
 40
0.0
  9
$COORDS
 70
     1
  9
$SPLFRAME
 70
     0
  9
$SPLINETYPE
 70
     6
  9
$SPLINESEGS
 70
     8
  9
$ATTDIA
 70
     1
  9
$ATTREQ
 70
     1
  9
$HANDLING
 70
     1
  9
$HANDSEED
  5
142C9
  9
$SURFTAB1
 70
     6
  9
$SURFTAB2
 70
     6
  9
$SURFTYPE
 70
     6
  9
$SURFU
 70
     6
  9
$SURFV
 70
     6
  9
$UCSNAME
  2

  9
$UCSORG
 10
0.0
 20
0.0
 30
0.0
  9
$UCSXDIR
 10
1.0
 20
0.0
 30
0.0
  9
$UCSYDIR
 10
0.0
 20
1.0
 30
0.0
  9
$PUCSNAME
  2

  9
$PUCSORG
 10
0.0
 20
0.0
 30
0.0
  9
$PUCSXDIR
 10
1.0
 20
0.0
 30
0.0
  9
$PUCSYDIR
 10
0.0
 20
1.0
 30
0.0
  9
$USERI1
 70
     0
  9
$USERI2
 70
     0
  9
$USERI3
 70
     0
  9
$USERI4
 70
     0
  9
$USERI5
 70
     0
  9
$USERR1
 40
0.0
  9
$USERR2
 40
0.0
  9
$USERR3
 40
0.0
  9
$USERR4
 40
0.0
  9
$USERR5
 40
0.0
  9
$WORLDVIEW
 70
     1
  9
$SHADEDGE
 70
     3
  9
$SHADEDIF
 70
    70
  9
$TILEMODE
 70
     1
  9
$MAXACTVP
 70
    64
  9
$PLIMCHECK
 70
     0
  9
$PEXTMIN
 10
1.0000000000000000E+20
 20
1.0000000000000000E+20
 30
1.0000000000000000E+20
  9
$PEXTMAX
 10
-1.0000000000000000E+20
 20
-1.0000000000000000E+20
 30
-1.0000000000000000E+20
  9
$PLIMMIN
 10
0.0
 20
0.0
  9
$PLIMMAX
 10
12.0
 20
9.0
  9
$UNITMODE
 70
     0
  9
$VISRETAIN
 70
     1
  9
$PLINEGEN
 70
     0
  9
$PSLTSCALE
 70
     1
  0
ENDSEC
  0
SECTION
  2
TABLES
  0
TABLE
  2
VPORT
 70
     1
  0
VPORT
  2
*ACTIVE
 70
     0
 10
0.0
 20
0.0
 11
1.0
 21
1.0
 12
0.0
 22
0.0
 13
0.0
 23
0.0
 14
1.0
 24
1.0
 15
0.0
 25
0.0
 16
0.0
 26
0.0
 36
18.5529002553447491
 17
3487.839111328125
 27
159.4571833131545873
 37
0.0
 40
4.7203481707996424
 41
3.1182994454713491
 42
50.0
 43
0.0
 44
0.0
 50
0.0
 51
0.0
 71
     0
 72
   100
 73
     1
 74
     1
 75
     0
 76
     0
 77
     0
 78
     0
  0
ENDTAB
  0
TABLE
  2
LTYPE
 70
     2
  0
LTYPE
  2
CONTINUOUS
 70
     0
  3
Solid line
 72
    65
 73
     0
 40
0.0
  0
LTYPE
  2
PHANTOM2
 70
     0
  3
___ _ _ ___ _ _ ___ _ _ ___ _ _
 72
    65
 73
     6
 40
1.25
 49
0.625
 49
-0.125
 49
0.125
 49
-0.125
 49
0.125
 49
-0.125
  0
ENDTAB
  0
TABLE
  2
LAYER
 70
     2
  0
LAYER
  2
0
 70
     0
 62
   255
  6
CONTINUOUS
  0
LAYER
  2
DEFPOINTS
 70
     0
 62
     7
  6
CONTINUOUS
  0
ENDTAB
  0
TABLE
  2
STYLE
 70
     1
  0
STYLE
  2
STANDARD
 70
     0
 40
0.0
 41
0.8
 50
0.0
 71
     0
 42
0.2
  3
txt
  4

  0
ENDTAB
  0
TABLE
  2
VIEW
 70
     0
  0
ENDTAB
  0
TABLE
  2
UCS
 70
     0
  0
ENDTAB
  0
TABLE
  2
APPID
 70
     9
  0
APPID
  2
ACAD
 70
     0
  0
APPID
  2
ACAD_MLEADERVER
 70
     0
  0
APPID
  2
ACAD_EXEMPT_FROM_CAD_STANDARDS
 70
     0
  0
APPID
  2
ACAD_NAV_VCDISPLAY
 70
     0
  0
APPID
  2
ACAECLAYERSTANDARD
 70
     0
  0
APPID
  2
ACCMTRANSPARENCY
 70
     0
  0
APPID
  2
ACAD_DSTYLE_DIMJAG
 70
     0
  0
APPID
  2
ACAD_DSTYLE_DIMTALN
 70
     0
  0
APPID
  2
ACDBATTR
 70
     0
  0
ENDTAB
  0
TABLE
  2
DIMSTYLE
 70
     1
  0
DIMSTYLE
  2
STANDARD
 70
     0
  3

  4

  5

  6

  7

 40
1.0
 41
0.1875
 42
0.0625
 43
0.38
 44
0.125
 45
0.0
 46
0.0
 47
0.01
 48
0.01
140
0.15625
141
0.09
142
0.0
143
25.3999999999999986
144
1.0
145
0.0
146
1.0
147
0.09
 71
     1
 72
     0
 73
     1
 74
     1
 75
     0
 76
     0
 77
     0
 78
     4
170
     0
171
     2
172
     0
173
     0
174
     0
175
     0
176
     0
177
     0
178
     0
  0
ENDTAB
  0
ENDSEC
  0
SECTION
  2
BLOCKS
  0
BLOCK
  8
0
  2
$MODEL_SPACE
 70
     0
 10
0.0
 20
0.0
 30
0.0
  3
$MODEL_SPACE
  1

  0
ENDBLK
  5
21
  8
0
  0
BLOCK
 67
     1
  8
0
  2
$PAPER_SPACE
 70
     0
 10
0.0
 20
0.0
 30
0.0
  3
$PAPER_SPACE
  1

  0
ENDBLK
  5
1D
 67
     1
  8
0
  0
BLOCK
  8
0
  2
_FILLED
 70
     0
 10
0.0
 20
0.0
 30
0.0
  3
_FILLED
  1

  0
SOLID
  5
1223D
  8
0
  6
BYBLOCK
 62
     0
 10
0.0
 20
0.0
 30
0.0
 11
-1.0
 21
0.1666666667
 31
0.0
 12
-1.0
 22
-0.1666666667
 32
0.0
 13
-1.0
 23
-0.1666666667
 33
0.0
  0
ENDBLK
  5
1223E
  8
0
  6
BYBLOCK
 62
     0
  0
ENDSEC
  0
SECTION
  2
ENTITIES
  0
ATTDEF
  5
135EF
  8
DEFPOINTS
 10
3487.8399544797630369
 20
160.7582610354888004
 30
0.0
 40
0.001
  1
K-78999T-4
  3

  2
MODELNUMBER
 70
     0
1001
ACDBATTR
1070
     0
1070
     1
  0
ATTDEF
  5
135F0
  8
DEFPOINTS
 10
3487.8399544797630369
 20
160.7565943688221068
 30
0.0
 40
0.001
  1
KUMIN
  3

  2
TRADENAME
 70
     0
1001
ACDBATTR
1070
     0
1070
     1
  0
ATTDEF
  5
135F1
  8
DEFPOINTS
 10
3487.8399544797630369
 20
160.7549277021554985
 30
0.0
 40
0.001
  1
VALVE TRIM
  3

  2
PRODUCT
 70
     0
1001
ACDBATTR
1070
     0
1070
     1
  0
LINE
  5
13FBB
  8
0
 10
3489.7879857589118728
 20
160.6164958210868861
 30
0.0
 11
3485.8903474089202064
 21
160.6164958210868861
 31
0.0
  0
ARC
  5
13FBC
  8
0
 10
3489.7879857589118728
 20
160.6361805830185858
 30
0.0
 40
0.0196847620056833
 50
270.0
 51
0.0008073266829505
  0
LINE
  5
13FBD
  8
0
 10
3489.8076705209159627
 20
160.6361808603869008
 30
0.0
 11
3489.8076705209159627
 21
160.7542910966868988
 31
0.0
  0
LINE
  5
13FBE
  8
0
 10
3489.8076705209159627
 20
160.7542910966868988
 30
0.0
 11
3485.8706626469161165
 21
160.7542910966868988
 31
0.0
  0
LINE
  5
13FBF
  8
0
 10
3488.8037335130161409
 20
159.681631150492791
 30
0.0
 11
3488.8037335130161409
 21
160.6164958210868861
 31
0.0
  0
LINE
  5
13FC0
  8
0
 10
3488.8047690673161014
 20
159.4692610209357042
 30
0.0
 11
3488.8047690673161014
 21
158.371501020468088
 31
0.0
  0
LINE
  5
13FC1
  8
0
 10
3488.7821031091980331
 20
159.4944087982669885
 30
0.0
 11
3488.643484071765215
 21
159.4944087982669885
 31
0.0
  0
LINE
  5
13FC2
  8
0
 10
3488.7840484737162114
 20
159.651889521887
 30
0.0
 11
3486.8942846941158678
 21
159.651889521887
 31
0.0
  0
ARC
  5
13FC3
  8
0
 10
3488.7779861400640584
 20
159.4679097076229937
 30
0.0
 40
0.0268169953538524
 50
2.8883680583838278
 51
81.1689769033715862
  0
LINE
  5
13FC4
  8
0
 10
3488.7840484737162114
 20
159.651889521887
 30
0.0
 11
3488.7833372795162177
 21
159.6111452378868876
 31
0.0
  0
ARC
  5
13FC5
  8
0
 10
3488.7046091143288322
 20
159.6125194432713954
 30
0.0
 40
0.0787401576973184
 50
272.6077540275027786
 51
358.9999998912927026
  0
ARC
  5
13FC6
  8
0
 10
3488.7117746085591534
 20
159.4551928528483131
 30
0.0
 40
0.0787495256527253
 50
92.607754027502807
 51
176.5666084519293975
  0
ARC
  5
13FC7
  8
0
 10
3487.7659609208349138
 20
159.5119377176771991
 30
0.0
 40
0.8687648602907273
 50
348.3860582347550121
 51
356.5666084519294259
  0
ARC
  5
13FC8
  8
0
 10
3488.771915903549143
 20
159.6835956933626903
 30
0.0
 40
0.0318782010291515
 50
275.955082147567623
 51
356.4668211881821094
  0
ARC
  5
13FC9
  8
0
 10
3488.7585988752630328
 20
158.3768844823432005
 30
0.0
 40
0.0464829893177133
 50
298.374397721316825
 51
353.3493220056416817
  0
ARC
  5
13FCA
  8
0
 10
3488.2441016663051414
 20
159.2115657455931057
 30
0.0
 40
1.026920664554704
 50
280.3097546314364195
 51
301.5014918069780947
  0
ARC
  5
13FCB
  8
0
 10
3488.4768863203580622
 20
159.5690793271153893
 30
0.0
 40
0.3427401202104848
 50
322.5231629909027902
 51
343.0680241858024146
  0
ARC
  5
13FCC
  8
0
 10
3488.2309230925297925
 20
159.8510217762708123
 30
0.0
 40
0.7133402441568065
 50
286.4685878088641857
 51
316.5610421083952133
  0
ARC
  5
13FCD
  8
0
 10
3488.7216306560499106
 20
159.4915415108652041
 30
0.0
 40
0.0032532528362993
 50
359.9846577461444781
 51
61.8119463259549917
  0
ARC
  5
13FCE
  8
0
 10
3488.5672832334557825
 20
159.5277597442749027
 30
0.0
 40
0.1617089867432333
 50
328.147102247321186
 51
347.057266682529189
  0
ARC
  5
13FCF
  8
0
 10
3488.3468407793238839
 20
159.6510135517559092
 30
0.0
 40
0.4141637939658106
 50
298.0883117578243855
 51
329.7581346613836786
  0
ARC
  5
13FD0
  8
0
 10
3487.9705647172258978
 20
160.3634444157104042
 30
0.0
 40
1.2198543728949991
 50
283.6666453411166913
 51
297.9250545128699059
  0
LINE
  5
13FD1
  8
0
 10
3488.7806218322721179
 20
158.335944730084492
 30
0.0
 11
3486.8977113355608708
 21
158.335944730084492
 31
0.0
  0
LINE
  5
13FD2
  8
0
 10
3486.8745996548168478
 20
159.681631150492791
 30
0.0
 11
3486.8745996548168478
 21
160.6164958210868861
 31
0.0
  0
LINE
  5
13FD3
  8
0
 10
3486.8735641005159778
 20
159.4692610209357042
 30
0.0
 11
3486.8735641005159778
 21
158.371501020468088
 31
0.0
  0
LINE
  5
13FD4
  8
0
 10
3486.8962300586340461
 20
159.4944087982669885
 30
0.0
 11
3487.0348490960659547
 21
159.4944087982669885
 31
0.0
  0
ARC
  5
13FD5
  8
0
 10
3486.9003470277680208
 20
159.4679097076229937
 30
0.0
 40
0.0268169953538564
 50
98.8310230975884849
 51
177.1116319416651095
  0
LINE
  5
13FD6
  8
0
 10
3486.8942846941158678
 20
159.651889521887
 30
0.0
 11
3486.8949958883158615
 21
159.6111452378868876
 31
0.0
  0
ARC
  5
13FD7
  8
0
 10
3486.9737240535027922
 20
159.6125194432713954
 30
0.0
 40
0.0787401576973184
 50
181.0000001087072121
 51
267.3922459724972214
  0
ARC
  5
13FD8
  8
0
 10
3486.9665585592729258
 20
159.4551928528483131
 30
0.0
 40
0.0787495256527253
 50
3.4333915480705839
 51
87.392245972497193
  0
ARC
  5
13FD9
  8
0
 10
3487.9123722469971653
 20
159.5119377176771991
 30
0.0
 40
0.8687648602907273
 50
183.4333915480704889
 51
191.6139417652449879
  0
ARC
  5
13FDA
  8
0
 10
3486.9064172642820267
 20
159.6835956933626903
 30
0.0
 40
0.0318782010291515
 50
183.5331788118178054
 51
264.044917852432377
  0
ARC
  5
13FDB
  8
0
 10
3486.9197342925681369
 20
158.3768844823432005
 30
0.0
 40
0.0464829893177133
 50
186.6506779943582899
 51
241.6256022786832034
  0
ARC
  5
13FDC
  8
0
 10
3487.4342315015278473
 20
159.2115657455931057
 30
0.0
 40
1.026920664554704
 50
238.4985081930217916
 51
259.6902453685635805
  0
ARC
  5
13FDD
  8
0
 10
3487.2014468474749265
 20
159.5690793271153893
 30
0.0
 40
0.3427401202104848
 50
196.9319758141976138
 51
217.4768370090970961
  0
ARC
  5
13FDE
  8
0
 10
3487.4474100753031962
 20
159.8510217762708123
 30
0.0
 40
0.7133402441568065
 50
223.4389578916049004
 51
253.5314121911357859
  0
ARC
  5
13FDF
  8
0
 10
3486.9567025117808043
 20
159.4915415108652041
 30
0.0
 40
0.0032532528362993
 50
118.1880536740449941
 51
180.0153422538554935
  0
ARC
  5
13FE0
  8
0
 10
3487.1110499343772062
 20
159.5277597442749027
 30
0.0
 40
0.1617089867432333
 50
192.9427333174706973
 51
211.852897752678814
  0
ARC
  5
13FE1
  8
0
 10
3487.3314923885081953
 20
159.6510135517559092
 30
0.0
 40
0.4141637939658106
 50
210.241865338616293
 51
241.9116882421755008
  0
ARC
  5
13FE2
  8
0
 10
3487.7077684506048172
 20
160.3634444157104042
 30
0.0
 40
1.2198543728949991
 50
242.0749454871300941
 51
256.333354658883195
  0
LINE
  5
13FE3
  8
0
 10
3488.7081916483311943
 20
159.5338608271869134
 30
0.0
 11
3486.9701415194999754
 21
159.5338608271869134
 31
0.0
  0
ARC
  5
13FE4
  8
0
 10
3487.8391665839158122
 20
161.5144310993640033
 30
0.0
 40
3.3651044889623578
 50
259.9242903887114267
 51
280.075709611288687
  0
ARC
  5
13FE5
  8
0
 10
3487.8391665839158122
 20
161.0024651171343066
 30
0.0
 40
1.8719732159211511
 50
257.0466788895848254
 51
282.9533211104151746
  0
ARC
  5
13FE6
  8
0
 10
3487.8391665839158122
 20
161.0783232089837043
 30
0.0
 40
2.001543395473496
 50
252.7368037111473029
 51
287.2631962888527255
  0
ARC
  5
13FE8
  8
0
 10
3485.8903474089202064
 20
160.6361805830185858
 30
0.0
 40
0.0196847620056833
 50
179.9991926733169976
 51
270.0
  0
LINE
  5
13FE9
  8
0
 10
3485.8706626469161165
 20
160.6361808603869008
 30
0.0
 11
3485.8706626469161165
 21
160.7542910966868988
 31
0.0
  0
ENDSEC
  0
EOF
