  0
SECTION
  2
HEADER
  9
$ACADVER
  1
AC1009
  9
$INSBASE
 10
3661.3982733155230562
 20
162.0220191300724082
 30
0.0
  9
$EXTMIN
 10
3653.5343536466762089
 20
135.6486169620177122
 30
-0.0000000000112498
  9
$EXTMAX
 10
3669.2116303678430995
 20
162.0301624227116974
 30
0.0000000000002956
  9
$LIMMIN
 10
0.0
 20
0.0
  9
$LIMMAX
 10
11.6929133858000007
 20
8.2677165353999982
  9
$ORTHOMODE
 70
     1
  9
$REGENMODE
 70
     1
  9
$FILLMODE
 70
     1
  9
$QTEXTMODE
 70
     0
  9
$MIRRTEXT
 70
     0
  9
$DRAGMODE
 70
     2
  9
$LTSCALE
 40
0.6431102362
  9
$OSMODE
 70
  4095
  9
$ATTMODE
 70
     1
  9
$TEXTSIZE
 40
0.2
  9
$TRACEWID
 40
0.05
  9
$TEXTSTYLE
  7
STANDARD
  9
$CLAYER
  8
0
  9
$CELTYPE
  6
BYLAYER
  9
$CECOLOR
 62
   256
  9
$DIMSCALE
 40
1.0
  9
$DIMASZ
 40
0.1875
  9
$DIMEXO
 40
0.0625
  9
$DIMDLI
 40
0.4443307087
  9
$DIMRND
 40
0.0
  9
$DIMDLE
 40
0.0
  9
$DIMEXE
 40
0.125
  9
$DIMTP
 40
0.01
  9
$DIMTM
 40
0.01
  9
$DIMTXT
 40
2.0
  9
$DIMCEN
 40
0.1052362205
  9
$DIMTSZ
 40
0.0
  9
$DIMTOL
 70
     1
  9
$DIMLIM
 70
     0
  9
$DIMTIH
 70
     1
  9
$DIMTOH
 70
     1
  9
$DIMSE1
 70
     0
  9
$DIMSE2
 70
     0
  9
$DIMTAD
 70
     0
  9
$DIMZIN
 70
     0
  9
$DIMBLK
  1

  9
$DIMASO
 70
     1
  9
$DIMSHO
 70
     1
  9
$DIMPOST
  1
\X
  9
$DIMAPOST
  1

  9
$DIMALT
 70
     1
  9
$DIMALTD
 70
     2
  9
$DIMALTF
 40
25.3999999999999986
  9
$DIMLFAC
 40
1.0
  9
$DIMTOFL
 70
     0
  9
$DIMTVP
 40
0.0
  9
$DIMTIX
 70
     0
  9
$DIMSOXD
 70
     0
  9
$DIMSAH
 70
     0
  9
$DIMBLK1
  1

  9
$DIMBLK2
  1

  9
$DIMSTYLE
  2
STANDARD
  9
$DIMCLRD
 70
     0
  9
$DIMCLRE
 70
     0
  9
$DIMCLRT
 70
     0
  9
$DIMTFAC
 40
1.0
  9
$DIMGAP
 40
0.09
  9
$LUNITS
 70
     2
  9
$LUPREC
 70
     4
  9
$SKETCHINC
 40
0.1
  9
$FILLETRAD
 40
0.0
  9
$AUNITS
 70
     0
  9
$AUPREC
 70
     0
  9
$MENU
  1
.
  9
$ELEVATION
 40
0.0
  9
$PELEVATION
 40
0.0
  9
$THICKNESS
 40
0.0
  9
$LIMCHECK
 70
     0
  9
$BLIPMODE
 70
     0
  9
$CHAMFERA
 40
0.0
  9
$CHAMFERB
 40
0.0
  9
$SKPOLY
 70
     0
  9
$TDCREATE
 40
2458060.468368056230247
  9
$TDUPDATE
 40
2459432.6942361108958721
  9
$TDINDWG
 40
0.406847338
  9
$TDUSRTIMER
 40
0.406847338
  9
$USRTIMER
 70
     1
  9
$ANGBASE
 50
0.0
  9
$ANGDIR
 70
     0
  9
$PDMODE
 70
     0
  9
$PDSIZE
 40
0.3125
  9
$PLINEWID
 40
0.0
  9
$COORDS
 70
     1
  9
$SPLFRAME
 70
     0
  9
$SPLINETYPE
 70
     6
  9
$SPLINESEGS
 70
     8
  9
$ATTDIA
 70
     1
  9
$ATTREQ
 70
     1
  9
$HANDLING
 70
     1
  9
$HANDSEED
  5
16C3A
  9
$SURFTAB1
 70
     6
  9
$SURFTAB2
 70
     6
  9
$SURFTYPE
 70
     6
  9
$SURFU
 70
     6
  9
$SURFV
 70
     6
  9
$UCSNAME
  2

  9
$UCSORG
 10
0.0
 20
0.0
 30
0.0
  9
$UCSXDIR
 10
1.0
 20
0.0
 30
0.0
  9
$UCSYDIR
 10
0.0
 20
1.0
 30
0.0
  9
$PUCSNAME
  2

  9
$PUCSORG
 10
0.0
 20
0.0
 30
0.0
  9
$PUCSXDIR
 10
1.0
 20
0.0
 30
0.0
  9
$PUCSYDIR
 10
0.0
 20
1.0
 30
0.0
  9
$USERI1
 70
     0
  9
$USERI2
 70
     0
  9
$USERI3
 70
     0
  9
$USERI4
 70
     0
  9
$USERI5
 70
     0
  9
$USERR1
 40
0.0
  9
$USERR2
 40
0.0
  9
$USERR3
 40
0.0
  9
$USERR4
 40
0.0
  9
$USERR5
 40
0.0
  9
$WORLDVIEW
 70
     1
  9
$SHADEDGE
 70
     3
  9
$SHADEDIF
 70
    70
  9
$TILEMODE
 70
     1
  9
$MAXACTVP
 70
    64
  9
$PLIMCHECK
 70
     0
  9
$PEXTMIN
 10
1.0000000000000000E+20
 20
1.0000000000000000E+20
 30
1.0000000000000000E+20
  9
$PEXTMAX
 10
-1.0000000000000000E+20
 20
-1.0000000000000000E+20
 30
-1.0000000000000000E+20
  9
$PLIMMIN
 10
0.0
 20
0.0
  9
$PLIMMAX
 10
12.0
 20
9.0
  9
$UNITMODE
 70
     0
  9
$VISRETAIN
 70
     1
  9
$PLINEGEN
 70
     0
  9
$PSLTSCALE
 70
     1
  0
ENDSEC
  0
SECTION
  2
TABLES
  0
TABLE
  2
VPORT
 70
     1
  0
VPORT
  2
*ACTIVE
 70
     0
 10
0.0
 20
0.0
 11
1.0
 21
1.0
 12
-603.6333556489908005
 22
44.5353773937807205
 13
0.0
 23
0.0
 14
1.0
 24
1.0
 15
0.0
 25
0.0
 16
0.0
 26
0.0
 36
122.0237731519760018
 17
4265.00634765625
 27
104.3040122985839986
 37
0.0
 40
26.5906462173177687
 41
2.0410052910052912
 42
50.0
 43
0.0
 44
0.0
 50
0.0
 51
0.0
 71
     0
 72
   100
 73
     1
 74
     1
 75
     0
 76
     0
 77
     0
 78
     0
  0
ENDTAB
  0
TABLE
  2
LTYPE
 70
     2
  0
LTYPE
  2
CONTINUOUS
 70
     0
  3
Solid line
 72
    65
 73
     0
 40
0.0
  0
LTYPE
  2
PHANTOM2
 70
     0
  3
___ _ _ ___ _ _ ___ _ _ ___ _ _
 72
    65
 73
     6
 40
1.25
 49
0.625
 49
-0.125
 49
0.125
 49
-0.125
 49
0.125
 49
-0.125
  0
ENDTAB
  0
TABLE
  2
LAYER
 70
     2
  0
LAYER
  2
0
 70
     0
 62
   255
  6
CONTINUOUS
  0
LAYER
  2
DEFPOINTS
 70
     0
 62
     7
  6
CONTINUOUS
  0
ENDTAB
  0
TABLE
  2
STYLE
 70
     1
  0
STYLE
  2
STANDARD
 70
     0
 40
0.0
 41
0.8
 50
0.0
 71
     0
 42
0.2
  3
txt
  4

  0
ENDTAB
  0
TABLE
  2
VIEW
 70
     0
  0
ENDTAB
  0
TABLE
  2
UCS
 70
     0
  0
ENDTAB
  0
TABLE
  2
APPID
 70
     9
  0
APPID
  2
ACAD
 70
     0
  0
APPID
  2
ACAD_MLEADERVER
 70
     0
  0
APPID
  2
ACAD_EXEMPT_FROM_CAD_STANDARDS
 70
     0
  0
APPID
  2
ACAD_NAV_VCDISPLAY
 70
     0
  0
APPID
  2
ACAECLAYERSTANDARD
 70
     0
  0
APPID
  2
ACCMTRANSPARENCY
 70
     0
  0
APPID
  2
ACAD_DSTYLE_DIMJAG
 70
     0
  0
APPID
  2
ACAD_DSTYLE_DIMTALN
 70
     0
  0
APPID
  2
ACDBATTR
 70
     0
  0
ENDTAB
  0
TABLE
  2
DIMSTYLE
 70
     1
  0
DIMSTYLE
  2
STANDARD
 70
     0
  3

  4

  5

  6

  7

 40
1.0
 41
0.1875
 42
0.0625
 43
0.38
 44
0.125
 45
0.0
 46
0.0
 47
0.01
 48
0.01
140
0.15625
141
0.09
142
0.0
143
25.3999999999999986
144
1.0
145
0.0
146
1.0
147
0.09
 71
     1
 72
     0
 73
     1
 74
     1
 75
     0
 76
     0
 77
     0
 78
     4
170
     0
171
     2
172
     0
173
     0
174
     0
175
     0
176
     0
177
     0
178
     0
  0
ENDTAB
  0
ENDSEC
  0
SECTION
  2
BLOCKS
  0
BLOCK
  8
0
  2
$MODEL_SPACE
 70
     0
 10
0.0
 20
0.0
 30
0.0
  3
$MODEL_SPACE
  1

  0
ENDBLK
  5
21
  8
0
  0
BLOCK
 67
     1
  8
0
  2
$PAPER_SPACE
 70
     0
 10
0.0
 20
0.0
 30
0.0
  3
$PAPER_SPACE
  1

  0
ENDBLK
  5
1D
 67
     1
  8
0
  0
BLOCK
  8
0
  2
_FILLED
 70
     0
 10
0.0
 20
0.0
 30
0.0
  3
_FILLED
  1

  0
SOLID
  5
10F92
  8
0
  6
BYBLOCK
 62
     0
 10
0.0
 20
0.0
 30
0.0
 11
-1.0
 21
0.1666666667
 31
0.0
 12
-1.0
 22
-0.1666666667
 32
0.0
 13
-1.0
 23
-0.1666666667
 33
0.0
  0
ENDBLK
  5
10F93
  8
0
  6
BYBLOCK
 62
     0
  0
ENDSEC
  0
SECTION
  2
ENTITIES
  0
ATTDEF
  5
16674
  8
DEFPOINTS
 10
3661.3988877068400143
 20
162.0266892464213129
 30
0.0
 40
0.001
  1
K-78846H-TF
  3

  2
MODELNUMBER
 70
     0
1001
ACDBATTR
1070
     0
1070
     1
  0
ATTDEF
  5
16675
  8
DEFPOINTS
 10
3661.3988877068400143
 20
162.0250225797545909
 30
0.0
 40
0.001
  1
MODERNLIFE
  3

  2
TRADENAME
 70
     0
1001
ACDBATTR
1070
     0
1070
     1
  0
ATTDEF
  5
16676
  8
DEFPOINTS
 10
3661.3988877068400143
 20
162.023355913088011
 30
0.0
 40
0.001
  1
TOILET
  3

  2
PRODUCT
 70
     0
1001
ACDBATTR
1070
     0
1070
     1
  0
LINE
  5
16AA8
  8
0
 10
3653.9260762438548227
 20
161.4220191300724991
 30
0.0
 11
3668.870470387190835
 21
161.4220191300724139
 31
0.0
  0
ARC
  5
16AA9
  8
0
 10
3653.936731733410852
 20
161.1264012603276967
 30
0.0
 40
0.2958098449512192
 50
92.0643217115909778
 51
183.0362860500428894
  0
ARC
  5
16AAA
  8
0
 10
3522.549673329217967
 20
157.7768224847820022
 30
0.0
 40
131.1340508045074102
 50
0.2396758721452018
 51
1.456826558541126
  0
ARC
  5
16AAB
  8
0
 10
3658.0404347127728215
 20
158.2234509364130872
 30
0.0
 40
4.3590496063609381
 50
178.6602163806425949
 51
194.8007752441411071
  0
ARC
  5
16AAC
  8
0
 10
3656.4380515138891496
 20
157.8000598385314106
 30
0.0
 40
2.701674592120034
 50
194.8007752441411071
 51
212.9495873370346999
  0
ARC
  5
16AAD
  8
0
 10
3655.684744692645836
 20
157.420995985064593
 30
0.0
 40
1.8656161300173659
 50
215.7649036674789897
 51
240.6152121055029909
  0
ARC
  5
16AAE
  8
0
 10
3656.6028092919300434
 20
159.4616371829328045
 30
0.0
 40
4.0991332937151252
 50
243.4305284359463997
 51
262.1652582904991959
  0
ARC
  5
16AAF
  8
0
 10
3658.9820617298250909
 20
176.752622060856396
 30
0.0
 40
21.5530440363485809
 50
262.1652582904991959
 51
268.6732104015118807
  0
ARC
  5
16AB0
  8
0
 10
3661.4443316441720526
 20
283.0636961896103116
 30
0.0
 40
127.8926286487614021
 50
268.6732101770392092
 51
269.9793659108648853
  0
ARC
  5
16AB1
  8
0
 10
3662.824726379754793
 20
170.0255519999809053
 30
0.0
 40
34.400879173122398
 50
264.7866920881592137
 51
267.6235148251382157
  0
ARC
  5
16AB2
  8
0
 10
3660.5542218531509207
 20
142.5231968701500875
 30
0.0
 40
6.8101407239146274
 50
238.2366996429798007
 51
262.7851071130389755
  0
ARC
  5
16AB3
  8
0
 10
3659.953108136920946
 20
141.0474705909018098
 30
0.0
 40
5.2457368424561004
 50
206.3310736864320063
 51
235.3327975049541863
  0
ARC
  5
16AB4
  8
0
 10
3668.8186401802349792
 20
144.5992922541153121
 30
0.0
 40
14.78585740773776
 50
195.947416577224601
 51
203.4271715484065908
  0
ARC
  5
16AB5
  8
0
 10
3675.3498408947511962
 20
144.6686826081123058
 30
0.0
 40
21.1554363445800284
 50
184.2686711205747088
 51
191.2628635910411958
  0
ARC
  5
16AB6
  8
0
 10
3425.4109747208590306
 20
155.4590496999655898
 30
0.0
 40
228.8951595217741897
 50
358.7664794091788281
 51
0.1767670746346753
  0
ARC
  5
16AB7
  8
0
 10
3661.0674451349518677
 20
149.4146407108788139
 30
0.0
 40
6.9052816847396876
 50
164.1392011928456895
 51
170.6917025990811965
  0
ARC
  5
16AB8
  8
0
 10
3656.5946227084091333
 20
150.6053057175165861
 30
0.0
 40
2.278640610086704
 50
148.3395747496680883
 51
162.2003533473476864
  0
ARC
  5
16AB9
  8
0
 10
3656.7834904610572266
 20
150.4888387526125086
 30
0.0
 40
2.5005315335253071
 50
127.1216313425665021
 51
148.3395747496680883
  0
ARC
  5
16ABA
  8
0
 10
3656.6354853242969511
 20
150.6843831304173875
 30
0.0
 40
2.2552905822173241
 50
101.8255916932659062
 51
127.1216313425665021
  0
ARC
  5
16ABB
  8
0
 10
3656.6728652967431117
 20
150.5059529805328964
 30
0.0
 40
2.43759412125257
 50
90.0217652946874551
 51
101.8260699569564025
  0
LINE
  5
16ABC
  8
0
 10
3656.6719393131270408
 20
152.9435469259059914
 30
0.0
 11
3666.1246073178890583
 21
152.9435469259061051
 31
0.0
  0
LINE
  5
16ABD
  8
0
 10
3657.6580840962451475
 20
152.9435469259059914
 30
0.0
 11
3657.6580840963520131
 21
152.9743399157059969
 31
0.0
  0
ARC
  5
16ABE
  8
0
 10
3657.6974541742920337
 20
152.9743399158660964
 30
0.0
 40
0.0393700779399198
 50
89.9999988938565991
 51
180.0000002329636004
  0
LINE
  5
16ABF
  8
0
 10
3657.6974541750519165
 20
153.0137099938060032
 30
0.0
 11
3665.0991985313598889
 21
153.0137098509075884
 31
0.0
  0
LINE
  5
16AC0
  8
0
 10
3658.7051243140749648
 20
153.048550420680499
 30
0.0
 11
3664.0914223169711477
 21
153.048550420680499
 31
0.0
  0
ARC
  5
16AC1
  8
0
 10
3658.7354988768870498
 20
151.8816102716772036
 30
0.0
 40
1.1673353954292269
 50
91.4910288047899201
 51
104.1133365356696032
  0
LINE
  5
16AC2
  8
0
 10
3657.1241466223441421
 20
152.9435469259059914
 30
0.0
 11
3657.1265880332512097
 21
153.0137099945060015
 31
0.0
  0
LINE
  5
16AC3
  8
0
 10
3657.1265880332512097
 20
153.0137099945060015
 30
0.0
 11
3657.6383990569511298
 21
153.0137099945060015
 31
0.0
  0
LINE
  5
16AC4
  8
0
 10
3657.6383990569511298
 20
153.0137099945060015
 30
0.0
 11
3657.6440622066220385
 21
152.9435469259059914
 31
0.0
  0
ARC
  5
16AC5
  8
0
 10
3657.0289818067158194
 20
152.9171820702476055
 30
0.0
 40
0.076860567536365
 50
20.0610900825921696
 51
90.598721850180354
  0
LINE
  5
16AC6
  8
0
 10
3657.0281786539508175
 20
152.9940384414061043
 30
0.0
 11
3656.5572925944011331
 21
152.9915894148560085
 31
0.0
  0
ARC
  5
16AC7
  8
0
 10
3656.7804877783460142
 20
150.0407846415126016
 30
0.0
 40
2.9592338367426891
 50
94.3255445473530045
 51
105.6548734913284022
  0
ARC
  5
16AC8
  8
0
 10
3656.7048464527852047
 20
150.5844619671746045
 30
0.0
 40
2.4164426438149942
 50
107.4067026642108971
 51
138.3478666301986095
  0
ARC
  5
16AC9
  8
0
 10
3656.7110554725800284
 20
150.5293836195257882
 30
0.0
 40
2.4579663184799712
 50
137.4847109100093974
 51
179.9495602908658896
  0
LINE
  5
16ACA
  8
0
 10
3654.2530901065579201
 20
150.531547462852501
 30
0.0
 11
3654.2530901065579201
 21
143.0940102261683933
 31
0.0
  0
CIRCLE
  5
16ACB
  8
0
 10
3657.4208646731508452
 20
158.2965860664060074
 30
0.0
 40
0.7874015748000005
  0
CIRCLE
  5
16ACC
  8
0
 10
3665.7692609546520544
 20
158.2965860664060074
 30
0.0
 40
0.3937007874000002
  0
ARC
  5
16ACD
  8
0
 10
3668.8598148976348057
 20
161.1264012603276967
 30
0.0
 40
0.2958098449512192
 50
356.9637139499553768
 51
87.935678288409008
  0
ARC
  5
16ACE
  8
0
 10
3800.2468733018281455
 20
157.7768224847820022
 30
0.0
 40
131.1340508045074102
 50
178.543173441458805
 51
179.7603241278548012
  0
ARC
  5
16ACF
  8
0
 10
3664.7561119182728362
 20
158.2234509364130872
 30
0.0
 40
4.3590496063609381
 50
345.1992247558587792
 51
1.339783619355728
  0
ARC
  5
16AD0
  8
0
 10
3666.3584951171569628
 20
157.8000598385314106
 30
0.0
 40
2.701674592120034
 50
327.0504126629654138
 51
345.1992247558587792
  0
ARC
  5
16AD1
  8
0
 10
3667.1118019383998217
 20
157.420995985064593
 30
0.0
 40
1.8656161300173659
 50
299.3847878944969807
 51
324.2350963325209818
  0
ARC
  5
16AD2
  8
0
 10
3666.1937373391160691
 20
159.4616371829328045
 30
0.0
 40
4.0991332937151252
 50
277.8347417095006904
 51
296.5694715640535719
  0
ARC
  5
16AD3
  8
0
 10
3663.8144849012201121
 20
176.752622060856396
 30
0.0
 40
21.5530440363485809
 50
271.3267895984881193
 51
277.8347417095006904
  0
ARC
  5
16AD4
  8
0
 10
3661.3522149868517772
 20
283.0636961915873826
 30
0.0
 40
127.892628650738402
 50
270.0206340891610921
 51
271.3267898229609045
  0
ARC
  5
16AD5
  8
0
 10
3661.3048746858630693
 20
149.9283841085103006
 30
0.0
 40
14.27442975303331
 50
270.3748931178679982
 51
277.2148999688453728
  0
ARC
  5
16AD6
  8
0
 10
3662.2423247778951918
 20
142.5231968701500875
 30
0.0
 40
6.8101407239146274
 50
277.2148928869609108
 51
301.7633003570202277
  0
ARC
  5
16AD7
  8
0
 10
3662.8434384941251665
 20
141.0474705909018098
 30
0.0
 40
5.2457368424561004
 50
304.667202495045899
 51
333.6689263135680221
  0
ARC
  5
16AD8
  8
0
 10
3653.9779064508111333
 20
144.5992922541153121
 30
0.0
 40
14.78585740773776
 50
336.5728284515935229
 51
344.052583422775399
  0
ARC
  5
16AD9
  8
0
 10
3647.4467057362949163
 20
144.6686826081123058
 30
0.0
 40
21.1554363445800284
 50
348.7371364089572126
 51
355.7313288794254049
  0
ARC
  5
16ADA
  8
0
 10
3897.3855719101870818
 20
155.4590496999655898
 30
0.0
 40
228.8951595217741897
 50
179.8232329253652892
 51
181.2335205908210867
  0
ARC
  5
16ADB
  8
0
 10
3661.7291014960928806
 20
149.4146407108788139
 30
0.0
 40
6.9052816847396876
 50
9.3082974009187787
 51
15.8607988071543193
  0
ARC
  5
16ADC
  8
0
 10
3666.2019239226369791
 20
150.6053057175165861
 30
0.0
 40
2.278640610086704
 50
17.7996466526522887
 51
31.6604252503319294
  0
ARC
  5
16ADD
  8
0
 10
3666.0130561699888858
 20
150.4888387526125086
 30
0.0
 40
2.5005315335253071
 50
31.6604252503319294
 51
52.8783686574334908
  0
ARC
  5
16ADE
  8
0
 10
3666.1610613067477971
 20
150.6843831304173875
 30
0.0
 40
2.2552905822173241
 50
52.8783686574334908
 51
78.1744083067341222
  0
ARC
  5
16ADF
  8
0
 10
3666.1236813343020913
 20
150.5059529805328964
 30
0.0
 40
2.43759412125257
 50
78.1739300430435833
 51
89.9782347053125449
  0
LINE
  5
16AE0
  8
0
 10
3665.1384625348000554
 20
152.9435469259059914
 30
0.0
 11
3665.1384625346940993
 21
152.9743399157059969
 31
0.0
  0
ARC
  5
16AE1
  8
0
 10
3665.0990924567549882
 20
152.9743399158660964
 30
0.0
 40
0.0393700779399167
 50
359.9999997670461767
 51
89.8456280773789757
  0
ARC
  5
16AE2
  8
0
 10
3664.0610477541590626
 20
151.8816102716772036
 30
0.0
 40
1.1673353954292269
 50
75.8866634643304252
 51
88.5089711952100942
  0
LINE
  5
16AE3
  8
0
 10
3665.6724000087019704
 20
152.9435469259059914
 30
0.0
 11
3665.6699585977939932
 21
153.0137099945060015
 31
0.0
  0
LINE
  5
16AE4
  8
0
 10
3665.6699585977939932
 20
153.0137099945060015
 30
0.0
 11
3665.1581475740940732
 21
153.0137099945060015
 31
0.0
  0
LINE
  5
16AE5
  8
0
 10
3665.1581475740940732
 20
153.0137099945060015
 30
0.0
 11
3665.1524844244231645
 21
152.9435469259059914
 31
0.0
  0
ARC
  5
16AE6
  8
0
 10
3665.7675648243289288
 20
152.9171820702476055
 30
0.0
 40
0.076860567536365
 50
89.4012781498196603
 51
159.9389099174078126
  0
LINE
  5
16AE7
  8
0
 10
3665.7683679770939307
 20
152.9940384414061043
 30
0.0
 11
3666.2392540366440699
 21
152.9915894148560085
 31
0.0
  0
ARC
  5
16AE8
  8
0
 10
3666.0160588526991887
 20
150.0407846415126016
 30
0.0
 40
2.9592338367426891
 50
74.3451265086715409
 51
85.6744554526469955
  0
ARC
  5
16AE9
  8
0
 10
3666.0917001782599982
 20
150.5844619671746045
 30
0.0
 40
2.4164426438149942
 50
41.6521333698014331
 51
72.5932973357890745
  0
ARC
  5
16AEA
  8
0
 10
3666.0854911584651745
 20
150.5293836195257882
 30
0.0
 40
2.4579663184799712
 50
0.050439709134113
 51
42.5152890899906026
  0
LINE
  5
16AEB
  8
0
 10
3668.5434565244881924
 20
150.531547462852501
 30
0.0
 11
3668.5434565244881924
 21
143.0940102261683933
 31
0.0
  0
ENDSEC
  0
EOF
