  0
SECTION
  2
HEADER
  9
$ACADVER
  1
AC1009
  9
$INSBASE
 10
3619.3616380223620581
 20
130.2501190995104139
 30
0.0
  9
$EXTMIN
 10
3611.3301598438888504
 20
103.8759175860833039
 30
-0.0000000349181948
  9
$EXTMAX
 10
3627.2710631955860663
 20
130.2566892800201117
 30
0.0000000814935746
  9
$LIMMIN
 10
0.0
 20
0.0
  9
$LIMMAX
 10
11.6929133858000007
 20
8.2677165353999982
  9
$ORTHOMODE
 70
     0
  9
$REGENMODE
 70
     1
  9
$FILLMODE
 70
     1
  9
$QTEXTMODE
 70
     0
  9
$MIRRTEXT
 70
     0
  9
$DRAGMODE
 70
     2
  9
$LTSCALE
 40
0.6431102362
  9
$OSMODE
 70
  4095
  9
$ATTMODE
 70
     1
  9
$TEXTSIZE
 40
0.2
  9
$TRACEWID
 40
0.05
  9
$TEXTSTYLE
  7
STANDARD
  9
$CLAYER
  8
0
  9
$CELTYPE
  6
BYLAYER
  9
$CECOLOR
 62
   256
  9
$DIMSCALE
 40
1.0
  9
$DIMASZ
 40
0.1875
  9
$DIMEXO
 40
0.0625
  9
$DIMDLI
 40
0.4443307087
  9
$DIMRND
 40
0.0
  9
$DIMDLE
 40
0.0
  9
$DIMEXE
 40
0.125
  9
$DIMTP
 40
0.01
  9
$DIMTM
 40
0.01
  9
$DIMTXT
 40
2.0
  9
$DIMCEN
 40
0.1052362205
  9
$DIMTSZ
 40
0.0
  9
$DIMTOL
 70
     1
  9
$DIMLIM
 70
     0
  9
$DIMTIH
 70
     1
  9
$DIMTOH
 70
     1
  9
$DIMSE1
 70
     0
  9
$DIMSE2
 70
     0
  9
$DIMTAD
 70
     0
  9
$DIMZIN
 70
     0
  9
$DIMBLK
  1

  9
$DIMASO
 70
     1
  9
$DIMSHO
 70
     1
  9
$DIMPOST
  1
\X
  9
$DIMAPOST
  1

  9
$DIMALT
 70
     1
  9
$DIMALTD
 70
     2
  9
$DIMALTF
 40
25.3999999999999986
  9
$DIMLFAC
 40
1.0
  9
$DIMTOFL
 70
     0
  9
$DIMTVP
 40
0.0
  9
$DIMTIX
 70
     0
  9
$DIMSOXD
 70
     0
  9
$DIMSAH
 70
     0
  9
$DIMBLK1
  1

  9
$DIMBLK2
  1

  9
$DIMSTYLE
  2
STANDARD
  9
$DIMCLRD
 70
     0
  9
$DIMCLRE
 70
     0
  9
$DIMCLRT
 70
     0
  9
$DIMTFAC
 40
1.0
  9
$DIMGAP
 40
0.09
  9
$LUNITS
 70
     2
  9
$LUPREC
 70
     4
  9
$SKETCHINC
 40
0.1
  9
$FILLETRAD
 40
0.0
  9
$AUNITS
 70
     0
  9
$AUPREC
 70
     0
  9
$MENU
  1
.
  9
$ELEVATION
 40
0.0
  9
$PELEVATION
 40
0.0
  9
$THICKNESS
 40
0.0
  9
$LIMCHECK
 70
     0
  9
$BLIPMODE
 70
     0
  9
$CHAMFERA
 40
0.0
  9
$CHAMFERB
 40
0.0
  9
$SKPOLY
 70
     0
  9
$TDCREATE
 40
2458060.468368056230247
  9
$TDUPDATE
 40
2459432.6465393519029021
  9
$TDINDWG
 40
0.4287107639
  9
$TDUSRTIMER
 40
0.4287107639
  9
$USRTIMER
 70
     1
  9
$ANGBASE
 50
0.0
  9
$ANGDIR
 70
     0
  9
$PDMODE
 70
     0
  9
$PDSIZE
 40
0.3125
  9
$PLINEWID
 40
0.0
  9
$COORDS
 70
     1
  9
$SPLFRAME
 70
     0
  9
$SPLINETYPE
 70
     6
  9
$SPLINESEGS
 70
     8
  9
$ATTDIA
 70
     1
  9
$ATTREQ
 70
     1
  9
$HANDLING
 70
     1
  9
$HANDSEED
  5
178CA
  9
$SURFTAB1
 70
     6
  9
$SURFTAB2
 70
     6
  9
$SURFTYPE
 70
     6
  9
$SURFU
 70
     6
  9
$SURFV
 70
     6
  9
$UCSNAME
  2

  9
$UCSORG
 10
0.0
 20
0.0
 30
0.0
  9
$UCSXDIR
 10
1.0
 20
0.0
 30
0.0
  9
$UCSYDIR
 10
0.0
 20
1.0
 30
0.0
  9
$PUCSNAME
  2

  9
$PUCSORG
 10
0.0
 20
0.0
 30
0.0
  9
$PUCSXDIR
 10
1.0
 20
0.0
 30
0.0
  9
$PUCSYDIR
 10
0.0
 20
1.0
 30
0.0
  9
$USERI1
 70
     0
  9
$USERI2
 70
     0
  9
$USERI3
 70
     0
  9
$USERI4
 70
     0
  9
$USERI5
 70
     0
  9
$USERR1
 40
0.0
  9
$USERR2
 40
0.0
  9
$USERR3
 40
0.0
  9
$USERR4
 40
0.0
  9
$USERR5
 40
0.0
  9
$WORLDVIEW
 70
     1
  9
$SHADEDGE
 70
     3
  9
$SHADEDIF
 70
    70
  9
$TILEMODE
 70
     1
  9
$MAXACTVP
 70
    64
  9
$PLIMCHECK
 70
     0
  9
$PEXTMIN
 10
1.0000000000000000E+20
 20
1.0000000000000000E+20
 30
1.0000000000000000E+20
  9
$PEXTMAX
 10
-1.0000000000000000E+20
 20
-1.0000000000000000E+20
 30
-1.0000000000000000E+20
  9
$PLIMMIN
 10
0.0
 20
0.0
  9
$PLIMMAX
 10
12.0
 20
9.0
  9
$UNITMODE
 70
     0
  9
$VISRETAIN
 70
     1
  9
$PLINEGEN
 70
     0
  9
$PSLTSCALE
 70
     1
  0
ENDSEC
  0
SECTION
  2
TABLES
  0
TABLE
  2
VPORT
 70
     1
  0
VPORT
  2
*ACTIVE
 70
     0
 10
0.0
 20
0.0
 11
1.0
 21
1.0
 12
-645.7057361365132238
 22
12.7622911344677199
 13
0.0
 23
0.0
 14
1.0
 24
1.0
 15
0.0
 25
0.0
 16
0.0
 26
0.0
 36
122.0237731519760018
 17
4265.00634765625
 27
104.3040122985839986
 37
0.0
 40
27.4339890579102317
 41
1.9782051282051281
 42
50.0
 43
0.0
 44
0.0
 50
0.0
 51
0.0
 71
     0
 72
   100
 73
     1
 74
     1
 75
     0
 76
     0
 77
     0
 78
     0
  0
ENDTAB
  0
TABLE
  2
LTYPE
 70
     2
  0
LTYPE
  2
CONTINUOUS
 70
     0
  3
Solid line
 72
    65
 73
     0
 40
0.0
  0
LTYPE
  2
PHANTOM2
 70
     0
  3
___ _ _ ___ _ _ ___ _ _ ___ _ _
 72
    65
 73
     6
 40
1.25
 49
0.625
 49
-0.125
 49
0.125
 49
-0.125
 49
0.125
 49
-0.125
  0
ENDTAB
  0
TABLE
  2
LAYER
 70
     2
  0
LAYER
  2
0
 70
     0
 62
   255
  6
CONTINUOUS
  0
LAYER
  2
DEFPOINTS
 70
     0
 62
     7
  6
CONTINUOUS
  0
ENDTAB
  0
TABLE
  2
STYLE
 70
     1
  0
STYLE
  2
STANDARD
 70
     0
 40
0.0
 41
0.8
 50
0.0
 71
     0
 42
0.2
  3
txt
  4

  0
ENDTAB
  0
TABLE
  2
VIEW
 70
     0
  0
ENDTAB
  0
TABLE
  2
UCS
 70
     0
  0
ENDTAB
  0
TABLE
  2
APPID
 70
     9
  0
APPID
  2
ACAD
 70
     0
  0
APPID
  2
ACAD_MLEADERVER
 70
     0
  0
APPID
  2
ACAD_EXEMPT_FROM_CAD_STANDARDS
 70
     0
  0
APPID
  2
ACAD_NAV_VCDISPLAY
 70
     0
  0
APPID
  2
ACAECLAYERSTANDARD
 70
     0
  0
APPID
  2
ACCMTRANSPARENCY
 70
     0
  0
APPID
  2
ACAD_DSTYLE_DIMJAG
 70
     0
  0
APPID
  2
ACAD_DSTYLE_DIMTALN
 70
     0
  0
APPID
  2
ACDBATTR
 70
     0
  0
ENDTAB
  0
TABLE
  2
DIMSTYLE
 70
     1
  0
DIMSTYLE
  2
STANDARD
 70
     0
  3

  4

  5

  6

  7

 40
1.0
 41
0.1875
 42
0.0625
 43
0.38
 44
0.125
 45
0.0
 46
0.0
 47
0.01
 48
0.01
140
0.15625
141
0.09
142
0.0
143
25.3999999999999986
144
1.0
145
0.0
146
1.0
147
0.09
 71
     1
 72
     0
 73
     1
 74
     1
 75
     0
 76
     0
 77
     0
 78
     4
170
     0
171
     2
172
     0
173
     0
174
     0
175
     0
176
     0
177
     0
178
     0
  0
ENDTAB
  0
ENDSEC
  0
SECTION
  2
BLOCKS
  0
BLOCK
  8
0
  2
$MODEL_SPACE
 70
     0
 10
0.0
 20
0.0
 30
0.0
  3
$MODEL_SPACE
  1

  0
ENDBLK
  5
21
  8
0
  0
BLOCK
 67
     1
  8
0
  2
$PAPER_SPACE
 70
     0
 10
0.0
 20
0.0
 30
0.0
  3
$PAPER_SPACE
  1

  0
ENDBLK
  5
1D
 67
     1
  8
0
  0
ENDSEC
  0
SECTION
  2
ENTITIES
  0
ATTDEF
  5
171C1
  8
DEFPOINTS
 10
3619.3569134803078668
 20
130.2457581177365
 30
0.0
 40
0.001
  1
K-78767H-TF
  3

  2
MODELNUMBER
 70
     0
1001
ACDBATTR
1070
     0
1070
     1
  0
ATTDEF
  5
171C2
  8
DEFPOINTS
 10
3619.3569134803078668
 20
130.2440914510698065
 30
0.0
 40
0.001
  1
MODERNLIFE
  3

  2
TRADENAME
 70
     0
1001
ACDBATTR
1070
     0
1070
     1
  0
ATTDEF
  5
171C3
  8
DEFPOINTS
 10
3619.3569134803078668
 20
130.2424247844031129
 30
0.0
 40
0.001
  1
TOILET
  3

  2
PRODUCT
 70
     0
1001
ACDBATTR
1070
     0
1070
     1
  0
LINE
  5
17801
  8
0
 10
3611.8894409506938246
 20
129.6501190995103912
 30
0.0
 11
3626.8338350940298369
 21
129.6501190995103912
 31
0.0
  0
ARC
  5
17802
  8
0
 10
3611.9000964402498539
 20
129.3545012297657024
 30
0.0
 40
0.2958098449512192
 50
92.0643217115909778
 51
183.0362860500437989
  0
ARC
  5
17803
  8
0
 10
3480.5130380360578783
 20
126.0049224542199937
 30
0.0
 40
131.1340508045074102
 50
0.239675872146016
 51
1.456826558541126
  0
ARC
  5
17804
  8
0
 10
3616.0037994196118234
 20
126.4515509058509934
 30
0.0
 40
4.3590496063609381
 50
178.6602163806433907
 51
194.8007752441419029
  0
ARC
  5
17805
  8
0
 10
3614.4014162207281515
 20
126.0281598079693026
 30
0.0
 40
2.701674592120034
 50
194.8007752441419029
 51
212.9495873370346999
  0
ARC
  5
17806
  8
0
 10
3613.6481093994839284
 20
125.6490959545025987
 30
0.0
 40
1.8656161300173659
 50
215.7649036674789897
 51
240.6152121055029909
  0
ARC
  5
17807
  8
0
 10
3614.5661739987690453
 20
127.6897371523706965
 30
0.0
 40
4.0991332937151252
 50
243.4305284359463997
 51
262.1652582904991959
  0
ARC
  5
17808
  8
0
 10
3616.9454264366640928
 20
144.9807220302942881
 30
0.0
 40
21.5530440363485809
 50
262.1652582904991959
 51
268.6732104015118807
  0
ARC
  5
17809
  8
0
 10
3619.4076963510110545
 20
251.2917961590482037
 30
0.0
 40
127.8926286487614021
 50
268.6732101770392092
 51
269.9793659108648853
  0
ARC
  5
1780A
  8
0
 10
3620.7880910865928854
 20
138.2536519694187973
 30
0.0
 40
34.400879173122398
 50
264.7866920881592137
 51
267.6235148251382725
  0
ARC
  5
1780B
  8
0
 10
3618.5175865599899225
 20
110.7512968395880932
 30
0.0
 40
6.8101407239146274
 50
238.2366996429801986
 51
262.7851071130392029
  0
ARC
  5
1780C
  8
0
 10
3617.9164728437599479
 20
109.2755705603398013
 30
0.0
 40
5.2457368424561004
 50
206.3310736864320063
 51
235.3327975049537031
  0
ARC
  5
1780D
  8
0
 10
3626.7820048870739811
 20
112.8273922235533036
 30
0.0
 40
14.78585740773776
 50
195.947416577224601
 51
203.427171548405795
  0
ARC
  5
1780E
  8
0
 10
3633.3132056015901981
 20
112.8967825775501979
 30
0.0
 40
21.1554363445800284
 50
184.2686711205737993
 51
191.2628635910419916
  0
ARC
  5
1780F
  8
0
 10
3383.3743394276980325
 20
123.6871496694035955
 30
0.0
 40
228.8951595217741897
 50
358.7664794091779754
 51
0.1767670746346753
  0
ARC
  5
17810
  8
0
 10
3619.0308098417908695
 20
117.6427406803168054
 30
0.0
 40
6.9052816847396876
 50
164.1392011928456895
 51
170.6917025990804007
  0
ARC
  5
17811
  8
0
 10
3614.5579874152481352
 20
118.833405686954606
 30
0.0
 40
2.278640610086704
 50
148.3395747496687136
 51
162.2003533473485106
  0
ARC
  5
17812
  8
0
 10
3614.7468551678957738
 20
118.7169387220504007
 30
0.0
 40
2.5005315335253071
 50
127.1216313425665021
 51
148.3395747496687136
  0
ARC
  5
17813
  8
0
 10
3614.598850031135953
 20
118.9124830998552937
 30
0.0
 40
2.2552905822173241
 50
101.8255916932659062
 51
127.1216313425665021
  0
ARC
  5
17814
  8
0
 10
3614.6362300035821136
 20
118.7340529499709021
 30
0.0
 40
2.43759412125257
 50
90.0217652946874551
 51
101.8260699569566015
  0
LINE
  5
17815
  8
0
 10
3614.6353040199660427
 20
121.1716468953439971
 30
0.0
 11
3624.0879720247271507
 21
121.1716468953439971
 31
0.0
  0
LINE
  5
17816
  8
0
 10
3615.6214488030841494
 20
121.1716468953439971
 30
0.0
 11
3615.6214488031901055
 21
121.2024398851440026
 31
0.0
  0
ARC
  5
17817
  8
0
 10
3615.6608188811310356
 20
121.2024398853041021
 30
0.0
 40
0.0393700779399198
 50
89.9999988938565991
 51
180.0000002329636004
  0
LINE
  5
17818
  8
0
 10
3615.6608188818900089
 20
121.2418099632439947
 30
0.0
 11
3623.0625632381998003
 21
121.2418098203455941
 31
0.0
  0
LINE
  5
17819
  8
0
 10
3616.6684890209130572
 20
121.2766503901184052
 30
0.0
 11
3622.0547870238101495
 21
121.2766503901184052
 31
0.0
  0
ARC
  5
1781A
  8
0
 10
3616.6988635837269612
 20
120.1097102411150956
 30
0.0
 40
1.1673353954292269
 50
91.4910288047899201
 51
104.1133365356697027
  0
LINE
  5
1781B
  8
0
 10
3615.0875113291817797
 20
121.1716468953439971
 30
0.0
 11
3615.0899527400911211
 21
121.241809963943993
 31
0.0
  0
LINE
  5
1781C
  8
0
 10
3615.0899527400911211
 20
121.241809963943993
 30
0.0
 11
3615.6017637637901316
 21
121.241809963943993
 31
0.0
  0
LINE
  5
1781D
  8
0
 10
3615.6017637637901316
 20
121.241809963943993
 30
0.0
 11
3615.6074269134619499
 21
121.1716468953439971
 31
0.0
  0
ARC
  5
1781E
  8
0
 10
3614.9923465135548213
 20
121.1452820396854975
 30
0.0
 40
0.076860567536365
 50
20.0610900825913987
 51
90.598721850180354
  0
LINE
  5
1781F
  8
0
 10
3614.9915433607898194
 20
121.2221384108439963
 30
0.0
 11
3614.520657301240135
 21
121.219689384294
 31
0.0
  0
ARC
  5
17820
  8
0
 10
3614.7438524851850161
 20
118.2688846109504937
 30
0.0
 40
2.9592338367426891
 50
94.3255445473530045
 51
105.6548734913284022
  0
ARC
  5
17821
  8
0
 10
3614.6682111596242066
 20
118.812561936612596
 30
0.0
 40
2.4164426438149942
 50
107.4067026642108971
 51
138.3478666301986095
  0
ARC
  5
17822
  8
0
 10
3614.6744201794190303
 20
118.7574835889637939
 30
0.0
 40
2.4579663184799712
 50
137.4847109100088005
 51
179.9495602908658896
  0
LINE
  5
17823
  8
0
 10
3612.2164548133978315
 20
118.759647432290393
 30
0.0
 11
3612.2164548133978315
 21
111.3221101956062995
 31
0.0
  0
ARC
  5
17824
  8
0
 10
3626.8231796044738076
 20
129.3545012297657024
 30
0.0
 40
0.2958098449512192
 50
356.9637139499561727
 51
87.935678288409008
  0
ARC
  5
17825
  8
0
 10
3758.2102380086657831
 20
126.0049224542199937
 30
0.0
 40
131.1340508045074102
 50
178.543173441458805
 51
179.7603241278540054
  0
ARC
  5
17826
  8
0
 10
3622.7194766251118381
 20
126.4515509058509934
 30
0.0
 40
4.3590496063609381
 50
345.1992247558579834
 51
1.339783619356542
  0
ARC
  5
17827
  8
0
 10
3624.3218598239950552
 20
126.0281598079693026
 30
0.0
 40
2.701674592120034
 50
327.0504126629646748
 51
345.1992247558571876
  0
ARC
  5
17828
  8
0
 10
3625.0751666452388235
 20
125.6490959545025987
 30
0.0
 40
1.8656161300173659
 50
299.3847878944965828
 51
324.2350963325209818
  0
ARC
  5
17829
  8
0
 10
3624.1571020459550709
 20
127.6897371523706965
 30
0.0
 40
4.0991332937151252
 50
277.8347417095006904
 51
296.569471564053174
  0
ARC
  5
1782A
  8
0
 10
3621.777849608059114
 20
144.9807220302942881
 30
0.0
 40
21.5530440363485809
 50
271.3267895984881193
 51
277.8347417095006904
  0
ARC
  5
1782B
  8
0
 10
3619.3155796936907791
 20
251.291796161025303
 30
0.0
 40
127.892628650738402
 50
270.0206340891610921
 51
271.3267898229609045
  0
ARC
  5
1782C
  8
0
 10
3619.2682393927020712
 20
118.1564840779482068
 30
0.0
 40
14.27442975303331
 50
270.3748931178679982
 51
277.2148999688452022
  0
ARC
  5
1782D
  8
0
 10
3620.2056894847328294
 20
110.7512968395880932
 30
0.0
 40
6.8101407239146274
 50
277.2148928869607971
 51
301.7633003570197161
  0
ARC
  5
1782E
  8
0
 10
3620.8068032009628041
 20
109.2755705603398013
 30
0.0
 40
5.2457368424561004
 50
304.6672024950462969
 51
333.6689263135680221
  0
ARC
  5
1782F
  8
0
 10
3611.9412711576492256
 20
112.8273922235533036
 30
0.0
 40
14.78585740773776
 50
336.5728284515935229
 51
344.0525834227746032
  0
ARC
  5
17830
  8
0
 10
3605.4100704431330087
 20
112.8967825775501979
 30
0.0
 40
21.1554363445800284
 50
348.7371364089572126
 51
355.7313288794254049
  0
ARC
  5
17831
  8
0
 10
3855.3489366170251742
 20
123.6871496694035955
 30
0.0
 40
228.8951595217741897
 50
179.8232329253652892
 51
181.2335205908210867
  0
ARC
  5
17832
  8
0
 10
3619.6924662029327919
 20
117.6427406803168054
 30
0.0
 40
6.9052816847396876
 50
9.3082974009195816
 51
15.8607988071543193
  0
ARC
  5
17833
  8
0
 10
3624.165288629475981
 20
118.833405686954606
 30
0.0
 40
2.278640610086704
 50
17.7996466526515107
 51
31.6604252503312402
  0
ARC
  5
17834
  8
0
 10
3623.9764208768278877
 20
118.7169387220504007
 30
0.0
 40
2.5005315335253071
 50
31.6604252503312402
 51
52.8783686574334908
  0
ARC
  5
17835
  8
0
 10
3624.1244260135867989
 20
118.9124830998552937
 30
0.0
 40
2.2552905822173241
 50
52.8783686574334908
 51
78.1744083067341222
  0
ARC
  5
17836
  8
0
 10
3624.0870460411420027
 20
118.7340529499709021
 30
0.0
 40
2.43759412125257
 50
78.1739300430434128
 51
89.9782347053125449
  0
LINE
  5
17837
  8
0
 10
3623.1018272416390573
 20
121.1716468953439971
 30
0.0
 11
3623.1018272415331012
 21
121.2024398851440026
 31
0.0
  0
ARC
  5
17838
  8
0
 10
3623.0624571635930806
 20
121.2024398853041021
 30
0.0
 40
0.0393700779399167
 50
359.9999997670461767
 51
89.8456280773789757
  0
ARC
  5
17839
  8
0
 10
3622.024412460997155
 20
120.1097102411150956
 30
0.0
 40
1.1673353954292269
 50
75.8866634643302262
 51
88.5089711952100942
  0
LINE
  5
1783A
  8
0
 10
3623.6357647155409722
 20
121.1716468953439971
 30
0.0
 11
3623.6333233046329951
 21
121.241809963943993
 31
0.0
  0
LINE
  5
1783B
  8
0
 10
3623.6333233046329951
 20
121.241809963943993
 30
0.0
 11
3623.1215122809330751
 21
121.241809963943993
 31
0.0
  0
LINE
  5
1783C
  8
0
 10
3623.1215122809330751
 20
121.241809963943993
 30
0.0
 11
3623.1158491312621663
 21
121.1716468953439971
 31
0.0
  0
ARC
  5
1783D
  8
0
 10
3623.7309295311688402
 20
121.1452820396854975
 30
0.0
 40
0.076860567536365
 50
89.401278149819646
 51
159.9389099174086084
  0
LINE
  5
1783E
  8
0
 10
3623.7317326839320231
 20
121.2221384108439963
 30
0.0
 11
3624.2026187434830717
 21
121.219689384294
 31
0.0
  0
ARC
  5
1783F
  8
0
 10
3623.9794235595381906
 20
118.2688846109504937
 30
0.0
 40
2.9592338367426891
 50
74.3451265086715409
 51
85.6744554526469955
  0
ARC
  5
17840
  8
0
 10
3624.0550648850990001
 20
118.812561936612596
 30
0.0
 40
2.4164426438149942
 50
41.6521333698014331
 51
72.5932973357890745
  0
ARC
  5
17841
  8
0
 10
3624.0488558653041764
 20
118.7574835889637939
 30
0.0
 40
2.4579663184799712
 50
0.050439709134113
 51
42.5152890899911995
  0
LINE
  5
17842
  8
0
 10
3626.5068212313271943
 20
118.759647432290393
 30
0.0
 11
3626.5068212313271943
 21
111.3221101956062995
 31
0.0
  0
CIRCLE
  5
17843
  8
0
 10
3615.3842611178029074
 20
126.5246860372603948
 30
0.0
 40
0.7086614173000001
  0
CIRCLE
  5
17844
  8
0
 10
3623.732657399404161
 20
126.5246860372603948
 30
0.0
 40
0.3149606298999998
  0
ENDSEC
  0
EOF
