  0
SECTION
  2
HEADER
  9
$ACADVER
  1
AC1009
  9
$INSBASE
 10
3916.3333698217629717
 20
127.8330128126560936
 30
0.0
  9
$EXTMIN
 10
3911.6589066540909698
 20
127.8216043374428068
 30
-0.0000000000112498
  9
$EXTMAX
 10
3920.3757911702718957
 20
164.9232632917232024
 30
0.0000000000002956
  9
$LIMMIN
 10
0.0
 20
0.0
  9
$LIMMAX
 10
11.6929133858000007
 20
8.2677165353999982
  9
$ORTHOMODE
 70
     0
  9
$REGENMODE
 70
     1
  9
$FILLMODE
 70
     1
  9
$QTEXTMODE
 70
     0
  9
$MIRRTEXT
 70
     0
  9
$DRAGMODE
 70
     2
  9
$LTSCALE
 40
0.6431102362
  9
$OSMODE
 70
   575
  9
$ATTMODE
 70
     1
  9
$TEXTSIZE
 40
0.2
  9
$TRACEWID
 40
0.05
  9
$TEXTSTYLE
  7
STANDARD
  9
$CLAYER
  8
0
  9
$CELTYPE
  6
BYLAYER
  9
$CECOLOR
 62
   256
  9
$DIMSCALE
 40
1.0
  9
$DIMASZ
 40
0.1875
  9
$DIMEXO
 40
0.0625
  9
$DIMDLI
 40
0.4443307087
  9
$DIMRND
 40
0.0
  9
$DIMDLE
 40
0.0
  9
$DIMEXE
 40
0.125
  9
$DIMTP
 40
0.01
  9
$DIMTM
 40
0.01
  9
$DIMTXT
 40
2.0
  9
$DIMCEN
 40
0.1052362205
  9
$DIMTSZ
 40
0.0
  9
$DIMTOL
 70
     1
  9
$DIMLIM
 70
     0
  9
$DIMTIH
 70
     1
  9
$DIMTOH
 70
     1
  9
$DIMSE1
 70
     0
  9
$DIMSE2
 70
     0
  9
$DIMTAD
 70
     0
  9
$DIMZIN
 70
     0
  9
$DIMBLK
  1

  9
$DIMASO
 70
     1
  9
$DIMSHO
 70
     1
  9
$DIMPOST
  1
\X
  9
$DIMAPOST
  1

  9
$DIMALT
 70
     1
  9
$DIMALTD
 70
     2
  9
$DIMALTF
 40
25.3999999999999986
  9
$DIMLFAC
 40
1.0
  9
$DIMTOFL
 70
     0
  9
$DIMTVP
 40
0.0
  9
$DIMTIX
 70
     0
  9
$DIMSOXD
 70
     0
  9
$DIMSAH
 70
     0
  9
$DIMBLK1
  1

  9
$DIMBLK2
  1

  9
$DIMSTYLE
  2
STANDARD
  9
$DIMCLRD
 70
     0
  9
$DIMCLRE
 70
     0
  9
$DIMCLRT
 70
     0
  9
$DIMTFAC
 40
1.0
  9
$DIMGAP
 40
0.09
  9
$LUNITS
 70
     2
  9
$LUPREC
 70
     4
  9
$SKETCHINC
 40
0.1
  9
$FILLETRAD
 40
0.0
  9
$AUNITS
 70
     0
  9
$AUPREC
 70
     0
  9
$MENU
  1
.
  9
$ELEVATION
 40
0.0
  9
$PELEVATION
 40
0.0
  9
$THICKNESS
 40
0.0
  9
$LIMCHECK
 70
     0
  9
$BLIPMODE
 70
     0
  9
$CHAMFERA
 40
0.0
  9
$CHAMFERB
 40
0.0
  9
$SKPOLY
 70
     0
  9
$TDCREATE
 40
2458060.468368056230247
  9
$TDUPDATE
 40
2459469.6614120369777083
  9
$TDINDWG
 40
0.419046412
  9
$TDUSRTIMER
 40
0.419046412
  9
$USRTIMER
 70
     1
  9
$ANGBASE
 50
0.0
  9
$ANGDIR
 70
     0
  9
$PDMODE
 70
     0
  9
$PDSIZE
 40
0.3125
  9
$PLINEWID
 40
0.0
  9
$COORDS
 70
     2
  9
$SPLFRAME
 70
     0
  9
$SPLINETYPE
 70
     6
  9
$SPLINESEGS
 70
     8
  9
$ATTDIA
 70
     1
  9
$ATTREQ
 70
     1
  9
$HANDLING
 70
     1
  9
$HANDSEED
  5
129BA
  9
$SURFTAB1
 70
     6
  9
$SURFTAB2
 70
     6
  9
$SURFTYPE
 70
     6
  9
$SURFU
 70
     6
  9
$SURFV
 70
     6
  9
$UCSNAME
  2

  9
$UCSORG
 10
0.0
 20
0.0
 30
0.0
  9
$UCSXDIR
 10
1.0
 20
0.0
 30
0.0
  9
$UCSYDIR
 10
0.0
 20
1.0
 30
0.0
  9
$PUCSNAME
  2

  9
$PUCSORG
 10
0.0
 20
0.0
 30
0.0
  9
$PUCSXDIR
 10
1.0
 20
0.0
 30
0.0
  9
$PUCSYDIR
 10
0.0
 20
1.0
 30
0.0
  9
$USERI1
 70
     0
  9
$USERI2
 70
     0
  9
$USERI3
 70
     0
  9
$USERI4
 70
     0
  9
$USERI5
 70
     0
  9
$USERR1
 40
0.0
  9
$USERR2
 40
0.0
  9
$USERR3
 40
0.0
  9
$USERR4
 40
0.0
  9
$USERR5
 40
0.0
  9
$WORLDVIEW
 70
     1
  9
$SHADEDGE
 70
     3
  9
$SHADEDIF
 70
    70
  9
$TILEMODE
 70
     1
  9
$MAXACTVP
 70
    64
  9
$PLIMCHECK
 70
     0
  9
$PEXTMIN
 10
1.0000000000000000E+20
 20
1.0000000000000000E+20
 30
1.0000000000000000E+20
  9
$PEXTMAX
 10
-1.0000000000000000E+20
 20
-1.0000000000000000E+20
 30
-1.0000000000000000E+20
  9
$PLIMMIN
 10
0.0
 20
0.0
  9
$PLIMMAX
 10
12.0
 20
9.0
  9
$UNITMODE
 70
     0
  9
$VISRETAIN
 70
     1
  9
$PLINEGEN
 70
     0
  9
$PSLTSCALE
 70
     1
  0
ENDSEC
  0
SECTION
  2
TABLES
  0
TABLE
  2
VPORT
 70
     1
  0
VPORT
  2
*ACTIVE
 70
     0
 10
0.0
 20
0.0
 11
1.0
 21
1.0
 12
-66.9069680704692473
 22
-0.5250654312315817
 13
0.0
 23
0.0
 14
1.0
 24
1.0
 15
0.0
 25
0.0
 16
0.0
 26
0.0
 36
108.558831433634694
 17
3982.9243164062509095
 27
146.8974990844725994
 37
0.0
 40
48.3191416789910022
 41
2.4808306709265171
 42
50.0
 43
0.0
 44
0.0
 50
0.0
 51
0.0
 71
     0
 72
   100
 73
     1
 74
     1
 75
     0
 76
     0
 77
     0
 78
     0
  0
ENDTAB
  0
TABLE
  2
LTYPE
 70
     2
  0
LTYPE
  2
CONTINUOUS
 70
     0
  3
Solid line
 72
    65
 73
     0
 40
0.0
  0
LTYPE
  2
PHANTOM2
 70
     0
  3
___ _ _ ___ _ _ ___ _ _ ___ _ _
 72
    65
 73
     6
 40
1.25
 49
0.625
 49
-0.125
 49
0.125
 49
-0.125
 49
0.125
 49
-0.125
  0
ENDTAB
  0
TABLE
  2
LAYER
 70
     2
  0
LAYER
  2
0
 70
     0
 62
   255
  6
CONTINUOUS
  0
LAYER
  2
DEFPOINTS
 70
     0
 62
     7
  6
CONTINUOUS
  0
ENDTAB
  0
TABLE
  2
STYLE
 70
     1
  0
STYLE
  2
STANDARD
 70
     0
 40
0.0
 41
0.8
 50
0.0
 71
     0
 42
0.2
  3
txt
  4

  0
ENDTAB
  0
TABLE
  2
VIEW
 70
     0
  0
ENDTAB
  0
TABLE
  2
UCS
 70
     0
  0
ENDTAB
  0
TABLE
  2
APPID
 70
    10
  0
APPID
  2
ACAD
 70
     0
  0
APPID
  2
ACAD_MLEADERVER
 70
     0
  0
APPID
  2
ACAD_EXEMPT_FROM_CAD_STANDARDS
 70
     0
  0
APPID
  2
ACAD_NAV_VCDISPLAY
 70
     0
  0
APPID
  2
ACAECLAYERSTANDARD
 70
     0
  0
APPID
  2
ACCMTRANSPARENCY
 70
     0
  0
APPID
  2
ACAD_DSTYLE_DIMJAG
 70
     0
  0
APPID
  2
ACAD_DSTYLE_DIMTALN
 70
     0
  0
APPID
  2
ACDBATTR
 70
     0
  0
APPID
  2
ACADANNOTATIVE
 70
     0
  0
ENDTAB
  0
TABLE
  2
DIMSTYLE
 70
     1
  0
DIMSTYLE
  2
STANDARD
 70
     0
  3

  4

  5

  6

  7

 40
1.0
 41
0.1875
 42
0.0625
 43
0.38
 44
0.125
 45
0.0
 46
0.0
 47
0.01
 48
0.01
140
0.15625
141
0.09
142
0.0
143
25.3999999999999986
144
1.0
145
0.0
146
1.0
147
0.09
 71
     1
 72
     0
 73
     1
 74
     1
 75
     0
 76
     0
 77
     0
 78
     4
170
     0
171
     2
172
     0
173
     0
174
     0
175
     0
176
     0
177
     0
178
     0
  0
ENDTAB
  0
ENDSEC
  0
SECTION
  2
BLOCKS
  0
BLOCK
  8
0
  2
$MODEL_SPACE
 70
     0
 10
0.0
 20
0.0
 30
0.0
  3
$MODEL_SPACE
  1

  0
ENDBLK
  5
21
  8
0
  0
BLOCK
 67
     1
  8
0
  2
$PAPER_SPACE
 70
     0
 10
0.0
 20
0.0
 30
0.0
  3
$PAPER_SPACE
  1

  0
ENDBLK
  5
1D
 67
     1
  8
0
  0
ENDSEC
  0
SECTION
  2
ENTITIES
  0
ATTDEF
  5
3930
  8
DEFPOINTS
 10
3916.3335055992938578
 20
127.8318886945711057
 30
0.0
 40
0.001
  1
K-78404A
  3

  2
MODELNUMBER
 70
     0
1001
ACDBATTR
1070
     0
1070
     1
  0
ATTDEF
  5
3931
  8
DEFPOINTS
 10
3916.3335055992938578
 20
127.8302220279043979
 30
0.0
 40
0.001
  1
PURIST
  3

  2
TRADENAME
 70
     0
1001
ACDBATTR
1070
     0
1070
     1
  0
ATTDEF
  5
3932
  8
DEFPOINTS
 10
3916.3335055992938578
 20
127.8285553612378038
 30
0.0
 40
0.001
  1
BATH FILLER
  3

  2
PRODUCT
 70
     0
1001
ACDBATTR
1070
     0
1070
     1
  0
LINE
  5
1256C
  8
0
 10
3913.9711650973631549
 20
127.8330128126560936
 30
0.0
 11
3918.6955745461627885
 21
127.8330128126560936
 31
0.0
  0
LINE
  5
1256D
  8
0
 10
3918.6955745461627885
 20
128.6204143874560941
 30
0.0
 11
3913.9711650973631549
 21
128.6204143874560941
 31
0.0
  0
LINE
  5
1256E
  8
0
 10
3913.6394566955627852
 20
153.1777406310561958
 30
0.0
 11
3913.5568105070628917
 21
153.1443494034562036
 31
0.0
  0
LINE
  5
1256F
  8
0
 10
3914.6522674636630654
 20
153.6125403717560971
 30
0.0
 11
3914.6719524989630372
 21
153.6322254629561996
 31
0.0
  0
LINE
  5
12570
  8
0
 10
3912.3373068296627935
 20
155.4621250215562043
 30
0.0
 11
3912.3373068296627935
 21
164.9109439192561979
 31
0.0
  0
LINE
  5
12571
  8
0
 10
3912.436464938968129
 20
155.4445351219561076
 30
0.0
 11
3912.4357320264630289
 21
155.4621250215562043
 31
0.0
  0
LINE
  5
12572
  8
0
 10
3912.7428186406618806
 20
164.5900777774562016
 30
0.0
 11
3912.7428186406618806
 21
164.5349596672560892
 31
0.0
  0
LINE
  5
12573
  8
0
 10
3912.7428186406618806
 20
164.1963769900561942
 30
0.0
 11
3912.7428186406618806
 21
164.1412588798561956
 31
0.0
  0
LINE
  5
12574
  8
0
 10
3912.750692656362844
 20
164.1412588798561956
 30
0.0
 11
3912.750692656362844
 21
164.1963769900561942
 31
0.0
  0
LINE
  5
12575
  8
0
 10
3912.750692656362844
 20
164.5349596672560892
 30
0.0
 11
3912.750692656362844
 21
164.5900777774562016
 31
0.0
  0
LINE
  5
12576
  8
0
 10
3912.8412438374630256
 20
159.6076064921410875
 30
0.0
 11
3912.8412438374630256
 21
159.6256438250561018
 31
0.0
  0
LINE
  5
12577
  8
0
 10
3912.8688028926630977
 20
159.6287909575817991
 30
0.0
 11
3912.8688028926630977
 21
159.6109429569424947
 31
0.0
  0
LINE
  5
12578
  8
0
 10
3912.9081729713630011
 20
159.6287909575750064
 30
0.0
 11
3912.9081729713630011
 21
159.6109138414082906
 31
0.0
  0
LINE
  5
12579
  8
0
 10
3912.9357320264630289
 20
159.6075357556208871
 30
0.0
 11
3912.9357320264630289
 21
159.6256438250561018
 31
0.0
  0
LINE
  5
1257A
  8
0
 10
3913.4396690343628507
 20
155.4621250215562043
 30
0.0
 11
3913.4396690343628507
 21
164.9109439192561979
 31
0.0
  0
LINE
  5
1257B
  8
0
 10
3913.5321887193640578
 20
152.9386533811560867
 30
0.0
 11
3913.5321887193640578
 21
153.1078461020561861
 31
0.0
  0
LINE
  5
1257C
  8
0
 10
3913.6640784831629389
 20
153.7096750873083124
 30
0.0
 11
3913.6640784831629389
 21
153.6322254629561996
 31
0.0
  0
LINE
  5
1257D
  8
0
 10
3913.6640784831629389
 20
153.2142439323561121
 30
0.0
 11
3913.6640784831629389
 21
153.5567636174561983
 31
0.0
  0
LINE
  5
1257E
  8
0
 10
3913.7123778057630261
 20
152.8992833024562117
 30
0.0
 11
3913.7123778057630261
 21
152.7222859577562133
 31
0.0
  0
LINE
  5
1257F
  8
0
 10
3913.7166319720631691
 20
152.8992833024562117
 30
0.0
 11
3913.7166319720631691
 21
152.7222859577562133
 31
0.0
  0
LINE
  5
12580
  8
0
 10
3913.7251021052629767
 20
152.6415772963561039
 30
0.0
 11
3913.7251005846628686
 21
152.8992833024562117
 31
0.0
  0
LINE
  5
12581
  8
0
 10
3913.7290391130632088
 20
153.5567636174561983
 30
0.0
 11
3913.7290391130632088
 21
153.6125403717560971
 31
0.0
  0
LINE
  5
12582
  8
0
 10
3913.7377045744628958
 20
152.8992833024562117
 30
0.0
 11
3913.7377045744628958
 21
152.7222859577562133
 31
0.0
  0
LINE
  5
12583
  8
0
 10
3913.7543262612630315
 20
152.8992833024562117
 30
0.0
 11
3913.7543262612630315
 21
152.7222859577562133
 31
0.0
  0
LINE
  5
12584
  8
0
 10
3913.7748104529628108
 20
152.8992833024562117
 30
0.0
 11
3913.7748104529628108
 21
152.7222859577562133
 31
0.0
  0
LINE
  5
12585
  8
0
 10
3913.7975316700631083
 20
152.7222859577562133
 30
0.0
 11
3913.7975316700631083
 21
152.8992833024562117
 31
0.0
  0
LINE
  5
12586
  8
0
 10
3913.7989658941628477
 20
152.8992833024562117
 30
0.0
 11
3913.7989658941628477
 21
152.7222859577562133
 31
0.0
  0
LINE
  5
12587
  8
0
 10
3913.8226872830628054
 20
152.7222859577562133
 30
0.0
 11
3913.8226872830628054
 21
152.8992833024562117
 31
0.0
  0
LINE
  5
12588
  8
0
 10
3913.8265670520631829
 20
152.8992833024562117
 30
0.0
 11
3913.8265670520631829
 21
152.7222859577562133
 31
0.0
  0
LINE
  5
12589
  8
0
 10
3913.8510671324629584
 20
152.7222859577562133
 30
0.0
 11
3913.8510671324629584
 21
152.8992833024562117
 31
0.0
  0
LINE
  5
1258A
  8
0
 10
3913.8573562219639825
 20
152.8992833024562117
 30
0.0
 11
3913.8573562219639825
 21
152.7222859577562133
 31
0.0
  0
LINE
  5
1258B
  8
0
 10
3913.8824062432640858
 20
152.7222859577562133
 30
0.0
 11
3913.8824062432640858
 21
152.8992833024562117
 31
0.0
  0
LINE
  5
1258C
  8
0
 10
3913.8910459337630527
 20
152.8992833024562117
 30
0.0
 11
3913.8910459337630527
 21
152.7222859577562133
 31
0.0
  0
LINE
  5
1258D
  8
0
 10
3913.9164120106629525
 20
152.7222859577562133
 30
0.0
 11
3913.9164120106629525
 21
152.8992833024562117
 31
0.0
  0
LINE
  5
1258E
  8
0
 10
3913.9273216357628371
 20
152.8992833024562117
 30
0.0
 11
3913.9273216357628371
 21
152.7222859577562133
 31
0.0
  0
LINE
  5
1258F
  8
0
 10
3913.9527669320627865
 20
152.7222859577562133
 30
0.0
 11
3913.9527669320627865
 21
152.8992833024562117
 31
0.0
  0
LINE
  5
12590
  8
0
 10
3913.9658446313628701
 20
152.8992833024562117
 30
0.0
 11
3913.9658446313628701
 21
152.7222859577562133
 31
0.0
  0
LINE
  5
12591
  8
0
 10
3913.9711650973631549
 20
127.8330128126560936
 30
0.0
 11
3913.9711650973631549
 21
128.6204143874560941
 31
0.0
  0
LINE
  5
12592
  8
0
 10
3913.9911315711628959
 20
152.7222859577562133
 30
0.0
 11
3913.9911315711628959
 21
152.8992833024562117
 31
0.0
  0
LINE
  5
12593
  8
0
 10
3914.0062552418639825
 20
152.8992833024562117
 30
0.0
 11
3914.0062552418639825
 21
152.7222859577562133
 31
0.0
  0
LINE
  5
12594
  8
0
 10
3914.0311477277628001
 20
152.7222859577562133
 30
0.0
 11
3914.0311477277628001
 21
152.8992833024562117
 31
0.0
  0
LINE
  5
12595
  8
0
 10
3914.0481761641631238
 20
152.8992833024562117
 30
0.0
 11
3914.0481761641631238
 21
152.7222859577562133
 31
0.0
  0
LINE
  5
12596
  8
0
 10
3914.0724417818628353
 20
152.7222859577562133
 30
0.0
 11
3914.0724417818628353
 21
152.8992833024562117
 31
0.0
  0
LINE
  5
12597
  8
0
 10
3914.0912159940639867
 20
152.8992833024562117
 30
0.0
 11
3914.0912159940639867
 21
152.7222859577562133
 31
0.0
  0
LINE
  5
12598
  8
0
 10
3914.1146281818628268
 20
152.7222859577562133
 30
0.0
 11
3914.1146281818628268
 21
152.8992833024562117
 31
0.0
  0
LINE
  5
12599
  8
0
 10
3914.1349728800628327
 20
152.8992833024562117
 30
0.0
 11
3914.1349728800628327
 21
152.7222859577562133
 31
0.0
  0
LINE
  5
1259A
  8
0
 10
3914.1573130448628035
 20
152.7222859577562133
 30
0.0
 11
3914.1573130448628035
 21
152.8992833024562117
 31
0.0
  0
LINE
  5
1259B
  8
0
 10
3914.1790382760627836
 20
152.8992833024562117
 30
0.0
 11
3914.1790382760627836
 21
152.7222859577562133
 31
0.0
  0
LINE
  5
1259C
  8
0
 10
3914.2000978336632215
 20
152.7222859577562133
 30
0.0
 11
3914.2000978336632215
 21
152.8992833024562117
 31
0.0
  0
LINE
  5
1259D
  8
0
 10
3914.2230007553630458
 20
152.8992833024562117
 30
0.0
 11
3914.2230007553630458
 21
152.7222859577562133
 31
0.0
  0
LINE
  5
1259E
  8
0
 10
3914.2425830782640332
 20
152.7222859577562133
 30
0.0
 11
3914.2425830782640332
 21
152.8992833024562117
 31
0.0
  0
LINE
  5
1259F
  8
0
 10
3914.2664498519629888
 20
152.8992833024562117
 30
0.0
 11
3914.2664498519629888
 21
152.7222859577562133
 31
0.0
  0
LINE
  5
125A0
  8
0
 10
3914.284372105363218
 20
152.7222859577562133
 30
0.0
 11
3914.284372105363218
 21
152.8992833024562117
 31
0.0
  0
LINE
  5
125A1
  8
0
 10
3914.308979893563901
 20
152.8992833024562117
 30
0.0
 11
3914.308979893563901
 21
152.7222859577562133
 31
0.0
  0
LINE
  5
125A2
  8
0
 10
3914.3250747421629967
 20
152.7222859577562133
 30
0.0
 11
3914.3250747421629967
 21
152.8992833024562117
 31
0.0
  0
LINE
  5
125A3
  8
0
 10
3914.350193788362958
 20
152.8992833024562117
 30
0.0
 11
3914.350193788362958
 21
152.7222859577562133
 31
0.0
  0
LINE
  5
125A4
  8
0
 10
3914.3643109590639142
 20
152.7222859577562133
 30
0.0
 11
3914.3643109590639142
 21
152.8992833024562117
 31
0.0
  0
LINE
  5
125A5
  8
0
 10
3914.3897067336629334
 20
152.8992833024562117
 30
0.0
 11
3914.3897067336629334
 21
152.7222859577562133
 31
0.0
  0
LINE
  5
125A6
  8
0
 10
3914.4017144180629657
 20
152.7222859577562133
 30
0.0
 11
3914.4017144180629657
 21
152.8992833024562117
 31
0.0
  0
LINE
  5
125A7
  8
0
 10
3914.4271498074631381
 20
152.8992833024562117
 30
0.0
 11
3914.4271498074631381
 21
152.7222859577562133
 31
0.0
  0
LINE
  5
125A8
  8
0
 10
3914.4369358931639908
 20
152.7222859577562133
 30
0.0
 11
3914.4369358931639908
 21
152.8992833024562117
 31
0.0
  0
LINE
  5
125A9
  8
0
 10
3914.4621734139618638
 20
152.8992833024562117
 30
0.0
 11
3914.4621734139618638
 21
152.7222859577562133
 31
0.0
  0
LINE
  5
125AA
  8
0
 10
3914.469646530862974
 20
152.7222859577562133
 30
0.0
 11
3914.469646530862974
 21
152.8992833024562117
 31
0.0
  0
LINE
  5
125AB
  8
0
 10
3914.4944505471630691
 20
152.8992833024562117
 30
0.0
 11
3914.4944505471630691
 21
152.7222859577562133
 31
0.0
  0
LINE
  5
125AC
  8
0
 10
3914.4995409208631827
 20
152.7222859577562133
 30
0.0
 11
3914.4995409208631827
 21
152.8992833024562117
 31
0.0
  0
LINE
  5
125AD
  8
0
 10
3914.5236798442629151
 20
152.8992833024562117
 30
0.0
 11
3914.5236798442629151
 21
152.7222859577562133
 31
0.0
  0
LINE
  5
125AE
  8
0
 10
3914.5263399472628407
 20
152.7222859577562133
 30
0.0
 11
3914.5263399472628407
 21
152.8992833024562117
 31
0.0
  0
LINE
  5
125AF
  8
0
 10
3914.5495883991629853
 20
152.8992833024562117
 30
0.0
 11
3914.5495883991629853
 21
152.7222859577562133
 31
0.0
  0
LINE
  5
125B0
  8
0
 10
3914.5719343105629378
 20
152.8992833024562117
 30
0.0
 11
3914.5719343105629378
 21
152.7222859577562133
 31
0.0
  0
LINE
  5
125B1
  8
0
 10
3914.5905089407629021
 20
152.8992833024562117
 30
0.0
 11
3914.5905089407629021
 21
152.7222859577562133
 31
0.0
  0
LINE
  5
125B2
  8
0
 10
3914.6051388634627983
 20
152.8992833024562117
 30
0.0
 11
3914.6051388634627983
 21
152.7222859577562133
 31
0.0
  0
LINE
  5
125B3
  8
0
 10
3914.6069918689631777
 20
153.5567636174561983
 30
0.0
 11
3914.6069918689631777
 21
153.6125403717560971
 31
0.0
  0
LINE
  5
125B4
  8
0
 10
3914.6109288768629995
 20
152.6415772963561039
 30
0.0
 11
3914.6109288768629995
 21
152.7222859577562133
 31
0.0
  0
LINE
  5
125B5
  8
0
 10
3914.6156874830630841
 20
152.8992833024562117
 30
0.0
 11
3914.6156874830630841
 21
152.7222859577562133
 31
0.0
  0
LINE
  5
125B6
  8
0
 10
3914.6220563098631828
 20
152.8992833024562117
 30
0.0
 11
3914.6220563098631828
 21
152.7222859577562133
 31
0.0
  0
LINE
  5
125B7
  8
0
 10
3914.6241858798630346
 20
152.8992833024562117
 30
0.0
 11
3914.6241858798630346
 21
152.7222859577562133
 31
0.0
  0
LINE
  5
125B8
  8
0
 10
3914.6719524989630372
 20
153.7095353341782982
 30
0.0
 11
3914.6719524989630372
 21
153.6322254629561996
 31
0.0
  0
LINE
  5
125B9
  8
0
 10
3914.6719524989630372
 20
153.2142439323561121
 30
0.0
 11
3914.6719524989630372
 21
153.5567636174561983
 31
0.0
  0
LINE
  5
125BA
  8
0
 10
3914.8038422626627835
 20
152.9386533811560867
 30
0.0
 11
3914.8038422626627835
 21
153.1078461020561861
 31
0.0
  0
LINE
  5
125BB
  8
0
 10
3915.5459682469631844
 20
157.7739576945560884
 30
0.0
 11
3915.5459682469631844
 21
156.3566348599561024
 31
0.0
  0
LINE
  5
125BC
  8
0
 10
3915.5459682469631844
 20
151.4550600567561105
 30
0.0
 11
3915.5459682469631844
 21
128.6204143874560941
 31
0.0
  0
LINE
  5
125BD
  8
0
 10
3915.5459682469631844
 20
151.4550600567561105
 30
0.0
 11
3915.5459682469631844
 21
153.5023041512561122
 31
0.0
  0
LINE
  5
125BE
  8
0
 10
3915.5459682469631844
 20
155.7070285606561129
 30
0.0
 11
3915.5459682469631844
 21
156.3566348599561024
 31
0.0
  0
LINE
  5
125BF
  8
0
 10
3915.7428186406627901
 20
157.7739576945560884
 30
0.0
 11
3915.7428186406627901
 21
159.79183171025619
 31
0.0
  0
LINE
  5
125C0
  8
0
 10
3915.7428186406627901
 20
159.79183171025619
 30
0.0
 11
3915.7428186406627901
 21
163.8566779500561097
 31
0.0
  0
LINE
  5
125C1
  8
0
 10
3916.9239210028640628
 20
157.7739576945560884
 30
0.0
 11
3916.9239210028640628
 21
159.79183171025619
 31
0.0
  0
LINE
  5
125C2
  8
0
 10
3916.9239210028640628
 20
159.79183171025619
 30
0.0
 11
3916.9239210028640628
 21
163.8566779500561097
 31
0.0
  0
LINE
  5
125C3
  8
0
 10
3917.1207713965641233
 20
157.7739576945560884
 30
0.0
 11
3917.1207713965641233
 21
156.3566348599561024
 31
0.0
  0
LINE
  5
125C4
  8
0
 10
3917.1207713965641233
 20
151.4550600567561105
 30
0.0
 11
3917.1207713965641233
 21
128.6204143874560941
 31
0.0
  0
LINE
  5
125C5
  8
0
 10
3917.1207713965641233
 20
151.4550600567561105
 30
0.0
 11
3917.1207713965641233
 21
153.5023041512561122
 31
0.0
  0
LINE
  5
125C6
  8
0
 10
3917.1207713965641233
 20
155.7070285606561129
 30
0.0
 11
3917.1207713965641233
 21
156.3566348599561024
 31
0.0
  0
LINE
  5
125C7
  8
0
 10
3918.6955745461627885
 20
127.8330128126560936
 30
0.0
 11
3918.6955745461627885
 21
128.6204143874560941
 31
0.0
  0
LINE
  5
125C8
  8
0
 10
3912.5942802424629008
 20
161.207876766056188
 30
0.0
 11
3912.591851723263062
 21
161.2138965702561961
 31
0.0
  0
LINE
  5
125C9
  8
0
 10
3919.4829761209630306
 20
153.6991545449560874
 30
0.0
 11
3919.4829761209630306
 21
155.5101781669561092
 31
0.0
  0
LINE
  5
125CA
  8
0
 10
3919.5026611603630045
 20
153.7089970646561028
 30
0.0
 11
3919.5026611603630045
 21
155.5003356473561098
 31
0.0
  0
LINE
  5
125CB
  8
0
 10
3919.6050233650630616
 20
160.4215954898560881
 30
0.0
 11
3919.6050233650630616
 21
156.0219891906560861
 31
0.0
  0
LINE
  5
125CC
  8
0
 10
3919.6955745461627885
 20
156.0219891906560861
 30
0.0
 11
3919.6955745461627885
 21
155.5096816080148869
 31
0.0
  0
LINE
  5
125CD
  8
0
 10
3913.6837635184629107
 20
153.6125403717560971
 30
0.0
 11
3913.6640784831629389
 21
153.6322254629561996
 31
0.0
  0
LINE
  5
125CE
  8
0
 10
3920.1365194280638207
 20
156.0219891906560861
 30
0.0
 11
3920.1365194280638207
 21
155.5096816080148869
 31
0.0
  0
LINE
  5
125CF
  8
0
 10
3920.2270706091630927
 20
160.4215954898560881
 30
0.0
 11
3920.2270706091630927
 21
156.0219891906560861
 31
0.0
  0
LINE
  5
125D0
  8
0
 10
3920.3294328138631499
 20
153.7109655686560927
 30
0.0
 11
3920.3294328138631499
 21
155.4983671433562051
 31
0.0
  0
LINE
  5
125D1
  8
0
 10
3912.597604224863062
 20
161.2023024533561966
 30
0.0
 11
3912.5942802424629008
 21
161.207876766056188
 31
0.0
  0
LINE
  5
125D2
  8
0
 10
3913.7546296643640744
 20
152.6120497372560862
 30
0.0
 11
3914.5814013177628112
 21
152.6120497372560862
 31
0.0
  0
LINE
  5
125D3
  8
0
 10
3913.7123778057630261
 20
152.7222859577562133
 30
0.0
 11
3914.6241858798630346
 21
152.7222859577562133
 31
0.0
  0
LINE
  5
125D4
  8
0
 10
3914.696574286563191
 20
153.1777406310561958
 30
0.0
 11
3914.7792204750630845
 21
153.1443494034562036
 31
0.0
  0
LINE
  5
125D5
  8
0
 10
3913.5715587981630961
 20
152.8992833024562117
 30
0.0
 11
3914.7644721839628801
 21
152.8992833024562117
 31
0.0
  0
LINE
  5
125D6
  8
0
 10
3913.5568105070628917
 20
153.1443494034562036
 30
0.0
 11
3914.7792204750630845
 21
153.1443494034562036
 31
0.0
  0
LINE
  5
125D7
  8
0
 10
3914.696574286563191
 20
153.1777406310561958
 30
0.0
 11
3913.6394566955627852
 21
153.1777406310561958
 31
0.0
  0
LINE
  5
125D8
  8
0
 10
3914.6719524989630372
 20
153.5567636174561983
 30
0.0
 11
3913.6640784831629389
 21
153.5567636174561983
 31
0.0
  0
LINE
  5
125D9
  8
0
 10
3913.6837635184629107
 20
153.6125403717560971
 30
0.0
 11
3914.6522674636630654
 21
153.6125403717560971
 31
0.0
  0
LINE
  5
125DA
  8
0
 10
3913.6640784831629389
 20
153.6322254629561996
 30
0.0
 11
3914.6719524989630372
 21
153.6322254629561996
 31
0.0
  0
LINE
  5
125DB
  8
0
 10
3920.3176217902628196
 20
153.6991545449560874
 30
0.0
 11
3920.2113225776629406
 21
153.6991545449560874
 31
0.0
  0
LINE
  5
125DC
  8
0
 10
3919.8569918689640872
 20
153.6991545449560874
 30
0.0
 11
3919.5144721839628801
 21
153.6991545449560874
 31
0.0
  0
LINE
  5
125DD
  8
0
 10
3919.4829761209630306
 20
153.6991545449560874
 30
0.0
 11
3917.3176217902628196
 21
153.6991545449560874
 31
0.0
  0
LINE
  5
125DE
  8
0
 10
3915.3491178532640333
 20
153.6991545449560874
 30
0.0
 11
3914.6896690343628507
 21
153.6991545449560874
 31
0.0
  0
LINE
  5
125DF
  8
0
 10
3913.6463619477631255
 20
153.6991545449560874
 30
0.0
 11
3913.2955925491628477
 21
153.6991545449560874
 31
0.0
  0
LINE
  5
125E0
  8
0
 10
3919.5026611603630045
 20
153.7089970646561028
 30
0.0
 11
3919.4829761209630306
 21
153.7089970646561028
 31
0.0
  0
LINE
  5
125E1
  8
0
 10
3912.4357320264630289
 20
153.764797589956089
 30
0.0
 11
3912.6526529957632192
 21
153.764797589956089
 31
0.0
  0
LINE
  5
125E2
  8
0
 10
3912.6581807738630232
 20
153.7655896560561928
 30
0.0
 11
3912.6526529957632192
 21
153.764797589956089
 31
0.0
  0
LINE
  5
125E3
  8
0
 10
3912.5632152340640459
 20
155.4445351219561076
 30
0.0
 11
3912.4357320264630289
 21
155.4445351219561076
 31
0.0
  0
LINE
  5
125E4
  8
0
 10
3912.3373068296627935
 20
155.4621250215562043
 30
0.0
 11
3913.4396690343628507
 21
155.4621250215562043
 31
0.0
  0
LINE
  5
125E5
  8
0
 10
3919.5026611603630045
 20
155.5003356473561098
 30
0.0
 11
3919.4829761209630306
 21
155.5003356473561098
 31
0.0
  0
LINE
  5
125E6
  8
0
 10
3920.3176217902628196
 20
155.5101781669561092
 30
0.0
 11
3920.1384879319630272
 21
155.5101781669561092
 31
0.0
  0
LINE
  5
125E7
  8
0
 10
3919.6936060422631272
 20
155.5101781669561092
 30
0.0
 11
3919.5144721839628801
 21
155.5101781669561092
 31
0.0
  0
LINE
  5
125E8
  8
0
 10
3919.4829761209630306
 20
155.5101781669561092
 30
0.0
 11
3917.3176217902628196
 21
155.5101781669561092
 31
0.0
  0
LINE
  5
125E9
  8
0
 10
3915.3491178532640333
 20
155.5101781669561092
 30
0.0
 11
3913.4396690343628507
 21
155.5101781669561092
 31
0.0
  0
LINE
  5
125EA
  8
0
 10
3919.6050233650630616
 20
156.0219891906560861
 30
0.0
 11
3920.2270706091630927
 21
156.0219891906560861
 31
0.0
  0
LINE
  5
125EB
  8
0
 10
3917.1207713965641233
 20
157.7739576945560884
 30
0.0
 11
3915.5459682469631844
 21
157.7739576945560884
 31
0.0
  0
LINE
  5
125EC
  8
0
 10
3915.7528186406630084
 20
159.7818317102561139
 30
0.0
 11
3916.913921002862935
 21
159.7818317102561139
 31
0.0
  0
LINE
  5
125ED
  8
0
 10
3920.2172280711629355
 20
160.4314380095561887
 30
0.0
 11
3919.6148659030641284
 21
160.4314380095561887
 31
0.0
  0
LINE
  5
125EE
  8
0
 10
3915.7428186406627901
 20
160.5298632063561968
 30
0.0
 11
3916.9239210028640628
 21
160.5298632063561968
 31
0.0
  0
LINE
  5
125EF
  8
0
 10
3912.7191965933629945
 20
164.2199990373561036
 30
0.0
 11
3912.6640784831629389
 21
164.2199990373561036
 31
0.0
  0
LINE
  5
125F0
  8
0
 10
3912.6640784831629389
 20
164.2278730530561006
 30
0.0
 11
3912.7191965934630389
 21
164.2278730530561006
 31
0.0
  0
LINE
  5
125F1
  8
0
 10
3912.7191965934630389
 20
164.5034636042562113
 30
0.0
 11
3912.6640784831629389
 21
164.5034636042562113
 31
0.0
  0
LINE
  5
125F2
  8
0
 10
3912.6640784831629389
 20
164.5113376199560946
 30
0.0
 11
3912.7191965933629945
 21
164.5113376199560946
 31
0.0
  0
LINE
  5
125F3
  8
0
 10
3913.4396690343628507
 20
164.9109439192561979
 30
0.0
 11
3912.3373068296627935
 21
164.9109439192561979
 31
0.0
  0
ARC
  5
125F4
  8
0
 10
3913.5715587981630961
 20
152.9386533811560867
 30
0.0
 40
0.0393700787
 50
180.0
 51
270.0
  0
ARC
  5
125F5
  8
0
 10
3913.5715587981630961
 20
153.1078461020561861
 30
0.0
 40
0.0393700787
 50
112.0000000000936069
 51
180.0
  0
ARC
  5
125F6
  8
0
 10
3913.624708404463945
 20
153.2142439323561121
 30
0.0
 40
0.0393700787
 50
292.0000000000936211
 51
0.0
  0
ARC
  5
125F7
  8
0
 10
3913.7546296642631205
 20
152.6415772963561039
 30
0.0
 40
0.0295275591
 50
180.0
 51
270.0
  0
ARC
  5
125F8
  8
0
 10
3912.5632154080572036
 20
155.4248510102345051
 30
0.0
 40
0.0196841117224656
 50
68.7504879121887029
 51
90.0005064546812292
  0
ARC
  5
125F9
  8
0
 10
3912.8878597693628762
 20
159.3339324220561934
 30
0.0
 40
0.277505084
 50
291.0157941586957122
 51
0.0475525818997794
  0
ARC
  5
125FA
  8
0
 10
3912.8882835385088583
 20
159.3345471279737069
 30
0.0
 40
0.2770814859096502
 50
359.9205144292067757
 51
110.8651062157394023
  0
CIRCLE
  5
125FB
  8
0
 10
3912.6365194280629112
 20
161.2318100609560929
 30
0.0
 40
0.062992126
  0
CIRCLE
  5
125FC
  8
0
 10
3912.6365194280629112
 20
161.7357470688561989
 30
0.0
 40
0.062992126
  0
CIRCLE
  5
125FD
  8
0
 10
3912.6365194280629112
 20
161.483778564856209
 30
0.0
 40
0.062992126
  0
ARC
  5
125FE
  8
0
 10
3912.6487720428640387
 20
161.7383243816562128
 30
0.0
 40
0.0606436514
 50
196.6735263191027059
 51
202.1722374045031927
  0
ARC
  5
125FF
  8
0
 10
3912.6485660479629587
 20
161.4865386747561047
 30
0.0
 40
0.0603979603
 50
201.6936470642959875
 51
208.712210453895608
  0
CIRCLE
  5
12600
  8
0
 10
3912.7625036800632188
 20
161.1058258089562116
 30
0.0
 40
0.062992126
  0
CIRCLE
  5
12601
  8
0
 10
3912.7625036800632188
 20
161.3577943129562016
 30
0.0
 40
0.062992126
  0
CIRCLE
  5
12602
  8
0
 10
3912.7625036800632188
 20
161.6097628168560902
 30
0.0
 40
0.062992126
  0
CIRCLE
  5
12603
  8
0
 10
3912.7625036800632188
 20
161.8617313207562063
 30
0.0
 40
0.062992126
  0
CIRCLE
  5
12604
  8
0
 10
3912.8884879319630272
 20
159.3341722656560933
 30
0.0
 40
0.2952755906
  0
ARC
  5
12605
  8
0
 10
3912.8891161710639608
 20
159.3344121646561007
 30
0.0
 40
0.2775051165
 50
111.015819397002403
 51
180.047666593700086
  0
ARC
  5
12606
  8
0
 10
3912.8886926964300983
 20
159.3337944280447971
 30
0.0
 40
0.2770785168903679
 50
179.9200045661845877
 51
290.8652472261522917
  0
CIRCLE
  5
12607
  8
0
 10
3912.8884879319630272
 20
161.2318100609560929
 30
0.0
 40
0.062992126
  0
CIRCLE
  5
12608
  8
0
 10
3912.8884879319630272
 20
161.483778564856209
 30
0.0
 40
0.062992126
  0
CIRCLE
  5
12609
  8
0
 10
3912.8884879319630272
 20
161.7357470688561989
 30
0.0
 40
0.062992126
  0
CIRCLE
  5
1260A
  8
0
 10
3912.6365194280629112
 20
162.4916525806561935
 30
0.0
 40
0.062992126
  0
CIRCLE
  5
1260B
  8
0
 10
3912.6365194280629112
 20
162.2396840766562036
 30
0.0
 40
0.062992126
  0
CIRCLE
  5
1260C
  8
0
 10
3912.6365194280629112
 20
161.9877155727562013
 30
0.0
 40
0.062992126
  0
ARC
  5
1260D
  8
0
 10
3912.6488042683631647
 20
161.9899706485560955
 30
0.0
 40
0.0606836841
 50
191.3216342813009874
 51
195.1762382106003031
  0
CIRCLE
  5
1260E
  8
0
 10
3912.7625036800632188
 20
162.113699824756111
 30
0.0
 40
0.062992126
  0
CIRCLE
  5
1260F
  8
0
 10
3912.7625036800632188
 20
162.3656683286561133
 30
0.0
 40
0.062992126
  0
ARC
  5
12610
  8
0
 10
3912.8884814448610996
 20
162.2396840766562036
 30
0.0
 40
0.0413309734980959
 50
89.9910067732019314
 51
270.0089926823766859
  0
ARC
  5
12611
  8
0
 10
3912.8884609640090275
 20
161.9862391948082063
 30
0.0
 40
0.0413084979459166
 50
89.9625903036587431
 51
270.0374007862494068
  0
ARC
  5
12612
  8
0
 10
3912.888484666812019
 20
162.2396840782060963
 30
0.0
 40
0.0216495448487876
 50
89.9913589061902854
 51
270.0086415899510257
  0
ARC
  5
12613
  8
0
 10
3912.8884743865091878
 20
161.9862391955053056
 30
0.0
 40
0.0216381709451193
 50
89.9641364488613533
 51
270.0358707854177851
  0
ARC
  5
12614
  8
0
 10
3912.6640784831629389
 20
164.5900777774562016
 30
0.0
 40
0.0866141732
 50
0.0
 51
270.0
  0
ARC
  5
12615
  8
0
 10
3912.6640784831629389
 20
164.1412588798561956
 30
0.0
 40
0.0866141732
 50
89.9999999992965058
 51
0.0
  0
ARC
  5
12616
  8
0
 10
3912.6640784831629389
 20
164.5900777774562016
 30
0.0
 40
0.0787401575
 50
0.0
 51
270.0
  0
ARC
  5
12617
  8
0
 10
3912.6640784831629389
 20
164.1412588798561956
 30
0.0
 40
0.0787401575
 50
90.0
 51
0.0
  0
CIRCLE
  5
12618
  8
0
 10
3912.6640783644629664
 20
164.14125926925621
 30
0.0
 40
0.0393693824
  0
CIRCLE
  5
12619
  8
0
 10
3912.6640783587631631
 20
164.5900773430560946
 30
0.0
 40
0.0393693092
  0
ARC
  5
1261A
  8
0
 10
3912.7191965933629945
 20
164.5349596672560892
 30
0.0
 40
0.031496063
 50
270.0000000057061129
 51
0.0
  0
ARC
  5
1261B
  8
0
 10
3912.7191965933629945
 20
164.1963769900561942
 30
0.0
 40
0.031496063
 50
0.0
 51
90.0
  0
ARC
  5
1261C
  8
0
 10
3912.7191965933629945
 20
164.5349596672560892
 30
0.0
 40
0.0236220472
 50
270.0
 51
0.0
  0
ARC
  5
1261D
  8
0
 10
3912.7191965933629945
 20
164.1963769900561942
 30
0.0
 40
0.0236220472
 50
0.0
 51
90.0
  0
CIRCLE
  5
1261E
  8
0
 10
3912.8884879319630272
 20
161.9877155727562013
 30
0.0
 40
0.062992126
  0
CIRCLE
  5
1261F
  8
0
 10
3912.8884879319630272
 20
162.2396840766562036
 30
0.0
 40
0.062992126
  0
CIRCLE
  5
12620
  8
0
 10
3912.8884879319630272
 20
162.4916525806561935
 30
0.0
 40
0.062992126
  0
CIRCLE
  5
12621
  8
0
 10
3912.8884879319630272
 20
162.4916525806561935
 30
0.0
 40
0.0413385827
  0
ARC
  5
12622
  8
0
 10
3912.8884944193650881
 20
162.2396840766560899
 30
0.0
 40
0.0413309734981174
 50
269.9910065511863877
 51
90.0089929043922155
  0
ARC
  5
12623
  8
0
 10
3912.8885149006168831
 20
161.9862391948039999
 30
0.0
 40
0.0413084979462725
 50
269.9625895400877198
 51
90.0374015498204443
  0
CIRCLE
  5
12624
  8
0
 10
3912.8884879319630272
 20
162.4916525806561935
 30
0.0
 40
0.0216535433
  0
ARC
  5
12625
  8
0
 10
3912.8884911965151332
 20
162.2396840782060963
 30
0.0
 40
0.0216495448486845
 50
269.9913606540188198
 51
90.0086398421225056
  0
ARC
  5
12626
  8
0
 10
3912.8885014789170782
 20
161.9862391955070109
 30
0.0
 40
0.0216381709460073
 50
269.9641327078165887
 51
90.0358745264625213
  0
ARC
  5
12627
  8
0
 10
3914.7644721839628801
 20
152.9386533811560867
 30
0.0
 40
0.0393700787
 50
270.0
 51
0.0
  0
ARC
  5
12628
  8
0
 10
3914.7644721839628801
 20
153.1078461020561861
 30
0.0
 40
0.0393700787
 50
0.0
 51
67.9999999999064215
  0
ARC
  5
12629
  8
0
 10
3914.7113225776629406
 20
153.2142439323561121
 30
0.0
 40
0.0393700787
 50
180.0
 51
247.9999999999064073
  0
ARC
  5
1262A
  8
0
 10
3914.5814013178628556
 20
152.6415772963561039
 30
0.0
 40
0.0295275591
 50
270.0
 51
0.0
  0
ARC
  5
1262B
  8
0
 10
3916.3333698217629717
 20
163.8566779500561097
 30
0.0
 40
0.5905511811000002
 50
0.0
 51
180.0
  0
ARC
  5
1262C
  8
0
 10
3916.913921002862935
 20
159.79183171025619
 30
0.0
 40
0.01
 50
270.0
 51
0.0
  0
ARC
  5
1262D
  8
0
 10
3915.7528186406630084
 20
159.79183171025619
 30
0.0
 40
0.01
 50
180.0
 51
270.0
  0
ARC
  5
1262E
  8
0
 10
3915.7478186406628993
 20
160.5248632063560876
 30
0.0
 40
0.005
 50
90.0
 51
180.0
  0
ARC
  5
1262F
  8
0
 10
3916.9189210028639536
 20
160.5248632063560876
 30
0.0
 40
0.005
 50
0.0
 51
90.0
  0
ARC
  5
12630
  8
0
 10
3920.034157223362854
 20
153.8483636361561935
 30
0.0
 40
0.1887130282
 50
228.1240054561093871
 51
311.8759945383644094
  0
ARC
  5
12631
  8
0
 10
3919.5144721839628801
 20
155.4983671433562051
 30
0.0
 40
0.0118110236
 50
90.0
 51
180.0
  0
ARC
  5
12632
  8
0
 10
3920.3176217902628196
 20
155.4983671433562051
 30
0.0
 40
0.0118110236
 50
0.0
 51
90.0
  0
ARC
  5
12633
  8
0
 10
3920.3176217902628196
 20
153.7109655685561052
 30
0.0
 40
0.0118110236
 50
270.0
 51
0.0
  0
ARC
  5
12634
  8
0
 10
3919.5144721839628801
 20
153.7109655685561052
 30
0.0
 40
0.0118110236
 50
180.0
 51
270.0
  0
ARC
  5
12635
  8
0
 10
3920.2172280894628784
 20
160.4215954898560881
 30
0.0
 40
0.0098425197
 50
0.0
 51
90.0001068744929142
  0
ARC
  5
12636
  8
0
 10
3919.6148658847628212
 20
160.4215954898560881
 30
0.0
 40
0.0098425197
 50
89.9998931255070858
 51
180.0
  0
ARC
  5
12637
  8
0
 10
3919.9160469871130772
 20
156.3878485541335124
 30
0.0
 40
0.9054199481311488
 50
255.7781483952597057
 51
284.221851604740209
  0
ARC
  5
12638
  8
0
 10
3920.0341572233128318
 20
152.8110848727550035
 30
0.0
 40
0.9055690506335926
 50
78.7178982434381567
 51
101.2821017565618007
  0
ARC
  5
12639
  8
0
 10
3912.4365024720991642
 20
153.804939592032099
 30
0.0
 40
0.0401493949785675
 50
181.2044357740417979
 51
268.900456831533802
  0
ARC
  5
1263A
  8
0
 10
3912.8882046358448861
 20
153.0081722530005095
 30
0.0
 40
0.7915757067599958
 50
86.5651304976469191
 51
106.8932724803629952
  0
ARC
  5
1263B
  8
0
 10
3912.8606803518609922
 20
152.8443944804214993
 30
0.0
 40
0.9568713695841442
 50
63.7177864300710226
 51
85.5074843009277856
  0
ARC
  5
1263C
  8
0
 10
3913.2966430661499544
 20
153.7241369513266136
 30
0.0
 40
0.0250044838779039
 50
240.6207818375646923
 51
267.5921154364825725
  0
ARC
  5
1263D
  8
0
 10
3912.4364966846937932
 20
155.4043986789191081
 30
0.0
 40
0.0401437261078621
 50
91.0914367810084684
 51
178.7874578382825916
  0
ARC
  5
1263E
  8
0
 10
3912.8981765148228078
 20
156.2505017086695034
 30
0.0
 40
0.8713275637008447
 50
247.8991184246472983
 51
271.7694160643849841
  0
ARC
  5
1263F
  8
0
 10
3912.8545508671531934
 20
156.3487353487531095
 30
0.0
 40
0.9717087654168842
 50
274.1623769272404729
 51
294.1575007283664718
  0
ARC
  5
12640
  8
0
 10
3915.3472579851268165
 20
155.7088884287923918
 30
0.0
 40
0.1987189655481269
 50
270.5362555615749898
 51
359.4637444384159721
  0
ARC
  5
12641
  8
0
 10
3917.3175579302060214
 20
155.7069647005982063
 30
0.0
 40
0.1967865440038367
 50
179.9814066968808106
 51
270.0185933031183936
  0
ARC
  5
12642
  8
0
 10
3918.9963718337789942
 20
160.3860341815378945
 30
0.0
 40
6.0890420817301738
 50
233.2026548025604029
 51
238.4678553909159859
  0
ARC
  5
12643
  8
0
 10
3916.5873813833450185
 20
156.4226897806630916
 30
0.0
 40
1.4511818239630641
 50
237.7002284011514917
 51
251.8640769929841952
  0
ARC
  5
12644
  8
0
 10
3916.335043846417193
 20
155.665548431967494
 30
0.0
 40
0.6531220162124974
 50
252.2259014901308944
 51
291.7869780104953747
  0
ARC
  5
12645
  8
0
 10
3915.0990676261299086
 20
158.3176128635176099
 30
0.0
 40
3.5782219264110751
 50
294.4036497304181808
 51
308.3172889734008209
  0
ARC
  5
12646
  8
0
 10
3914.303473687611131
 20
152.6127595380029049
 30
0.0
 40
1.269665290452209
 50
103.7227108753309039
 51
121.1678671281659945
  0
ARC
  5
12647
  8
0
 10
3914.1687757496970335
 20
153.0990842798842095
 30
0.0
 40
0.7654257887627515
 50
73.7508683110701355
 51
102.5634694513519065
  0
ARC
  5
12648
  8
0
 10
3913.993597718077126
 20
152.5315021005415872
 30
0.0
 40
1.359384974281892
 50
59.1996104112627322
 51
73.3562439231742331
  0
ARC
  5
12649
  8
0
 10
3915.3478346078168215
 20
153.5010209058098951
 30
0.0
 40
0.1981377946788719
 50
0.3710804507592302
 51
89.6289195492456656
  0
ARC
  5
1264A
  8
0
 10
3917.317621790314206
 20
153.5023041512058057
 30
0.0
 40
0.1968503937504025
 50
90.0000000146690269
 51
179.9999999853293104
  0
ARC
  5
1264B
  8
0
 10
3918.2234435181471781
 20
149.9337215327024069
 30
0.0
 40
4.7371123902203687
 50
118.7448976262975009
 51
127.3561346840242976
  0
ARC
  5
1264C
  8
0
 10
3914.743737741564928
 20
150.3808984534902038
 30
0.0
 40
4.1994883718083811
 50
52.2002071343754679
 51
62.5248989415593215
  0
ARC
  5
1264D
  8
0
 10
3916.4106860256251821
 20
153.2225775435105959
 30
0.0
 40
0.9817993966115777
 50
99.3617395088919153
 51
118.2941003266213045
  0
ARC
  5
1264E
  8
0
 10
3916.2665953581199574
 20
153.2670190434002961
 30
0.0
 40
0.9365029566632062
 50
63.7208886752818628
 51
80.1549637589880177
  0
ARC
  5
1264F
  8
0
 10
3916.3334394051212257
 20
153.5845572747921892
 30
0.0
 40
0.6123208309241733
 50
81.2372507651611642
 51
97.7394071919787137
  0
ARC
  5
12650
  8
0
 10
5107.0599984874734218
 20
150.8920783001561858
 30
0.0
 40
1193.168813231068043
 50
179.9174072124031909
 51
180.3059877677596035
  0
ARC
  5
12651
  8
0
 10
5483.8771316440761439
 20
150.7450817175561042
 30
0.0
 40
1569.4346360560939502
 50
179.9318420717968934
 51
180.2165200090227017
  0
ARC
  5
12652
  8
0
 10
3812.6645731070138936
 20
141.8314990070905992
 30
0.0
 40
101.8328207658797027
 50
0.4954274754542904
 51
1.678456133406276
  0
ARC
  5
12653
  8
0
 10
3891.7174687204228576
 20
142.7737468867296116
 30
0.0
 40
22.7762019095889308
 50
356.0989947692501119
 51
359.844720271102176
  0
ARC
  5
12654
  8
0
 10
4178.543154500404853
 20
121.2708267163558986
 30
0.0
 40
264.8549387948610274
 50
175.6794109855325985
 51
176.1419552515233988
  0
ARC
  5
12655
  8
0
 10
3942.1177326029692267
 20
137.3768352545463927
 30
0.0
 40
27.882081114773321
 50
176.4742256237452125
 51
180.0793561678630965
  0
ARC
  5
12656
  8
0
 10
3928.1811127815399232
 20
137.3136717573632097
 30
0.0
 40
13.9454561526906193
 50
179.8991507974513127
 51
187.985915531815408
  0
ARC
  5
12657
  8
0
 10
3926.576663540095069
 20
137.3084169845606084
 30
0.0
 40
12.3577541474067498
 50
188.9953253952342891
 51
197.1000598631304968
  0
ARC
  5
12658
  8
0
 10
3894.1260405292969153
 20
127.2457435402877053
 30
0.0
 40
21.6172901212392006
 50
13.9300341085550698
 51
17.3015105288732798
  0
ARC
  5
12659
  8
0
 10
3911.796982666699023
 20
131.4949541516126033
 30
0.0
 40
3.4455472565984349
 50
352.5229095984939818
 51
16.0890452882560488
  0
ARC
  5
1265A
  8
0
 10
3913.4351783343231546
 20
131.3430580477671015
 30
0.0
 40
1.802601388543662
 50
310.211335717436782
 51
350.5336088301592099
  0
ARC
  5
1265B
  8
0
 10
3912.4477736295530121
 20
132.5723017704355016
 30
0.0
 40
3.3790446150974178
 50
288.5599563078936853
 51
309.5405181638071781
  0
ARC
  5
1265C
  8
0
 10
3912.8283642918199803
 20
131.0766364085629903
 30
0.0
 40
1.8436333568172181
 50
259.8622941396737929
 51
292.1445832194045806
  0
ARC
  5
1265D
  8
0
 10
3912.7569856585269008
 20
130.1597321948293029
 30
0.0
 40
0.9329414836200323
 50
188.9558790443163048
 51
254.2570404137080118
  0
ARC
  5
1265E
  8
0
 10
3915.2781453229008548
 20
130.6625713679210889
 30
0.0
 40
3.5031942832965588
 50
172.6281957727109955
 51
190.6608464311134128
  0
ARC
  5
1265F
  8
0
 10
3932.6108216752941189
 20
128.4861853615890936
 30
0.0
 40
20.9719552172437602
 50
167.0272448729803045
 51
172.8071888584001954
  0
ARC
  5
12660
  8
0
 10
3876.5107831485602219
 20
141.2141552505217987
 30
0.0
 40
36.5540075739996482
 50
347.3260856491589834
 51
350.9263154530606243
  0
ARC
  5
12661
  8
0
 10
3896.088393534709212
 20
137.8318909068605933
 30
0.0
 40
16.6898957990294114
 50
351.7930403235442895
 51
359.5844678413502038
  0
ARC
  5
12662
  8
0
 10
3886.0512437949269042
 20
137.8275155744190101
 30
0.0
 40
26.7268612480136802
 50
359.7498972768772205
 51
4.6703315402230148
  0
ARC
  5
12663
  8
0
 10
3950.735557421870908
 20
143.2804384716289974
 30
0.0
 40
38.1870399317839926
 50
182.9194571273245913
 51
184.9224948611580999
  0
ARC
  5
12664
  8
0
 10
3931.4729874995227874
 20
142.1224301064333986
 30
0.0
 40
18.8913052421570704
 50
178.6097662073937897
 51
182.3874077240710108
  0
ARC
  5
12665
  8
0
 10
3803.8332263378802054
 20
145.1529258787140009
 30
0.0
 40
108.7844297954391948
 50
358.6451406757565223
 51
359.324264529797972
  0
ARC
  5
12666
  8
0
 10
3067.2452189044079205
 20
146.4979594764311059
 30
0.0
 40
845.3689564923117814
 50
359.8218851265746139
 51
0.0996282897703405
  0
LINE
  5
12667
  8
0
 10
3912.6128973807631155
 20
153.764797589956089
 30
0.0
 11
3912.6128973807631155
 21
147.9679215162364869
 31
0.0
  0
LINE
  5
12668
  8
0
 10
3913.1640784831629389
 20
153.751892354717711
 30
0.0
 11
3913.1640784831629389
 21
144.734004663956199
 31
0.0
  0
ARC
  5
12669
  8
0
 10
3841.3616189306330853
 20
144.5464629560609069
 30
0.0
 40
71.8027044733335487
 50
358.5697675281020906
 51
0.1496511954732457
  0
ARC
  5
1266A
  8
0
 10
3932.8551366939891523
 20
142.1618815101248003
 30
0.0
 40
19.7220821559281312
 50
178.2786977535670019
 51
182.8364547882825946
  0
ARC
  5
1266B
  8
0
 10
3679.2480435794041114
 20
124.1001875071041951
 30
0.0
 40
234.532351634676786
 50
3.6875223215665169
 51
4.1777130400184408
  0
ARC
  5
1266C
  8
0
 10
3892.0162283176650817
 20
137.9615528930598032
 30
0.0
 40
21.3136956175562489
 50
356.9148689845869171
 51
3.288359419645178
  0
ARC
  5
1266D
  8
0
 10
3895.7761259788430834
 20
137.8656920891843072
 30
0.0
 40
17.5544119680586803
 50
349.0097139218379994
 51
356.5668225327989944
  0
ARC
  5
1266E
  8
0
 10
3726.9846350533539407
 20
171.690442827309397
 30
0.0
 40
189.7013952277056035
 50
348.0264640662391002
 51
348.699965517044177
  0
ARC
  5
1266F
  8
0
 10
3922.7653473929308348
 20
130.0463823761292872
 30
0.0
 40
10.4599955216233198
 50
167.3615213140130038
 51
176.0806979975893114
  0
ARC
  5
12670
  8
0
 10
3914.1951885992698408
 20
130.5906594039055904
 30
0.0
 40
1.8731661229372929
 50
174.7721009164837085
 51
198.1999409023187013
  0
ARC
  5
12671
  8
0
 10
3912.7323529369878088
 20
130.1170218153706912
 30
0.0
 40
0.3356515364844524
 50
199.3864943842503976
 51
263.2519793502298171
  0
ARC
  5
12672
  8
0
 10
3912.7147016943918061
 20
131.7730873303613066
 30
0.0
 40
1.9895111489173669
 50
269.372492020127595
 51
296.719829204906091
  0
ARC
  5
12673
  8
0
 10
3912.8034850997860303
 20
131.9799597643732909
 30
0.0
 40
2.1413181199650442
 50
292.1040716595983895
 51
319.7086017774071252
  0
ARC
  5
12674
  8
0
 10
3913.3575858829358367
 20
131.3838735401180884
 30
0.0
 40
1.3366721020016179
 50
323.8422105282090229
 51
0.3015807812314834
  0
ARC
  5
12675
  8
0
 10
3909.5260331613658309
 20
131.2130788459932944
 30
0.0
 40
5.1712648417189842
 50
1.970685590419667
 51
18.3092845107155817
  0
ARC
  5
12676
  8
0
 10
3956.5213513461771981
 20
145.5626126036239043
 30
0.0
 40
43.9675387230123107
 50
195.1169172602311903
 51
196.8231197067995879
  0
ARC
  5
12677
  8
0
 10
3923.9732372519652017
 20
136.7851975099821118
 30
0.0
 40
10.2566822847093704
 50
187.1667923377142131
 51
195.1980844170832086
  0
ARC
  5
12678
  8
0
 10
3929.5593192862279466
 20
137.4011503035316082
 30
0.0
 40
15.8761980828665905
 50
179.1889919113264114
 51
186.857257907207412
  0
ARC
  5
12679
  8
0
 10
3943.5188825481591266
 20
137.3325378102082936
 30
0.0
 40
29.8356128811063996
 50
175.9106275633118059
 51
179.4366875510293085
  0
ARC
  5
1267A
  8
0
 10
3458.9772660354437903
 20
173.265719516357791
 30
0.0
 40
456.0366750613920885
 50
355.7488230306462924
 51
356.0000050840694144
  0
ARC
  5
1267B
  8
0
 10
3891.363474642330857
 20
142.8021198011277875
 30
0.0
 40
22.579852301308879
 50
356.5777802925929905
 51
1.6531178278591181
  0
ARC
  5
1267C
  8
0
 10
4395.3087161866778843
 20
155.6001833517630075
 30
0.0
 40
481.5280128771187265
 50
181.3185191618688918
 51
181.4454545938058914
  0
LINE
  5
1267D
  8
0
 10
3913.0341572233360239
 20
164.5900777774436108
 30
0.0
 11
3913.0341572233310217
 21
164.5349596672436121
 31
0.0
  0
LINE
  5
1267E
  8
0
 10
3913.0341572233019178
 20
164.1963769900436034
 30
0.0
 11
3913.0341572232969156
 21
164.1412588798436047
 31
0.0
  0
LINE
  5
1267F
  8
0
 10
3913.0262832075959523
 20
164.1412588798442869
 30
0.0
 11
3913.026283207601864
 21
164.196376990044314
 31
0.0
  0
LINE
  5
12680
  8
0
 10
3913.0262832076309678
 20
164.5349596672442942
 30
0.0
 11
3913.0262832076350605
 21
164.5900777774442929
 31
0.0
  0
LINE
  5
12681
  8
0
 10
3913.0577792706039872
 20
164.2199990373416085
 30
0.0
 11
3913.1128973808040428
 21
164.2199990373368053
 31
0.0
  0
LINE
  5
12682
  8
0
 10
3913.1128973808040428
 20
164.2278730530368023
 30
0.0
 11
3913.0577792705039428
 21
164.2278730530416055
 31
0.0
  0
LINE
  5
12683
  8
0
 10
3913.0577792705280444
 20
164.5034636042414888
 30
0.0
 11
3913.1128973808281444
 21
164.5034636042367993
 31
0.0
  0
LINE
  5
12684
  8
0
 10
3913.1128973808290539
 20
164.5113376199367963
 30
0.0
 11
3913.0577792706289983
 21
164.5113376199414859
 31
0.0
  0
ARC
  5
12685
  8
0
 10
3913.1128973808349656
 20
164.5900777774367896
 30
0.0
 40
0.0866141732
 50
269.9999999950495067
 51
179.9999999950584879
  0
ARC
  5
12686
  8
0
 10
3913.1128973807972216
 20
164.141258879836812
 30
0.0
 40
0.0866141732
 50
179.9999999950584879
 51
89.999999995753015
  0
ARC
  5
12687
  8
0
 10
3913.1128973808349656
 20
164.5900777774367896
 30
0.0
 40
0.0787401575
 50
269.9999999950495067
 51
179.9999999950584879
  0
ARC
  5
12688
  8
0
 10
3913.1128973807972216
 20
164.141258879836812
 30
0.0
 40
0.0787401575
 50
179.9999999950584879
 51
89.9999999950495351
  0
CIRCLE
  5
12689
  8
0
 10
3913.1128974994971941
 20
164.141259269236798
 30
0.0
 40
0.0393693824
  0
CIRCLE
  5
1268A
  8
0
 10
3913.1128975052361056
 20
164.5900773430367963
 30
0.0
 40
0.0393693092
  0
ARC
  5
1268B
  8
0
 10
3913.0577792706308173
 20
164.5349596672415942
 30
0.0
 40
0.031496063
 50
179.9999999950584879
 51
269.9999999893694849
  0
ARC
  5
1268C
  8
0
 10
3913.0577792706021683
 20
164.1963769900416139
 30
0.0
 40
0.031496063
 50
89.9999999950495351
 51
179.9999999950584879
  0
ARC
  5
1268D
  8
0
 10
3913.0577792706308173
 20
164.5349596672415942
 30
0.0
 40
0.0236220472
 50
179.9999999950584879
 51
269.9999999950495067
  0
ARC
  5
1268E
  8
0
 10
3913.0577792706021683
 20
164.1963769900416139
 30
0.0
 40
0.0236220472
 50
89.9999999950495351
 51
179.9999999950584879
  0
ARC
  5
1268F
  8
0
 10
3912.8890754077888232
 20
162.4916525806561935
 30
0.0
 40
0.0551166961718596
 50
269.3892862760044977
 51
90.0
  0
ARC
  5
12690
  8
0
 10
3912.887906619162095
 20
162.4916588097538011
 30
0.0
 40
0.0551228595774024
 50
88.7850471687833505
 51
270.6042391072122086
  0
ARC
  5
12691
  8
0
 10
3912.8879089395181836
 20
162.2411080835562132
 30
0.0
 40
0.0551277343883783
 50
90.0
 51
270.6017739307047236
  0
ARC
  5
12692
  8
0
 10
3912.8890609363888871
 20
162.2411141332866862
 30
0.0
 40
0.0551337212267134
 50
269.4045145953757014
 51
91.1972593353531522
  0
ARC
  5
12693
  8
0
 10
3912.8890414498728205
 20
161.9890883032562101
 30
0.0
 40
0.0551608796380687
 50
269.4250495533868843
 51
90.5749504466131157
  0
ARC
  5
12694
  8
0
 10
3912.8879344154788669
 20
161.9890883032562101
 30
0.0
 40
0.055160879623756
 50
89.4250510344856764
 51
270.5749489655142952
  0
ARC
  5
12695
  8
0
 10
3912.8889989041122135
 20
161.7370707158561913
 30
0.0
 40
0.0552162242243433
 50
269.4697760333854717
 51
90.0
  0
ARC
  5
12696
  8
0
 10
3912.8879816309759008
 20
161.7370754228909107
 30
0.0
 40
0.0552208880317398
 50
88.9444437316643217
 51
270.5253323017195726
  0
ARC
  5
12697
  8
0
 10
3912.8885443054491589
 20
161.7327943129062078
 30
0.0
 40
0.0412819680410267
 50
269.9217584836055153
 51
90.0782415163945416
  0
ARC
  5
12698
  8
0
 10
3912.8884315585178229
 20
161.7327943129062078
 30
0.0
 40
0.0412819680409793
 50
89.9217585390247365
 51
270.0782414609752777
  0
ARC
  5
12699
  8
0
 10
3912.8885170537678277
 20
161.7327943129062078
 30
0.0
 40
0.0216238874597892
 50
270.0
 51
90.0
  0
ARC
  5
1269A
  8
0
 10
3912.8884588884698132
 20
161.7327943129062078
 30
0.0
 40
0.0216239656879937
 50
89.8458825656405224
 51
270.1541174343594776
  0
ARC
  5
1269B
  8
0
 10
3912.8880367134979679
 20
161.4850564262061994
 30
0.0
 40
0.0552939226338154
 50
90.0
 51
270.4675595321605215
  0
ARC
  5
1269C
  8
0
 10
3912.8889355130968397
 20
161.4850600935326099
 30
0.0
 40
0.0552975602777853
 50
269.5362401193257256
 51
90.9313194128363875
  0
ARC
  5
1269D
  8
0
 10
3912.8885400819121969
 20
161.4793494310061988
 30
0.0
 40
0.0216008593016877
 50
269.8616733342014982
 51
90.0
  0
ARC
  5
1269E
  8
0
 10
3912.8884359074968415
 20
161.479349556758109
 30
0.0
 40
0.0216009847506417
 50
89.7236803088528347
 51
270.137993025340279
  0
ARC
  5
1269F
  8
0
 10
3912.8883875965098014
 20
161.4793494310061135
 30
0.0
 40
0.0412380060123767
 50
89.8605945285730598
 51
270.1394054714269828
  0
ARC
  5
126A0
  8
0
 10
3912.8885882674558161
 20
161.4793494310061135
 30
0.0
 40
0.0412380060124737
 50
269.8605944731536965
 51
90.1394055268463177
  0
ARC
  5
126A1
  8
0
 10
3912.8884062226029528
 20
161.2259045491061897
 30
0.0
 40
0.0215712998029269
 50
89.7829703010319378
 51
270.2170296989680764
  0
ARC
  5
126A2
  8
0
 10
3912.888569641993854
 20
161.2259045491061897
 30
0.0
 40
0.0215712998054743
 50
269.7829685197619938
 51
90.2170314802380346
  0
ARC
  5
126A3
  8
0
 10
3912.8888620179891404
 20
161.2330465494061968
 30
0.0
 40
0.0553941923964049
 50
269.6130693048348803
 51
90.3869306951651055
  0
ARC
  5
126A4
  8
0
 10
3912.8881138414221823
 20
161.2330465494061968
 30
0.0
 40
0.0553941924268966
 50
89.6130646347939432
 51
270.3869353652061136
  0
ARC
  5
126A5
  8
0
 10
3912.8883311657968989
 20
161.2259045491562119
 30
0.0
 40
0.0411815752824638
 50
89.781891263670218
 51
270.218108736329782
  0
ARC
  5
126A6
  8
0
 10
3912.8886446982292
 20
161.2259045491562119
 30
0.0
 40
0.0411815752828431
 50
269.78189112505612
 51
90.2181088749439368
  0
ARC
  5
126A7
  8
0
 10
3912.7585666721629423
 20
162.3658250948813873
 30
0.0
 40
0.0411815752826896
 50
359.781891180479704
 51
180.2181088195202108
  0
ARC
  5
126A8
  8
0
 10
3912.7585666721629423
 20
162.3655115624906955
 30
0.0
 40
0.0411815752824612
 50
179.7818912636627999
 51
0.2181087363371605
  0
ARC
  5
126A9
  8
0
 10
3912.7585666721629423
 20
162.3655866191793962
 30
0.0
 40
0.0215712997533683
 50
179.782969991874495
 51
0.2170300081352908
  0
ARC
  5
126AA
  8
0
 10
3912.7585666721629423
 20
162.3657500387375876
 30
0.0
 40
0.0215712997556627
 50
359.7829683858386147
 51
180.2170316141800868
  0
ARC
  5
126AB
  8
0
 10
3912.7632606455640598
 20
162.3660263556133998
 30
0.0
 40
0.0547255430594416
 50
359.6251552969475256
 51
180.3748447030525881
  0
ARC
  5
126AC
  8
0
 10
3912.7628719217309481
 20
162.3656970452495045
 30
0.0
 40
0.0551131032133599
 50
270.3185783296647742
 51
359.9701461253457069
  0
ARC
  5
126AD
  8
0
 10
3912.7632152087558097
 20
162.3652652026813996
 30
0.0
 40
0.054680421116017
 50
179.5775887286490899
 51
269.9613911554844208
  0
ARC
  5
126AE
  8
0
 10
3912.7585500497330031
 20
162.1126020376663064
 30
0.0
 40
0.0215680518965303
 50
11.0573711640694103
 51
191.5087525343197967
  0
ARC
  5
126AF
  8
0
 10
3912.7585832945969742
 20
162.1124354070234972
 30
0.0
 40
0.0215680518966213
 50
191.0573711031017012
 51
11.5087525953050207
  0
ARC
  5
126B0
  8
0
 10
3912.7585347866829579
 20
162.1126785392187912
 30
0.0
 40
0.0411753749164945
 50
11.0562922194200794
 51
191.5098313723752881
  0
ARC
  5
126B1
  8
0
 10
3912.7585985575351515
 20
162.1123589055357002
 30
0.0
 40
0.0411753749163218
 50
191.0562922792798872
 51
11.5098313125164005
  0
ARC
  5
126B2
  8
0
 10
3912.7631747585219273
 20
162.1143732991882018
 30
0.0
 40
0.0547156960286299
 50
10.3226383980650294
 51
192.2434852756196904
  0
ARC
  5
126B3
  8
0
 10
3912.7633312523189488
 20
162.1135889175112936
 30
0.0
 40
0.0547081348479709
 50
191.4059008394035004
 51
11.1602228342829992
  0
ARC
  5
126B4
  8
0
 10
3912.758531567270893
 20
161.8594570658844987
 30
0.0
 40
0.0215583121964086
 50
21.5075484389369791
 51
202.0109047278384082
  0
ARC
  5
126B5
  8
0
 10
3912.7586017769590399
 20
161.8592811662188069
 30
0.0
 40
0.0215583121964523
 50
201.5075484133465125
 51
22.0109047534335112
  0
ARC
  5
126B6
  8
0
 10
3912.7584993664600006
 20
161.8595377401084079
 30
0.0
 40
0.0411567812430567
 50
21.5064693690029216
 51
202.0119836050511992
  0
ARC
  5
126B7
  8
0
 10
3912.7586339777731155
 20
161.8592004919867975
 30
0.0
 40
0.0411567812431356
 50
201.5064693433820935
 51
22.0119836306817795
  0
ARC
  5
126B8
  8
0
 10
3912.7630447542069305
 20
161.8627552885425871
 30
0.0
 40
0.0546905927770921
 50
20.2034535483535187
 51
203.3149993617340101
  0
ARC
  5
126B9
  8
0
 10
3912.7634075025598577
 20
161.861846477851401
 30
0.0
 40
0.0546727767346688
 50
202.2898451230884973
 51
21.2286077869985199
  0
ARC
  5
126BA
  8
0
 10
3912.7585096740767767
 20
161.6063146613176116
 30
0.0
 40
0.0215420921726239
 50
30.6275973472537402
 51
211.2176150530135033
  0
ARC
  5
126BB
  8
0
 10
3912.758623670139059
 20
161.6061243582115878
 30
0.0
 40
0.0215420921721709
 50
210.6275976074634002
 51
31.2176148442790904
  0
ARC
  5
126BC
  8
0
 10
3912.7584574598090512
 20
161.6064018270701013
 30
0.0
 40
0.0411258163503011
 50
30.6265186283461013
 51
211.2186939196861033
  0
ARC
  5
126BD
  8
0
 10
3912.7586758845559416
 20
161.6060371924776859
 30
0.0
 40
0.0411258163506869
 50
210.6265185236931927
 51
31.2186940243439892
  0
ARC
  5
126BE
  8
0
 10
3912.7626145582858044
 20
161.6111808978432975
 30
0.0
 40
0.0544838947242818
 50
69.1424115385656393
 51
213.2115809824765904
  0
ARC
  5
126BF
  8
0
 10
3912.762501228624842
 20
161.6101497581192064
 30
0.0
 40
0.0554884276272141
 50
345.7545347375785809
 51
69.4121518538363205
  0
ARC
  5
126C0
  8
0
 10
3912.763307468676885
 20
161.6099292257486013
 30
0.0
 40
0.0546527134486629
 50
276.5616984532010179
 51
345.770631575123673
  0
ARC
  5
126C1
  8
0
 10
3912.7636048505642066
 20
161.6099939263768022
 30
0.0
 40
0.0546838460100998
 50
211.6025284247922968
 51
276.2444051149983011
  0
ARC
  5
126C2
  8
0
 10
3912.7585592024461221
 20
161.3531660294744938
 30
0.0
 40
0.0215733248949947
 50
128.7780540072334077
 51
218.8460064900334885
  0
ARC
  5
126C3
  8
0
 10
3912.7584690808421328
 20
161.3530506451268991
 30
0.0
 40
0.021607302397831
 50
38.5125164280016392
 51
128.4001259997654074
  0
ARC
  5
126C4
  8
0
 10
3912.7585682675871794
 20
161.3529744143424125
 30
0.0
 40
0.0215775009178473
 50
308.7891548963298192
 51
38.8349056125549907
  0
ARC
  5
126C5
  8
0
 10
3912.7586607996918246
 20
161.3530589651583114
 30
0.0
 40
0.0215857997512417
 50
218.4555249138020088
 51
308.4571175276532813
  0
ARC
  5
126C6
  8
0
 10
3912.7583634802849701
 20
161.3532645914069974
 30
0.0
 40
0.0410454981884046
 50
92.5533041155938747
 51
219.0235755947742007
  0
ARC
  5
126C7
  8
0
 10
3912.7582755370599443
 20
161.3528490881593029
 30
0.0
 40
0.0414568076140581
 50
334.5105795162207869
 51
92.4062996739466342
  0
ARC
  5
126C8
  8
0
 10
3912.7588684112552073
 20
161.3526904002268907
 30
0.0
 40
0.040853503748321
 50
279.372155211022914
 51
334.3536456815074871
  0
ARC
  5
126C9
  8
0
 10
3912.7588288486249439
 20
161.3532138191488059
 30
0.0
 40
0.0413764042010594
 50
218.5631997853691075
 51
279.3081766324569912
  0
ARC
  5
126CA
  8
0
 10
3912.7652790804540928
 20
161.3596565791559101
 30
0.0
 40
0.0567756823725301
 50
140.4306912327926113
 51
219.5972859375127086
  0
ARC
  5
126CB
  8
0
 10
3912.7623912588592248
 20
161.3589885285711034
 30
0.0
 40
0.0550255461460449
 50
66.7189370946543079
 51
137.9782546643604064
  0
ARC
  5
126CC
  8
0
 10
3912.7622890558927793
 20
161.3582840615696057
 30
0.0
 40
0.0557133539458443
 50
349.1981019978755967
 51
66.9087329054776632
  0
ARC
  5
126CD
  8
0
 10
3912.7632389274749585
 20
161.3581603859394988
 30
0.0
 40
0.054757163756548
 50
288.1524743407362052
 51
349.1389459907770743
  0
ARC
  5
126CE
  8
0
 10
3912.7636275100089733
 20
161.3578838394033141
 30
0.0
 40
0.0543740559795512
 50
219.2671676116140986
 51
287.8541758225863987
  0
ARC
  5
126CF
  8
0
 10
3912.7586817275127942
 20
161.0998052418061093
 30
0.0
 40
0.0214902963439451
 50
224.5661833728811985
 51
45.4338166271129822
  0
ARC
  5
126D0
  8
0
 10
3912.7584516167721631
 20
161.1000353525475077
 30
0.0
 40
0.0214902963443895
 50
44.566183216972739
 51
225.4338167830196937
  0
ARC
  5
126D1
  8
0
 10
3912.7625686267938363
 20
161.1077089835729907
 30
0.0
 40
0.0547120656394895
 50
42.1948081027302067
 51
227.8051919714008022
  0
ARC
  5
126D2
  8
0
 10
3912.7636988366762125
 20
161.1065787736918935
 30
0.0
 40
0.0546571612145919
 50
226.1314415274731005
 51
43.8685585466598269
  0
ARC
  5
126D3
  8
0
 10
3912.7583464746630852
 20
161.1001404946561877
 30
0.0
 40
0.0410269352030221
 50
44.5651043046344029
 51
225.434895695358108
  0
ARC
  5
126D4
  8
0
 10
3912.7587868696641635
 20
161.0997000996561042
 30
0.0
 40
0.0410269352030221
 50
224.5651043046343887
 51
45.4348956953581009
  0
ARC
  5
126D5
  8
0
 10
3912.6307931781911975
 20
161.2255432598932998
 30
0.0
 40
0.0212496920330494
 50
205.301825719071104
 51
27.4768938770870896
  0
ARC
  5
126D6
  8
0
 10
3912.6304346543470274
 20
161.226265838394113
 30
0.0
 40
0.0212496920306841
 50
25.3018260552793102
 51
207.476893540879189
  0
ARC
  5
126D7
  8
0
 10
3912.6302845149361929
 20
161.2264840636813119
 30
0.0
 40
0.0406032406838701
 50
25.4501732495886799
 51
137.3379735398721948
  0
ARC
  5
126D8
  8
0
 10
3912.631065517953175
 20
161.2264803863762097
 30
0.0
 40
0.0411834204758185
 50
138.070561830607403
 51
197.7915806328093993
  0
ARC
  5
126D9
  8
0
 10
3912.6302665241219074
 20
161.2253685194781951
 30
0.0
 40
0.0411110172999487
 50
310.8013791731601145
 51
26.8433815228640107
  0
ARC
  5
126DA
  8
0
 10
3912.6310098878370809
 20
161.2251979327220965
 30
0.0
 40
0.0404986579300754
 50
214.4258501192726101
 51
310.1629666137250751
  0
ARC
  5
126DB
  8
0
 10
3912.6461487504288925
 20
161.2352512065909025
 30
0.0
 40
0.0583454167182582
 50
137.2559202101826941
 51
201.4693629969011113
  0
ARC
  5
126DC
  8
0
 10
3912.6387854444078584
 20
161.2405363506937022
 30
0.0
 40
0.0493633235357249
 50
65.2016258847783376
 51
135.9601395421499888
  0
ARC
  5
126DD
  8
0
 10
3912.6354995341907852
 20
161.2327012223830991
 30
0.0
 40
0.0578549623049122
 50
14.3808280882777701
 51
65.5020400079777119
  0
ARC
  5
126DE
  8
0
 10
3912.6357623393910217
 20
161.2320496691388882
 30
0.0
 40
0.0577664132568509
 50
324.2180539169785902
 51
15.0715805441797297
  0
ARC
  5
126DF
  8
0
 10
3912.6409204106348625
 20
161.228289111829497
 30
0.0
 40
0.0513831438778104
 50
283.9128843566297746
 51
324.2568694761902179
  0
ARC
  5
126E0
  8
0
 10
3912.6418038488918683
 20
161.2268204124671058
 30
0.0
 40
0.0497476700244778
 50
236.3310327570445111
 51
283.3319693807114277
  0
ARC
  5
126E1
  8
0
 10
3912.6461084394491081
 20
161.2334236884470897
 30
0.0
 40
0.057629767535621
 50
212.6850098243579907
 51
236.4088789326565063
  0
ARC
  5
126E2
  8
0
 10
3912.630752343236054
 20
161.4790003744776925
 30
0.0
 40
0.0212775062309423
 50
200.6208204446230923
 51
22.6432240642676206
  0
ARC
  5
126E3
  8
0
 10
3912.630475489283981
 20
161.4796984875486885
 30
0.0
 40
0.0212775062312149
 50
20.6208204036886684
 51
202.6432241052065137
  0
ARC
  5
126E4
  8
0
 10
3912.630348952238819
 20
161.4800175623896052
 30
0.0
 40
0.0406207269469402
 50
20.6181643183781489
 51
202.6458801615220864
  0
ARC
  5
126E5
  8
0
 10
3912.6312902303830015
 20
161.4793679035595915
 30
0.0
 40
0.0412505123647832
 50
201.3095740167501049
 51
272.1620209283502732
  0
ARC
  5
126E6
  8
0
 10
3912.631013246133989
 20
161.4783078396770861
 30
0.0
 40
0.0402029004923943
 50
272.613487272646978
 51
339.6499751739953012
  0
ARC
  5
126E7
  8
0
 10
3912.6295972196890034
 20
161.4788841962455876
 30
0.0
 40
0.0417310046716703
 50
339.5841349969923044
 51
21.7112010360279797
  0
ARC
  5
126E8
  8
0
 10
3912.6421028023869439
 20
161.4813300745078095
 30
0.0
 40
0.0522476364330874
 50
207.1074707311140912
 51
269.4210843944659928
  0
ARC
  5
126E9
  8
0
 10
3912.6406782697690687
 20
161.4809445645190067
 30
0.0
 40
0.0518672101282873
 50
270.990525775999572
 51
332.0708276019105938
  0
ARC
  5
126EA
  8
0
 10
3912.6347596408591016
 20
161.4843571666515913
 30
0.0
 40
0.0586953766629313
 50
331.8336591160162925
 51
34.3256084969703181
  0
ARC
  5
126EB
  8
0
 10
3912.6378357481880812
 20
161.4871649448625135
 30
0.0
 40
0.0545748187654503
 50
33.7122793595790924
 51
85.0073738789800331
  0
ARC
  5
126EC
  8
0
 10
3912.6388370956228755
 20
161.4927402371693859
 30
0.0
 40
0.0489362169429522
 50
85.607250693120676
 51
133.497610433428008
  0
ARC
  5
126ED
  8
0
 10
3912.6434159113900932
 20
161.4884640851477968
 30
0.0
 40
0.055191156245563
 50
133.8901396212986015
 51
170.716608310747489
  0
ARC
  5
126EE
  8
0
 10
3912.6497851143408298
 20
161.4870247896442947
 30
0.0
 40
0.0617103738816123
 50
170.3517396560957877
 51
201.6946357431978072
  0
ARC
  5
126EF
  8
0
 10
3912.6307147251518472
 20
161.7324551394625018
 30
0.0
 40
0.0212991715582678
 50
195.6010808998530024
 51
17.5048483297226909
  0
ARC
  5
126F0
  8
0
 10
3912.6305131073518169
 20
161.7331334864250891
 30
0.0
 40
0.0212991715595713
 50
15.6010806885190405
 51
197.5048485410513877
  0
ARC
  5
126F1
  8
0
 10
3912.6308513796921034
 20
161.7321222791084097
 30
0.0
 40
0.0406265213030595
 50
201.9415608999852907
 51
17.5569219694475507
  0
ARC
  5
126F2
  8
0
 10
3912.6316919366731781
 20
161.7331412618943034
 30
0.0
 40
0.0417917120236934
 50
158.0133653861913103
 51
202.8068083951220046
  0
ARC
  5
126F3
  8
0
 10
3912.6302907103581674
 20
161.7338414233342974
 30
0.0
 40
0.0402304546047368
 50
83.8756441654507938
 51
158.1908680267420948
  0
ARC
  5
126F4
  8
0
 10
3912.6298925992459772
 20
161.7327475477426049
 30
0.0
 40
0.0413615021979489
 50
16.3303866586466988
 51
83.4889684129505127
  0
ARC
  5
126F5
  8
0
 10
3912.647808282942151
 20
161.7384204362020057
 30
0.0
 40
0.0597491089599329
 50
146.9725236267406956
 51
197.0269322275987918
  0
ARC
  5
126F6
  8
0
 10
3912.6393534249368713
 20
161.7437766833795934
 30
0.0
 40
0.0497412411296572
 50
89.6042027891261341
 51
146.837156931455695
  0
ARC
  5
126F7
  8
0
 10
3912.638098927297051
 20
161.738972602541395
 30
0.0
 40
0.0545675418228484
 50
28.6664740733361008
 51
88.3217531954640549
  0
ARC
  5
126F8
  8
0
 10
3912.6350536536729123
 20
161.7365407191583984
 30
0.0
 40
0.0584100230511657
 50
332.6966047598460818
 51
29.3266027526846607
  0
ARC
  5
126F9
  8
0
 10
3912.6403377522201481
 20
161.7332931846923998
 30
0.0
 40
0.0522270169785297
 50
273.2821155287987835
 51
333.2033389636553125
  0
ARC
  5
126FA
  8
0
 10
3912.6421540805031327
 20
161.7340668560833876
 30
0.0
 40
0.0529280395908732
 50
200.6076577152531968
 51
271.2707619800422094
  0
ARC
  5
126FB
  8
0
 10
3912.6419793278710131
 20
161.9862011010162917
 30
0.0
 40
0.0531421961185156
 50
193.1797386797944966
 51
267.0675568532312809
  0
ARC
  5
126FC
  8
0
 10
3912.6397759583342122
 20
161.9863217047985984
 30
0.0
 40
0.0531957087239959
 50
269.4449715937126939
 51
344.0273917495890146
  0
ARC
  5
126FD
  8
0
 10
3912.6352245915481944
 20
161.9887024558564121
 30
0.0
 40
0.058235715309253
 50
343.0076623582729098
 51
45.0390660816900876
  0
ARC
  5
126FE
  8
0
 10
3912.6396077524941575
 20
161.9936503023473904
 30
0.0
 40
0.0516389351358101
 50
44.6010195056036025
 51
108.0833166558880976
  0
ARC
  5
126FF
  8
0
 10
3912.6414081241659915
 20
161.9931472203687122
 30
0.0
 40
0.0526989580537327
 50
109.7745147033847957
 51
161.4974563417268882
  0
ARC
  5
12700
  8
0
 10
3912.6488335814901802
 20
161.9900465868566073
 30
0.0
 40
0.0607273736110845
 50
160.946528245427487
 51
191.3864577860298937
  0
ARC
  5
12701
  8
0
 10
3912.6303542720188489
 20
161.9858583081150982
 30
0.0
 40
0.0410164704635807
 50
281.6614019160297744
 51
11.6536812868527893
  0
ARC
  5
12702
  8
0
 10
3912.6309070968491142
 20
161.985647125263597
 30
0.0
 40
0.0407009611403011
 50
212.7016464134196099
 51
280.9593119523951827
  0
ARC
  5
12703
  8
0
 10
3912.6317723414099419
 20
161.9864574137947102
 30
0.0
 40
0.0418673793955836
 50
151.8550555709975072
 51
212.9950459512257908
  0
ARC
  5
12704
  8
0
 10
3912.6304037376371525
 20
161.9872766918728075
 30
0.0
 40
0.0402742200540684
 50
87.03403800101934
 51
151.9643554999157118
  0
ARC
  5
12705
  8
0
 10
3912.6300269348162146
 20
161.9863241613628873
 30
0.0
 40
0.0412462677303929
 50
10.9280288353411592
 51
86.5797767762022232
  0
ARC
  5
12706
  8
0
 10
3912.630548185140924
 20
161.9865710938591974
 30
0.0
 40
0.0213146639201666
 50
10.2926743793543096
 51
192.1117575869837992
  0
ARC
  5
12707
  8
0
 10
3912.6306796473731993
 20
161.9859072958126092
 30
0.0
 40
0.0213146639192059
 50
190.2926745422379042
 51
12.1117574240977799
  0
ARC
  5
12708
  8
0
 10
3912.630828608129832
 20
162.2398456710120911
 30
0.0
 40
0.0215514463652388
 50
108.4771903517190026
 51
186.0247324600221077
  0
ARC
  5
12709
  8
0
 10
3912.6305142480277937
 20
162.2399288050046948
 30
0.0
 40
0.0213746969670335
 50
10.8097735727770701
 51
107.7485795016902017
  0
ARC
  5
1270A
  8
0
 10
3912.6305276205662267
 20
162.2394891125919116
 30
0.0
 40
0.0214484249545246
 50
267.8954606267860754
 51
11.9702730098467693
  0
ARC
  5
1270B
  8
0
 10
3912.6308621042039704
 20
162.2395849240378993
 30
0.0
 40
0.0215589920883145
 50
185.3262306810775897
 51
267.0164434740860884
  0
ARC
  5
1270C
  8
0
 10
3912.6305522120860587
 20
162.240307397863802
 30
0.0
 40
0.0407093622380832
 50
4.7718319862539298
 51
186.5350455501246927
  0
ARC
  5
1270D
  8
0
 10
3912.6306758737878226
 20
162.2390581962901024
 30
0.0
 40
0.0407094018893709
 50
184.7682128226753093
 51
6.5386647137049447
  0
ARC
  5
1270E
  8
0
 10
3912.6440444844502053
 20
162.2399457401197083
 30
0.0
 40
0.0557972836380307
 50
184.5621644847589096
 51
246.5169386788616066
  0
ARC
  5
1270F
  8
0
 10
3912.6406237844607858
 20
162.2353315037422874
 30
0.0
 40
0.0502189304411763
 50
247.9988384323756918
 51
307.210925906465377
  0
ARC
  5
12710
  8
0
 10
3912.6364828649470837
 20
162.2406610388966897
 30
0.0
 40
0.0569677244782473
 50
307.2862040503192134
 51
2.1414173942506038
  0
ARC
  5
12711
  8
0
 10
3912.6363631343770066
 20
162.2412965102514875
 30
0.0
 40
0.0570672096321864
 50
1.499341144149624
 51
55.6401469237664301
  0
ARC
  5
12712
  8
0
 10
3912.6399979687889754
 20
162.2467851837969874
 30
0.0
 40
0.0504848932902353
 50
55.5298832990717912
 51
109.2961222008823938
  0
ARC
  5
12713
  8
0
 10
3912.6415254562989503
 20
162.2450956731935037
 30
0.0
 40
0.052591671378768
 50
110.2585607239364975
 51
156.3649801201050025
  0
ARC
  5
12714
  8
0
 10
3912.6483530889131544
 20
162.2416232683731039
 30
0.0
 40
0.0602403414028269
 50
155.9428005140669029
 51
185.8267845834837999
  0
ARC
  5
12715
  8
0
 10
3912.6306139162629734
 20
162.4913266395492997
 30
0.0
 40
0.0213270681207864
 50
179.1243157874338863
 51
0.8756842125570715
  0
ARC
  5
12716
  8
0
 10
3912.6306139162629734
 20
162.4919785217466028
 30
0.0
 40
0.021327068120537
 50
359.1243158315044752
 51
180.8756841684954964
  0
ARC
  5
12717
  8
0
 10
3912.6306139162629734
 20
162.4910295627412893
 30
0.0
 40
0.0407153236281638
 50
179.1232369765126009
 51
0.8767630234873504
  0
ARC
  5
12718
  8
0
 10
3912.6306139162629734
 20
162.4922756722384918
 30
0.0
 40
0.040715324755476
 50
359.1231333215877157
 51
180.8768666784114885
  0
ARC
  5
12719
  8
0
 10
3912.6407810551131661
 20
162.4949845903828134
 30
0.0
 40
0.0527641101692509
 50
356.3794100187687945
 51
183.6205899812312055
  0
ARC
  5
1271A
  8
0
 10
3912.6407810551131661
 20
162.4883204047750098
 30
0.0
 40
0.0527641206620326
 50
176.3792299541266004
 51
3.6207700458733911
  0
CIRCLE
  5
1271B
  8
0
 10
3912.6365194280629112
 20
163.4995265962560893
 30
0.0
 40
0.062992126
  0
CIRCLE
  5
1271C
  8
0
 10
3912.6365194280629112
 20
163.7514951002561077
 30
0.0
 40
0.062992126
  0
ARC
  5
1271D
  8
0
 10
3912.6487720428631292
 20
163.4969492834561038
 30
0.0
 40
0.0606436514
 50
157.8277625955051064
 51
163.3264736809124997
  0
ARC
  5
1271E
  8
0
 10
3912.6485660479629587
 20
163.7487349903560983
 30
0.0
 40
0.0603979603
 50
151.2877895461114974
 51
158.306352935711601
  0
CIRCLE
  5
1271F
  8
0
 10
3912.7625036800632188
 20
163.8774793521560866
 30
0.0
 40
0.062992126
  0
CIRCLE
  5
12720
  8
0
 10
3912.7625036800632188
 20
163.625510848256198
 30
0.0
 40
0.062992126
  0
CIRCLE
  5
12721
  8
0
 10
3912.7625036800632188
 20
163.3735423443561103
 30
0.0
 40
0.062992126
  0
CIRCLE
  5
12722
  8
0
 10
3912.8884879319630272
 20
163.7514951002561929
 30
0.0
 40
0.062992126
  0
CIRCLE
  5
12723
  8
0
 10
3912.8884879319630272
 20
163.499526596256203
 30
0.0
 40
0.062992126
  0
CIRCLE
  5
12724
  8
0
 10
3912.6365194280629112
 20
162.7436210844560946
 30
0.0
 40
0.062992126
  0
CIRCLE
  5
12725
  8
0
 10
3912.6365194280629112
 20
162.995589588456113
 30
0.0
 40
0.062992126
  0
CIRCLE
  5
12726
  8
0
 10
3912.6365194280629112
 20
163.2475580923560869
 30
0.0
 40
0.062992126
  0
ARC
  5
12727
  8
0
 10
3912.6488042683631647
 20
163.2453030165561074
 30
0.0
 40
0.0606836841
 50
164.8237617894083087
 51
168.6783657187077097
  0
CIRCLE
  5
12728
  8
0
 10
3912.7625036800632188
 20
163.121573840356092
 30
0.0
 40
0.062992126
  0
CIRCLE
  5
12729
  8
0
 10
3912.7625036800632188
 20
162.8696053364562033
 30
0.0
 40
0.062992126
  0
ARC
  5
1272A
  8
0
 10
3912.8884814448610996
 20
162.9955895884561983
 30
0.0
 40
0.0413309734980959
 50
89.9910073176233141
 51
270.0089932267981112
  0
ARC
  5
1272B
  8
0
 10
3912.8884609640090275
 20
163.2490344703041103
 30
0.0
 40
0.0413084979459166
 50
89.9625992137505932
 51
270.0374096963412853
  0
ARC
  5
1272C
  8
0
 10
3912.888484666812019
 20
162.9955895869061919
 30
0.0
 40
0.0216495448487876
 50
89.9913584100750654
 51
270.0086410938096719
  0
ARC
  5
1272D
  8
0
 10
3912.8884743865078235
 20
163.249034469607011
 30
0.0
 40
0.0216381709451193
 50
89.9641292145821438
 51
270.0358635511386183
  0
CIRCLE
  5
1272E
  8
0
 10
3912.8884879319630272
 20
163.2475580923562006
 30
0.0
 40
0.062992126
  0
CIRCLE
  5
1272F
  8
0
 10
3912.8884879319630272
 20
162.9955895884561983
 30
0.0
 40
0.062992126
  0
CIRCLE
  5
12730
  8
0
 10
3912.8884879319630272
 20
162.7436210844562083
 30
0.0
 40
0.062992126
  0
CIRCLE
  5
12731
  8
0
 10
3912.8884879319630272
 20
162.7436210844562083
 30
0.0
 40
0.0413385827
  0
ARC
  5
12732
  8
0
 10
3912.8884944193650881
 20
162.9955895884561983
 30
0.0
 40
0.0413309734981174
 50
269.9910070956076993
 51
90.0089934488136265
  0
ARC
  5
12733
  8
0
 10
3912.8885149006168831
 20
163.2490344703082883
 30
0.0
 40
0.0413084979462725
 50
269.9625984501794846
 51
90.0374104599122944
  0
CIRCLE
  5
12734
  8
0
 10
3912.8884879319630272
 20
162.7436210844562083
 30
0.0
 40
0.0216535433
  0
ARC
  5
12735
  8
0
 10
3912.8884911965151332
 20
162.9955895869061919
 30
0.0
 40
0.0216495448486845
 50
269.9913601578775229
 51
90.0086393459811944
  0
ARC
  5
12736
  8
0
 10
3912.8885014789170782
 20
163.2490344696053057
 30
0.0
 40
0.0216381709460073
 50
269.9641254735374787
 51
90.0358672921833261
  0
ARC
  5
12737
  8
0
 10
3912.8890754077888232
 20
162.7436210844562083
 30
0.0
 40
0.0551166961718596
 50
270.0000000000259774
 51
90.6107137239955165
  0
ARC
  5
12738
  8
0
 10
3912.887906619162095
 20
162.7436148553584871
 30
0.0
 40
0.0551228595774024
 50
89.3957608927877772
 51
271.2149528312427265
  0
ARC
  5
12739
  8
0
 10
3912.8879089395181836
 20
162.9941655815561887
 30
0.0
 40
0.0551277343883783
 50
89.3982260692952622
 51
270.0
  0
ARC
  5
1273A
  8
0
 10
3912.8890609363888871
 20
162.994159531825602
 30
0.0
 40
0.0551337212267134
 50
268.8027406646729105
 51
90.595485404650347
  0
ARC
  5
1273B
  8
0
 10
3912.8890414498728205
 20
163.2461853618561918
 30
0.0
 40
0.0551608796380687
 50
269.4250495534129186
 51
90.5749504466131157
  0
ARC
  5
1273C
  8
0
 10
3912.8879344154788669
 20
163.2461853618561918
 30
0.0
 40
0.055160879623756
 50
89.4250510344856764
 51
270.5749489655142952
  0
ARC
  5
1273D
  8
0
 10
3912.8889989041122135
 20
163.4982029492562106
 30
0.0
 40
0.0552162242243433
 50
270.0
 51
90.5302239666405342
  0
ARC
  5
1273E
  8
0
 10
3912.8879816309749913
 20
163.4981982422214912
 30
0.0
 40
0.0552208880317398
 50
89.4746676982804274
 51
271.0555562683617268
  0
ARC
  5
1273F
  8
0
 10
3912.8885443054477946
 20
163.5024793522061941
 30
0.0
 40
0.0412819680410267
 50
269.9217584836314927
 51
90.0782415163945416
  0
ARC
  5
12740
  8
0
 10
3912.8884315585178229
 20
163.5024793522061941
 30
0.0
 40
0.0412819680409793
 50
89.9217585390247365
 51
270.0782414609752777
  0
ARC
  5
12741
  8
0
 10
3912.8885170537678277
 20
163.5024793522061941
 30
0.0
 40
0.0216238874597892
 50
270.0000000000259774
 51
90.0
  0
ARC
  5
12742
  8
0
 10
3912.8884588884698132
 20
163.5024793522061941
 30
0.0
 40
0.0216239656879937
 50
89.8458825656405224
 51
270.1541174343594776
  0
ARC
  5
12743
  8
0
 10
3912.8880367134979679
 20
163.7502172389062025
 30
0.0
 40
0.0552939226338154
 50
89.5324404678394643
 51
270.0
  0
ARC
  5
12744
  8
0
 10
3912.8889355130968397
 20
163.7502135715797067
 30
0.0
 40
0.0552975602777853
 50
269.0686805871636125
 51
90.4637598807003656
  0
ARC
  5
12745
  8
0
 10
3912.8885400819121969
 20
163.7559242341062031
 30
0.0
 40
0.0216008593016877
 50
270.0
 51
90.138326665824664
  0
ARC
  5
12746
  8
0
 10
3912.8884359074968415
 20
163.7559241083542929
 30
0.0
 40
0.0216009847506417
 50
89.8620069746596926
 51
270.2763196911471937
  0
ARC
  5
12747
  8
0
 10
3912.8883875965098014
 20
163.7559242341062031
 30
0.0
 40
0.0412380060123767
 50
89.8605945285991226
 51
270.1394054714269828
  0
ARC
  5
12748
  8
0
 10
3912.8885882674558161
 20
163.7559242341062031
 30
0.0
 40
0.0412380060124737
 50
269.8605944731536965
 51
90.1394055268463177
  0
ARC
  5
12749
  8
0
 10
3912.7585666721629423
 20
162.8694485702309009
 30
0.0
 40
0.0411815752826896
 50
179.7818911804895095
 51
0.2181088195300664
  0
ARC
  5
1274A
  8
0
 10
3912.7585666721629423
 20
162.8697621026215927
 30
0.0
 40
0.0411815752824612
 50
359.7818912636718096
 51
180.2181087363460961
  0
ARC
  5
1274B
  8
0
 10
3912.7585666721629423
 20
162.869687045932892
 30
0.0
 40
0.0215712997533683
 50
359.782969991874495
 51
180.217030008134401
  0
ARC
  5
1274C
  8
0
 10
3912.7585666721629423
 20
162.8695236263747006
 30
0.0
 40
0.0215712997556627
 50
179.7829683858288945
 51
0.217031614171159
  0
ARC
  5
1274D
  8
0
 10
3912.7632606455640598
 20
162.8692473094988884
 30
0.0
 40
0.0547255430594416
 50
179.625155296957189
 51
0.374844703062345
  0
ARC
  5
1274E
  8
0
 10
3912.7628719217309481
 20
162.8695766198628121
 30
0.0
 40
0.0551131032133599
 50
0.0298538746632264
 51
89.6814216703351548
  0
ARC
  5
1274F
  8
0
 10
3912.7632152087558097
 20
162.8700084624308886
 30
0.0
 40
0.054680421116017
 50
90.0386088445155934
 51
180.4224112713606871
  0
ARC
  5
12750
  8
0
 10
3912.7585500497330031
 20
163.1226716274460955
 30
0.0
 40
0.0215680518965303
 50
168.4912474656896961
 51
348.942628835939388
  0
ARC
  5
12751
  8
0
 10
3912.7585832945969742
 20
163.122838258088791
 30
0.0
 40
0.0215680518966213
 50
348.4912474047038131
 51
168.9426288969069958
  0
ARC
  5
12752
  8
0
 10
3912.7585347866829579
 20
163.122595125893497
 30
0.0
 40
0.0411753749164945
 50
168.490168627633409
 51
348.9437077805936838
  0
ARC
  5
12753
  8
0
 10
3912.7585985575351515
 20
163.122914759576588
 30
0.0
 40
0.0411753749163218
 50
348.490168687492428
 51
168.9437077207288098
  0
ARC
  5
12754
  8
0
 10
3912.7631747585219273
 20
163.1209003659240864
 30
0.0
 40
0.0547156960286299
 50
167.756514724389092
 51
349.6773616019438009
  0
ARC
  5
12755
  8
0
 10
3912.7633312523189488
 20
163.1216847476009946
 30
0.0
 40
0.0547081348479709
 50
348.8397771657258204
 51
168.5940991606051966
  0
ARC
  5
12756
  8
0
 10
3912.758531567270893
 20
163.3758165992277895
 30
0.0
 40
0.0215583121964086
 50
157.9890952721796964
 51
338.4924515610705953
  0
ARC
  5
12757
  8
0
 10
3912.7586017769581304
 20
163.3759924988935097
 30
0.0
 40
0.0215583121964523
 50
337.9890952465747773
 51
158.4924515866617867
  0
ARC
  5
12758
  8
0
 10
3912.7584993664600006
 20
163.3757359250039087
 30
0.0
 40
0.0411567812430567
 50
157.9880163949563041
 51
338.4935306310047167
  0
ARC
  5
12759
  8
0
 10
3912.7586339777731155
 20
163.3760731731254907
 30
0.0
 40
0.0411567812431356
 50
337.9880163693264876
 51
158.4935306566254098
  0
ARC
  5
1275A
  8
0
 10
3912.763044754206021
 20
163.3725183765697011
 30
0.0
 40
0.0546905927770921
 50
156.6850006382742038
 51
339.7965464516548764
  0
ARC
  5
1275B
  8
0
 10
3912.7634075025598577
 20
163.3734271872608872
 30
0.0
 40
0.0546727767346688
 50
338.7713922130099036
 51
157.7101548769198018
  0
ARC
  5
1275C
  8
0
 10
3912.7585096740767767
 20
163.628959003794705
 30
0.0
 40
0.0215420921726239
 50
148.7823849469934032
 51
329.3724026527526121
  0
ARC
  5
1275D
  8
0
 10
3912.758623670139059
 20
163.6291493069007004
 30
0.0
 40
0.0215420921721709
 50
328.7823851557279227
 51
149.3724023925435915
  0
ARC
  5
1275E
  8
0
 10
3912.7584574598090512
 20
163.6288718380421869
 30
0.0
 40
0.0411258163503011
 50
148.7813060803208032
 51
329.3734813716608869
  0
ARC
  5
1275F
  8
0
 10
3912.7586758845559416
 20
163.6292364726346023
 30
0.0
 40
0.0411258163506869
 50
328.7813059756629741
 51
149.3734814763271004
  0
ARC
  5
12760
  8
0
 10
3912.7626145582858044
 20
163.6240927672689907
 30
0.0
 40
0.0544838947242818
 50
146.7884190175294918
 51
290.8575884614355118
  0
ARC
  5
12761
  8
0
 10
3912.762501228624842
 20
163.6251239069931103
 30
0.0
 40
0.0554884276272141
 50
290.5878481461891738
 51
14.2454652624301108
  0
ARC
  5
12762
  8
0
 10
3912.763307468676885
 20
163.6253444393636869
 30
0.0
 40
0.0546527134486629
 50
14.2293684248850205
 51
83.4383015467992237
  0
ARC
  5
12763
  8
0
 10
3912.7636048505642066
 20
163.625279738735486
 30
0.0
 40
0.0546838460100998
 50
83.7555948850017842
 51
148.3974715752283942
  0
ARC
  5
12764
  8
0
 10
3912.7585592024452126
 20
163.8821076356377944
 30
0.0
 40
0.0215733248949947
 50
141.1539935099721106
 51
231.2219459927908929
  0
ARC
  5
12765
  8
0
 10
3912.7584690808421328
 20
163.8822230199853891
 30
0.0
 40
0.021607302397831
 50
231.5998740002380885
 51
321.4874835720041233
  0
ARC
  5
12766
  8
0
 10
3912.7585682675858152
 20
163.8822992507699041
 30
0.0
 40
0.0215775009178473
 50
321.1650943874500967
 51
51.2108451036945667
  0
ARC
  5
12767
  8
0
 10
3912.7586607996918246
 20
163.8822146999540053
 30
0.0
 40
0.0215857997512417
 50
51.5428824723502785
 51
141.544475086203704
  0
ARC
  5
12768
  8
0
 10
3912.7583634802840606
 20
163.8820090737052908
 30
0.0
 40
0.0410454981884046
 50
140.9764244052313984
 51
267.4466958844320743
  0
ARC
  5
12769
  8
0
 10
3912.7582755370599443
 20
163.8824245769530137
 30
0.0
 40
0.0414568076140581
 50
267.5937003260534084
 51
25.4894204837864997
  0
ARC
  5
1276A
  8
0
 10
3912.7588684112552073
 20
163.8825832648853975
 30
0.0
 40
0.040853503748321
 50
25.6463543185005705
 51
80.627844789003035
  0
ARC
  5
1276B
  8
0
 10
3912.7588288486249439
 20
163.8820598459635107
 30
0.0
 40
0.0413764042010594
 50
80.6918233675689009
 51
141.4368002146366052
  0
ARC
  5
1276C
  8
0
 10
3912.7652790804540928
 20
163.8756170859562928
 30
0.0
 40
0.0567756823725301
 50
140.4027140624928904
 51
219.5693087672129877
  0
ARC
  5
1276D
  8
0
 10
3912.7623912588592248
 20
163.8762851365410995
 30
0.0
 40
0.0550255461460449
 50
222.0217453356617909
 51
293.2810629053713001
  0
ARC
  5
1276E
  8
0
 10
3912.7622890558927793
 20
163.8769896035427109
 30
0.0
 40
0.0557133539458443
 50
293.0912670945235732
 51
10.8018980021380404
  0
ARC
  5
1276F
  8
0
 10
3912.7632389274749585
 20
163.8771132791727894
 30
0.0
 40
0.054757163756548
 50
10.8610540092316992
 51
71.8475256592645763
  0
ARC
  5
12770
  8
0
 10
3912.7636275100089733
 20
163.8773898257090025
 30
0.0
 40
0.0543740559795512
 50
72.1458241774146387
 51
140.7328323884080135
  0
ARC
  5
12771
  8
0
 10
3912.630752343236054
 20
163.7562732906345957
 30
0.0
 40
0.0212775062309423
 50
337.3567759357406999
 51
159.3791795553852069
  0
ARC
  5
12772
  8
0
 10
3912.630475489283981
 20
163.7555751775635997
 30
0.0
 40
0.0212775062312149
 50
157.3567758948018138
 51
339.379179596319716
  0
ARC
  5
12773
  8
0
 10
3912.630348952238819
 20
163.7552561027225977
 30
0.0
 40
0.0406207269469402
 50
157.3541198384853885
 51
339.3818356816386199
  0
ARC
  5
12774
  8
0
 10
3912.631290230382092
 20
163.7559057615526967
 30
0.0
 40
0.0412505123647832
 50
87.8379790716497553
 51
158.6904259832581943
  0
ARC
  5
12775
  8
0
 10
3912.631013246133989
 20
163.7569658254350884
 30
0.0
 40
0.0402029004923943
 50
20.3500248260130903
 51
87.3865127273529936
  0
ARC
  5
12776
  8
0
 10
3912.6295972196890034
 20
163.7563894688667006
 30
0.0
 40
0.0417310046716703
 50
338.288798963979616
 51
20.4158650030161191
  0
ARC
  5
12777
  8
0
 10
3912.6421028023869439
 20
163.7539435906045071
 30
0.0
 40
0.0522476364330874
 50
90.5789156055339362
 51
152.8925292689056903
  0
ARC
  5
12778
  8
0
 10
3912.6406782697690687
 20
163.7543291005931962
 30
0.0
 40
0.0518672101282873
 50
27.9291723980966502
 51
89.0094742240004138
  0
ARC
  5
12779
  8
0
 10
3912.6347596408591016
 20
163.7509164984606969
 30
0.0
 40
0.0586953766629313
 50
325.6743915030364178
 51
28.1663408839907916
  0
ARC
  5
1277A
  8
0
 10
3912.6378357481880812
 20
163.7481087202498031
 30
0.0
 40
0.0545748187654503
 50
274.9926261210201233
 51
326.2877206404270964
  0
ARC
  5
1277B
  8
0
 10
3912.6388370956228755
 20
163.7425334279427886
 30
0.0
 40
0.0489362169429522
 50
226.5023895665759142
 51
274.392749306905273
  0
ARC
  5
1277C
  8
0
 10
3912.6434159113900932
 20
163.7468095799644061
 30
0.0
 40
0.055191156245563
 50
189.2833916892612933
 51
226.1098603787058892
  0
ARC
  5
1277D
  8
0
 10
3912.6497851143408298
 20
163.7482488754679935
 30
0.0
 40
0.0617103738816123
 50
158.305364256810492
 51
189.6482603439137904
  0
ARC
  5
1277E
  8
0
 10
3912.6307147251518472
 20
163.5028185256497864
 30
0.0
 40
0.0212991715582678
 50
342.495151670285793
 51
164.3989191001556094
  0
ARC
  5
1277F
  8
0
 10
3912.6305131073518169
 20
163.5021401786871138
 30
0.0
 40
0.0212991715595713
 50
162.4951514589571104
 51
344.3989193114895784
  0
ARC
  5
12780
  8
0
 10
3912.6308513796921034
 20
163.503151386003907
 30
0.0
 40
0.0406265213030595
 50
342.4430780305601729
 51
158.0584391000228948
  0
ARC
  5
12781
  8
0
 10
3912.6316919366731781
 20
163.5021324032180132
 30
0.0
 40
0.0417917120236934
 50
157.1931916048862092
 51
201.986634613816193
  0
ARC
  5
12782
  8
0
 10
3912.6302907103581674
 20
163.5014322417779908
 30
0.0
 40
0.0402304546047368
 50
201.8091319732654085
 51
276.124355834549192
  0
ARC
  5
12783
  8
0
 10
3912.6298925992450677
 20
163.5025261173695981
 30
0.0
 40
0.0413615021979489
 50
276.5110315870755926
 51
343.6696133413619236
  0
ARC
  5
12784
  8
0
 10
3912.647808282942151
 20
163.4968532289103109
 30
0.0
 40
0.0597491089599329
 50
162.9730677724166128
 51
213.0274763732653867
  0
ARC
  5
12785
  8
0
 10
3912.6393534249368713
 20
163.4914969817326948
 30
0.0
 40
0.0497412411296572
 50
213.1628430685510978
 51
270.3957972108999002
  0
ARC
  5
12786
  8
0
 10
3912.638098927297051
 20
163.4963010625710069
 30
0.0
 40
0.0545675418228484
 50
271.6782468045619794
 51
331.3335259266710864
  0
ARC
  5
12787
  8
0
 10
3912.6350536536729123
 20
163.4987329459538046
 30
0.0
 40
0.0584100230511657
 50
330.6733972473223844
 51
27.3033952401610911
  0
ARC
  5
12788
  8
0
 10
3912.6403377522201481
 20
163.5019804804198884
 30
0.0
 40
0.0522270169785297
 50
26.7966610363526883
 51
86.7178844712012733
  0
ARC
  5
12789
  8
0
 10
3912.6421540805031327
 20
163.5012068090289006
 30
0.0
 40
0.0529280395908732
 50
88.7292380199838675
 51
159.3923422847551024
  0
ARC
  5
1278A
  8
0
 10
3912.6419793278701036
 20
163.2490725640959113
 30
0.0
 40
0.0531421961185156
 50
92.9324431467686765
 51
166.8202613202201121
  0
ARC
  5
1278B
  8
0
 10
3912.6397759583342122
 20
163.2489519603136898
 30
0.0
 40
0.0531957087239959
 50
15.9726082504196505
 51
90.5550284063134399
  0
ARC
  5
1278C
  8
0
 10
3912.6352245915481944
 20
163.2465712092557908
 30
0.0
 40
0.058235715309253
 50
314.9609339183144812
 51
16.9923376417356486
  0
ARC
  5
1278D
  8
0
 10
3912.6396077524941575
 20
163.2416233627648978
 30
0.0
 40
0.0516389351358101
 50
251.916683344112613
 51
315.3989804944009734
  0
ARC
  5
1278E
  8
0
 10
3912.6414081241659915
 20
163.2421264447436045
 30
0.0
 40
0.0526989580537327
 50
198.502543658280814
 51
250.2254852966163128
  0
ARC
  5
1278F
  8
0
 10
3912.6488335814901802
 20
163.2452270782555956
 30
0.0
 40
0.0607273736110845
 50
168.6135422139788034
 51
199.0534717545810111
  0
ARC
  5
12790
  8
0
 10
3912.6303542720188489
 20
163.24941535699719
 30
0.0
 40
0.0410164704635807
 50
348.3463187131559948
 51
78.3385980839962457
  0
ARC
  5
12791
  8
0
 10
3912.6309070968491142
 20
163.2496265398486912
 30
0.0
 40
0.0407009611403011
 50
79.0406880476306668
 51
147.2983535865872113
  0
ARC
  5
12792
  8
0
 10
3912.6317723414090324
 20
163.2488162513176064
 30
0.0
 40
0.0418673793955836
 50
147.0049540487810873
 51
208.1449444290219049
  0
ARC
  5
12793
  8
0
 10
3912.6304037376371525
 20
163.2479969732395091
 30
0.0
 40
0.0402742200540684
 50
208.0356445001037002
 51
272.9659619989806743
  0
ARC
  5
12794
  8
0
 10
3912.6300269348162146
 20
163.2489495037494009
 30
0.0
 40
0.0412462677303929
 50
273.420223223797791
 51
349.0719711646684118
  0
ARC
  5
12795
  8
0
 10
3912.630548185140924
 20
163.2487025712530908
 30
0.0
 40
0.0213146639201666
 50
167.8882424130256936
 51
349.7073256206552969
  0
ARC
  5
12796
  8
0
 10
3912.6306796473731993
 20
163.2493663692997075
 30
0.0
 40
0.0213146639192059
 50
347.888242575911022
 51
169.7073254577707928
  0
ARC
  5
12797
  8
0
 10
3912.630828608129832
 20
162.9954279941001971
 30
0.0
 40
0.0215514463652388
 50
173.9752675399876125
 51
251.5228096482819922
  0
ARC
  5
12798
  8
0
 10
3912.6305142480277937
 20
162.9953448601075934
 30
0.0
 40
0.0213746969670335
 50
252.251420498335591
 51
349.1902264272317211
  0
ARC
  5
12799
  8
0
 10
3912.6305276205662267
 20
162.995784552520405
 30
0.0
 40
0.0214484249545246
 50
348.0297269901628283
 51
92.1045393732139388
  0
ARC
  5
1279A
  8
0
 10
3912.6308621042039704
 20
162.9956887410743036
 30
0.0
 40
0.0215589920883145
 50
92.983556525913869
 51
174.6737693189313063
  0
ARC
  5
1279B
  8
0
 10
3912.6305522120851492
 20
162.9949662672484862
 30
0.0
 40
0.0407093622380832
 50
173.4649544498840896
 51
355.2281680137558055
  0
ARC
  5
1279C
  8
0
 10
3912.6306758737878226
 20
162.9962154688221858
 30
0.0
 40
0.0407094018893709
 50
353.4613352863038926
 51
175.2317871773335867
  0
ARC
  5
1279D
  8
0
 10
3912.6440444844502053
 20
162.9953279249926084
 30
0.0
 40
0.0557972836380307
 50
113.4830613211399992
 51
175.4378355152508107
  0
ARC
  5
1279E
  8
0
 10
3912.6406237844607858
 20
162.9999421613700008
 30
0.0
 40
0.0502189304411763
 50
52.7890740935587175
 51
112.0011615676256014
  0
ARC
  5
1279F
  8
0
 10
3912.6364828649470837
 20
162.9946126262155985
 30
0.0
 40
0.0569677244782473
 50
357.8585826057583859
 51
52.713795949684318
  0
ARC
  5
127A0
  8
0
 10
3912.6363631343770066
 20
162.9939771548608007
 30
0.0
 40
0.0570672096321864
 50
304.3598530762367886
 51
358.5006588558592853
  0
ARC
  5
127A1
  8
0
 10
3912.6399979687889754
 20
162.9884884813153008
 30
0.0
 40
0.0504848932902353
 50
250.7038777991186009
 51
304.4701167009528717
  0
ARC
  5
127A2
  8
0
 10
3912.6415254562989503
 20
162.9901779919188129
 30
0.0
 40
0.052591671378768
 50
203.6350198799025009
 51
249.7414392760890109
  0
ARC
  5
127A3
  8
0
 10
3912.6483530889131544
 20
162.9936503967392127
 30
0.0
 40
0.0602403414028269
 50
174.1732154165258919
 51
204.0571994859512017
  0
ARC
  5
127A4
  8
0
 10
3912.6306139162629734
 20
162.7439470255629885
 30
0.0
 40
0.0213270681207864
 50
359.1243157874519056
 51
180.8756842125758055
  0
ARC
  5
127A5
  8
0
 10
3912.6306139162629734
 20
162.7432951433657138
 30
0.0
 40
0.021327068120537
 50
179.1243158315133996
 51
0.8756841685052933
  0
ARC
  5
127A6
  8
0
 10
3912.6306139162629734
 20
162.7442441023709989
 30
0.0
 40
0.0407153236281638
 50
359.1232369765219801
 51
180.8767630234970909
  0
ARC
  5
127A7
  8
0
 10
3912.6306139162629734
 20
162.7429979928737964
 30
0.0
 40
0.040715324755476
 50
179.1231333215974075
 51
0.8768666784213095
  0
ARC
  5
127A8
  8
0
 10
3912.6407810551131661
 20
162.7402890747295032
 30
0.0
 40
0.0527641101692509
 50
176.3794100187776905
 51
3.6205899812401658
  0
ARC
  5
127A9
  8
0
 10
3912.6407810551131661
 20
162.7469532603373068
 30
0.0
 40
0.0527641206620326
 50
356.3792299541356101
 51
183.6207700458822956
  0
CIRCLE
  5
127AA
  8
0
 10
3912.762830550819217
 20
162.6179525979590892
 30
0.0
 40
0.062992126
  0
ARC
  5
127AB
  8
0
 10
3912.7588935429189405
 20
162.6181093641843063
 30
0.0
 40
0.0411815752826896
 50
359.781891180479704
 51
180.2181088195202108
  0
ARC
  5
127AC
  8
0
 10
3912.7588935429189405
 20
162.6177958317935861
 30
0.0
 40
0.0411815752824612
 50
179.7818912636627999
 51
0.2181087363371605
  0
ARC
  5
127AD
  8
0
 10
3912.7588935429189405
 20
162.6178708884822868
 30
0.0
 40
0.0215712997533683
 50
179.782969991874495
 51
0.2170300081352908
  0
ARC
  5
127AE
  8
0
 10
3912.7588935429189405
 20
162.6180343080405066
 30
0.0
 40
0.0215712997556627
 50
359.7829683858386147
 51
180.2170316141800868
  0
ARC
  5
127AF
  8
0
 10
3912.7635875163191486
 20
162.6183106249164041
 30
0.0
 40
0.0547255430594416
 50
359.6251552969475256
 51
180.3748447030525881
  0
ARC
  5
127B0
  8
0
 10
3912.7631987924860368
 20
162.6179813145523951
 30
0.0
 40
0.0551131032133599
 50
270.3185783296647742
 51
359.9701461253457069
  0
ARC
  5
127B1
  8
0
 10
3912.763542079511808
 20
162.6175494719842902
 30
0.0
 40
0.054680421116017
 50
179.5775887286490899
 51
269.9613911554844208
  0
LINE
  5
127B2
  8
0
 10
3913.1890030498880151
 20
161.2086188135978944
 30
0.0
 11
3913.191416539490092
 21
161.214644659269112
 31
0.0
  0
LINE
  5
127B3
  8
0
 10
3913.1856929881791984
 20
161.2030362234683878
 30
0.0
 11
3913.1890030498880151
 21
161.2086188135978944
 31
0.0
  0
CIRCLE
  5
127B4
  8
0
 10
3913.1467042717958975
 20
161.2324466287898019
 30
0.0
 40
0.062992126
  0
CIRCLE
  5
127B5
  8
0
 10
3913.145446729185096
 20
161.7363820676287105
 30
0.0
 40
0.062992126
  0
CIRCLE
  5
127B6
  8
0
 10
3913.1460755004909515
 20
161.4844143481591914
 30
0.0
 40
0.062992126
  0
ARC
  5
127B7
  8
0
 10
3913.1331877210159291
 20
161.7389287967864959
 30
0.0
 40
0.0606436514
 50
337.9707407014220166
 51
343.469451786819775
  0
ARC
  5
127B8
  8
0
 10
3913.1340220304209652
 20
161.4871443878950004
 30
0.0
 40
0.0603979603
 50
331.4307676520239738
 51
338.4493310416225995
  0
CIRCLE
  5
127B9
  8
0
 10
3913.0210347977140373
 20
161.1061483834025125
 30
0.0
 40
0.062992126
  0
CIRCLE
  5
127BA
  8
0
 10
3913.0204060264081818
 20
161.3581161028720032
 30
0.0
 40
0.062992126
  0
CIRCLE
  5
127BB
  8
0
 10
3913.0197772551041453
 20
161.6100838222413927
 30
0.0
 40
0.062992126
  0
CIRCLE
  5
127BC
  8
0
 10
3913.0191484837991993
 20
161.8620515416108958
 30
0.0
 40
0.062992126
  0
CIRCLE
  5
127BD
  8
0
 10
3913.1435604152711676
 20
162.4922852258370938
 30
0.0
 40
0.062992126
  0
CIRCLE
  5
127BE
  8
0
 10
3913.1441891865761136
 20
162.2403175063676031
 30
0.0
 40
0.062992126
  0
CIRCLE
  5
127BF
  8
0
 10
3913.1448179578801501
 20
161.9883497869982136
 30
0.0
 40
0.062992126
  0
ARC
  5
127C0
  8
0
 10
3913.1325275284330019
 20
161.9905741997426105
 30
0.0
 40
0.0606836841
 50
344.966739895322803
 51
348.8213438246203282
  0
CIRCLE
  5
127C1
  8
0
 10
3913.0185197124928891
 20
162.1140192610803012
 30
0.0
 40
0.062992126
  0
CIRCLE
  5
127C2
  8
0
 10
3913.0178909411879431
 20
162.3659869804498044
 30
0.0
 40
0.062992126
  0
ARC
  5
127C3
  8
0
 10
3913.0218275456290939
 20
162.3661535707385895
 30
0.0
 40
0.0411815752826896
 50
359.9248692864006216
 51
180.3610869254405031
  0
ARC
  5
127C4
  8
0
 10
3913.0218283280300966
 20
162.3658400393240981
 30
0.0
 40
0.0411815752824612
 50
179.924869369583206
 51
0.3610868422579723
  0
ARC
  5
127C5
  8
0
 10
3913.0218281407310315
 20
162.3659150957792008
 30
0.0
 40
0.0215712997533683
 50
179.9259480977856924
 51
0.3600081140461444
  0
ARC
  5
127C6
  8
0
 10
3913.0218277329281591
 20
162.3660785148285015
 30
0.0
 40
0.0215712997556627
 50
359.925946491739694
 51
180.3600097200817913
  0
ARC
  5
127C7
  8
0
 10
3913.0171330846119417
 20
162.3663431173332867
 30
0.0
 40
0.0547255430594416
 50
359.7681334028675906
 51
180.5178228089731078
  0
ARC
  5
127C8
  8
0
 10
3913.0175226290070896
 20
162.3660147780302054
 30
0.0
 40
0.0551131032133599
 50
180.1728319805743013
 51
269.8243997762622826
  0
ARC
  5
127C9
  8
0
 10
3913.0171804206861452
 20
162.3655820801558889
 30
0.0
 40
0.054680421116017
 50
270.1815869504471834
 51
0.5653893772717228
  0
ARC
  5
127CA
  8
0
 10
3913.0224760699711624
 20
162.1129313434404082
 30
0.0
 40
0.0215680518965303
 50
348.6342255715994156
 51
169.0856069418524044
  0
ARC
  5
127CB
  8
0
 10
3913.0224432410259396
 20
162.1127646303561107
 30
0.0
 40
0.0215680518966213
 50
168.6342255106156074
 51
349.0856070028190743
  0
ARC
  5
127CC
  8
0
 10
3913.0224911420691569
 20
162.1130078828427941
 30
0.0
 40
0.0411753749164945
 50
348.6331467335430148
 51
169.0866858865011011
  0
ARC
  5
127CD
  8
0
 10
3913.0224281690398129
 20
162.1126880910186969
 30
0.0
 40
0.0411753749163218
 50
168.6331467934055865
 51
349.0866858266380177
  0
ARC
  5
127CE
  8
0
 10
3913.0178469555107768
 20
162.1146910587821139
 30
0.0
 40
0.0547156960286299
 50
347.8994928302982999
 51
169.8203397078546004
  0
ARC
  5
127CF
  8
0
 10
3913.017692419577088
 20
162.1139062890271134
 30
0.0
 40
0.0547081348479709
 50
168.9827552716371883
 51
348.7370772665161098
  0
ARC
  5
127D0
  8
0
 10
3913.0231262594811597
 20
161.8597872059741007
 30
0.0
 40
0.0215583121964086
 50
338.1320733780887053
 51
158.6354296669832991
  0
ARC
  5
127D1
  8
0
 10
3913.023056488957991
 20
161.8596111316522865
 30
0.0
 40
0.0215583121964523
 50
158.1320733524910906
 51
338.6354296925672998
  0
ARC
  5
127D2
  8
0
 10
3913.0231582588739911
 20
161.8598679603018979
 30
0.0
 40
0.0411567812430567
 50
338.1309945008625277
 51
158.6365087369144931
  0
ARC
  5
127D3
  8
0
 10
3913.0230244895610667
 20
161.8595303773163891
 30
0.0
 40
0.0411567812431356
 50
158.1309944752399872
 51
338.6365087625375168
  0
ARC
  5
127D4
  8
0
 10
3913.018604856093134
 20
161.8630741559931039
 30
0.0
 40
0.0546905927770921
 50
336.8279787441834969
 51
159.9395245575676086
  0
ARC
  5
127D5
  8
0
 10
3913.0182443767489531
 20
161.8621644429163098
 30
0.0
 40
0.0546727767346688
 50
158.9143703189195094
 51
337.8531329828335856
  0
ARC
  5
127D6
  8
0
 10
3913.023779853304859
 20
161.6066456442258072
 30
0.0
 40
0.0215420921726239
 50
328.9253630529078123
 51
149.5153807586611947
  0
ARC
  5
127D7
  8
0
 10
3913.0236663324872097
 20
161.6064550572424992
 30
0.0
 40
0.0215420921721709
 50
148.9253632616438097
 51
329.5153804984597059
  0
ARC
  5
127D8
  8
0
 10
3913.0238318498950321
 20
161.6067329400044059
 30
0.0
 40
0.0411258163503011
 50
328.9242841862271121
 51
149.5164594775706917
  0
ARC
  5
127D9
  8
0
 10
3913.023614335748789
 20
161.6063677614822041
 30
0.0
 40
0.0411258163506869
 50
148.9242840815747968
 51
329.5164595822320166
  0
ARC
  5
127DA
  8
0
 10
3913.0196628384951509
 20
161.6115016221237113
 30
0.0
 40
0.0544838947242818
 50
326.931397123446402
 51
111.0005665673561026
  0
ARC
  5
127DB
  8
0
 10
3913.0197787409460943
 20
161.6104707684170023
 30
0.0
 40
0.0554884276272141
 50
110.7308262520834035
 51
194.3884433683417114
  0
ARC
  5
127DC
  8
0
 10
3913.0189730537290416
 20
161.610248224812608
 30
0.0
 40
0.0546527134486629
 50
194.3723465307965057
 51
263.58127965270819
  0
ARC
  5
127DD
  8
0
 10
3913.0186755113118124
 20
161.6103121831417866
 30
0.0
 40
0.0546838460100998
 50
263.8985729909304041
 51
328.5404496811356125
  0
ARC
  5
127DE
  8
0
 10
3913.0243620413298231
 20
161.353497676992788
 30
0.0
 40
0.0215733248949947
 50
321.2969716158925166
 51
51.3649240986973581
  0
ARC
  5
127DF
  8
0
 10
3913.0244524505869776
 20
161.3533825178971881
 30
0.0
 40
0.021607302397831
 50
51.7428521061510267
 51
141.6304616779148091
  0
ARC
  5
127E0
  8
0
 10
3913.0243534543801616
 20
161.3533060398358998
 30
0.0
 40
0.0215775009178473
 50
141.3080724933676038
 51
231.3538232095907858
  0
ARC
  5
127E1
  8
0
 10
3913.0242607115719693
 20
161.3533903594806134
 30
0.0
 40
0.0215857997512417
 50
231.6858605782649931
 51
321.687453192113594
  0
ARC
  5
127E2
  8
0
 10
3913.0245575169269614
 20
161.353596727030606
 30
0.0
 40
0.0410454981884046
 50
321.1194025111540213
 51
87.5896739903254229
  0
ARC
  5
127E3
  8
0
 10
3913.0246464967390239
 20
161.3531814445333907
 30
0.0
 40
0.0414568076140581
 50
87.7366784319661832
 51
205.6323985897064972
  0
ARC
  5
127E4
  8
0
 10
3913.0240540203858473
 20
161.3530212776153121
 30
0.0
 40
0.040853503748321
 50
205.7893324244103042
 51
260.7708228949089744
  0
ARC
  5
127E5
  8
0
 10
3913.0240922767338816
 20
161.3535447936336027
 30
0.0
 40
0.0413764042010594
 50
260.8348014734664275
 51
321.5797783205430278
  0
ARC
  5
127E6
  8
0
 10
3913.0176259874920106
 20
161.3599714374389862
 30
0.0
 40
0.0567756823725301
 50
320.5456921683953055
 51
39.7122868731366481
  0
ARC
  5
127E7
  8
0
 10
3913.020515467173027
 20
161.3593105953085001
 30
0.0
 40
0.0550255461460449
 50
42.1647234415631331
 51
113.424041011263995
  0
ARC
  5
127E8
  8
0
 10
3913.0206194277729992
 20
161.3586063855414068
 30
0.0
 40
0.0557133539458443
 50
113.2342452004432971
 51
190.9448761080458894
  0
ARC
  5
127E9
  8
0
 10
3913.0196698677741551
 20
161.3584803399525072
 30
0.0
 40
0.054757163756548
 50
191.0040321151427918
 51
251.9905037651857924
  0
ARC
  5
127EA
  8
0
 10
3913.0192819765538843
 20
161.3582028245945139
 30
0.0
 40
0.0543740559795512
 50
252.2888022833338937
 51
320.8758104943154876
  0
ARC
  5
127EB
  8
0
 10
3913.0248717623030643
 20
161.1001373724365067
 30
0.0
 40
0.0214902963439451
 50
134.7091614788029119
 51
315.5767947330431866
  0
ARC
  5
127EC
  8
0
 10
3913.0251012981020722
 20
161.1003680566880973
 30
0.0
 40
0.0214902963443895
 50
314.7091613229056861
 51
135.5767948889630929
  0
ARC
  5
127ED
  8
0
 10
3913.0209651518430292
 20
161.1080313900855003
 30
0.0
 40
0.0547120656394895
 50
312.3377861345350084
 51
137.9481700031896878
  0
ARC
  5
127EE
  8
0
 10
3913.019837765846205
 20
161.1068983633568052
 30
0.0
 40
0.0546571612145919
 50
136.2744195592713083
 51
314.0115365784424171
  0
ARC
  5
127EF
  8
0
 10
3913.0252061775081529
 20
161.1004734608447961
 30
0.0
 40
0.0410269352030221
 50
314.7080824105592001
 51
135.577873801281612
  0
ARC
  5
127F0
  8
0
 10
3913.0247668828569658
 20
161.1000319682383974
 30
0.0
 40
0.0410269352030221
 50
134.7080824105592001
 51
315.577873801281612
  0
ARC
  5
127F1
  8
0
 10
3913.1524461422400236
 20
161.2261941367299869
 30
0.0
 40
0.0212496920330494
 50
152.666084228841612
 51
334.8411523868473978
  0
ARC
  5
127F2
  8
0
 10
3913.1528028618190547
 20
161.2269176076543999
 30
0.0
 40
0.0212496920306841
 50
332.6660845650442866
 51
154.8411520506379873
  0
ARC
  5
127F3
  8
0
 10
3913.1529524561960898
 20
161.2271362069253939
 30
0.0
 40
0.0406032406838701
 50
42.8050045660537108
 51
154.6928048563364086
  0
ARC
  5
127F4
  8
0
 10
3913.1521714647869885
 20
161.2271305806885096
 30
0.0
 40
0.0411834204758185
 50
342.351397473107113
 51
42.072416275301741
  0
ARC
  5
127F5
  8
0
 10
3913.1529732307230915
 20
161.2260207110905981
 30
0.0
 40
0.0411110172999487
 50
153.2995965830656928
 51
229.3415989327708928
  0
ARC
  5
127F6
  8
0
 10
3913.152230295010213
 20
161.2258482698489104
 30
0.0
 40
0.0404986579300754
 50
229.9800114921962972
 51
325.7171279866523719
  0
ARC
  5
127F7
  8
0
 10
3913.1370663922521089
 20
161.2358637343513124
 30
0.0
 40
0.0583454167182582
 50
338.6736151090212843
 51
42.8870578957528181
  0
ARC
  5
127F8
  8
0
 10
3913.1444164866079518
 20
161.2411672366579865
 30
0.0
 40
0.0493633235357249
 50
44.182838563784621
 51
114.9413522211306002
  0
ARC
  5
127F9
  8
0
 10
3913.1477219386561046
 20
161.2333403325220047
 30
0.0
 40
0.0578549623049122
 50
114.6409380979304018
 51
165.7621500176396978
  0
ARC
  5
127FA
  8
0
 10
3913.147460760183094
 20
161.2326881254928992
 30
0.0
 40
0.0577664132568509
 50
165.0713975617381948
 51
215.9249241889394
  0
ARC
  5
127FB
  8
0
 10
3913.1423120892300176
 20
161.228914708255104
 30
0.0
 40
0.0513831438778104
 50
215.8861086297299039
 51
256.2300937492913135
  0
ARC
  5
127FC
  8
0
 10
3913.141432318769148
 20
161.22744380890191
 30
0.0
 40
0.0497476700244778
 50
256.8110087252151743
 51
303.8119453488636736
  0
ARC
  5
127FD
  8
0
 10
3913.1371112635611098
 20
161.2340363224911925
 30
0.0
 40
0.057629767535621
 50
303.7340991732663156
 51
327.4579682815577826
  0
ARC
  5
127FE
  8
0
 10
3913.1518544910300079
 20
161.4796505640499902
 30
0.0
 40
0.0212775062309423
 50
157.4997540416493109
 51
339.5221576612997865
  0
ARC
  5
127FF
  8
0
 10
3913.1521296020227965
 20
161.4803493658185971
 30
0.0
 40
0.0212775062312149
 50
337.4997540007145176
 51
159.5221577022313113
  0
ARC
  5
12800
  8
0
 10
3913.1522553424429134
 20
161.4806687554311964
 30
0.0
 40
0.0406207269469402
 50
337.4970979443929195
 51
159.5248137875427972
  0
ARC
  5
12801
  8
0
 10
3913.1513156884129785
 20
161.4800167497245127
 30
0.0
 40
0.0412505123647832
 50
267.980957177568996
 51
338.8334040891688801
  0
ARC
  5
12802
  8
0
 10
3913.151595317121064
 20
161.4789573803392102
 30
0.0
 40
0.0402029004923943
 50
200.493002931927208
 51
267.5294908332646173
  0
ARC
  5
12803
  8
0
 10
3913.1530099008950856
 20
161.479537268716598
 30
0.0
 40
0.0417310046716703
 50
158.431777069892604
 51
200.5588431089338997
  0
ARC
  5
12804
  8
0
 10
3913.1404982536028001
 20
161.4819519324805981
 30
0.0
 40
0.0522476364330874
 50
270.7218937114533901
 51
333.0355073748086738
  0
ARC
  5
12805
  8
0
 10
3913.1419237437999072
 20
161.4815699785222876
 30
0.0
 40
0.0518672101282873
 50
208.0721505040131092
 51
269.152452329920493
  0
ARC
  5
12806
  8
0
 10
3913.1478338383508344
 20
161.4849973395897109
 30
0.0
 40
0.0586953766629313
 50
145.817369608945711
 51
208.3093189899001061
  0
ARC
  5
12807
  8
0
 10
3913.1447507339698859
 20
161.4877974328290122
 30
0.0
 40
0.0545748187654503
 50
95.1356042269331539
 51
146.4306987463467919
  0
ARC
  5
12808
  8
0
 10
3913.1437354768668229
 20
161.4933702089780923
 30
0.0
 40
0.0489362169429522
 50
46.6453676724955884
 51
94.5357274128015064
  0
ARC
  5
12809
  8
0
 10
3913.1391673462198924
 20
161.4890826441285014
 30
0.0
 40
0.055191156245563
 50
9.426369795174244
 51
46.2528384846138394
  0
ARC
  5
1280A
  8
0
 10
3913.1328017547698437
 20
161.4876274591672995
 30
0.0
 40
0.0617103738816123
 50
338.4483423627233947
 51
9.7912384498234672
  0
ARC
  5
1280B
  8
0
 10
3913.1512596288221175
 20
161.7331046337500879
 30
0.0
 40
0.0212991715582678
 50
162.6381297762023053
 51
344.5418972060634246
  0
ARC
  5
1280C
  8
0
 10
3913.1514595532239582
 20
161.7337834817249984
 30
0.0
 40
0.0212991715595713
 50
342.6381295648625951
 51
164.5418974174014011
  0
ARC
  5
1280D
  8
0
 10
3913.1511238053399211
 20
161.732771433419714
 30
0.0
 40
0.0406265213030595
 50
162.5860561364737009
 51
338.2014172059401744
  0
ARC
  5
1280E
  8
0
 10
3913.1502807081687934
 20
161.7337883154766871
 30
0.0
 40
0.0417917120236934
 50
337.3361697107931718
 51
22.1296127197236814
  0
ARC
  5
1280F
  8
0
 10
3913.151680182912969
 20
161.7344919714074081
 30
0.0
 40
0.0402304546047368
 50
21.9521100791810717
 51
96.2673339404599915
  0
ARC
  5
12810
  8
0
 10
3913.1520810224828892
 20
161.7333990926825038
 30
0.0
 40
0.0413615021979489
 50
96.6540096929884953
 51
163.8125914472680904
  0
ARC
  5
12811
  8
0
 10
3913.1341512382377914
 20
161.7390272560346034
 30
0.0
 40
0.0597491089599329
 50
343.116045878322609
 51
33.1704544791829576
  0
ARC
  5
12812
  8
0
 10
3913.1425927037457768
 20
161.7444045850928944
 30
0.0
 40
0.0497412411296572
 50
33.3058211744591404
 51
90.5387753167982936
  0
ARC
  5
12813
  8
0
 10
3913.1438591857568099
 20
161.7396036497314071
 30
0.0
 40
0.0545675418228484
 50
91.8212249104645082
 51
151.4765040325806069
  0
ARC
  5
12814
  8
0
 10
3913.1469105185078661
 20
161.7371793732062031
 30
0.0
 40
0.0584100230511657
 50
150.8163753532321891
 51
207.4463733460798096
  0
ARC
  5
12815
  8
0
 10
3913.1416345404290951
 20
161.7339186627212939
 30
0.0
 40
0.0522270169785297
 50
206.9396391422650083
 51
266.860862577114176
  0
ARC
  5
12816
  8
0
 10
3913.1398162871528257
 20
161.7346877991722067
 30
0.0
 40
0.0529280395908732
 50
268.8722161258932033
 51
339.5353203906678914
  0
ARC
  5
12817
  8
0
 10
3913.1393618543411321
 20
161.9868216951427087
 30
0.0
 40
0.0531421961185156
 50
273.0754212526741185
 51
346.9632394261279842
  0
ARC
  5
12818
  8
0
 10
3913.141564916058087
 20
161.986947796917292
 30
0.0
 40
0.0531957087239959
 50
196.1155863563317894
 51
270.698006512205211
  0
ARC
  5
12819
  8
0
 10
3913.1461103276610629
 20
161.9893398982075041
 30
0.0
 40
0.058235715309253
 50
135.1039120242309934
 51
197.1353157476495994
  0
ARC
  5
1281A
  8
0
 10
3913.1417148333271143
 20
161.9942767913946113
 30
0.0
 40
0.0516389351358101
 50
72.0596614500356196
 51
135.5419586003172014
  0
ARC
  5
1281B
  8
0
 10
3913.1399157226687748
 20
161.9937692182699038
 30
0.0
 40
0.0526989580537327
 50
18.6455217641887288
 51
70.3684634025363778
  0
ARC
  5
1281C
  8
0
 10
3913.132498025897803
 20
161.9906500646575864
 30
0.0
 40
0.0607273736110845
 50
348.7565203198901145
 51
19.1964498604967098
  0
ARC
  5
1281D
  8
0
 10
3913.1509877294138278
 20
161.986507912892904
 30
0.0
 40
0.0410164704635807
 50
168.4892968190686986
 51
258.4815761898850042
  0
ARC
  5
1281E
  8
0
 10
3913.1504354332978437
 20
161.986295351159896
 30
0.0
 40
0.0407009611403011
 50
259.1836661535318171
 51
327.4413316924952255
  0
ARC
  5
1281F
  8
0
 10
3913.1495681694091218
 20
161.9871034780055936
 30
0.0
 40
0.0418673793955836
 50
327.147932154703426
 51
28.2879225349303205
  0
ARC
  5
12820
  8
0
 10
3913.1509347244650598
 20
161.9879261687960934
 30
0.0
 40
0.0402742200540684
 50
28.1786226060147413
 51
93.1089401048835867
  0
ARC
  5
12821
  8
0
 10
3913.1513139030907951
 20
161.9869745815393003
 30
0.0
 40
0.0412462677303929
 50
93.5632013297036025
 51
169.2149492705761133
  0
ARC
  5
12822
  8
0
 10
3913.1507920381850454
 20
161.987220212519901
 30
0.0
 40
0.0213146639201666
 50
348.0312205189388806
 51
169.8503037265651869
  0
ARC
  5
12823
  8
0
 10
3913.1506622328270169
 20
161.9865560884844911
 30
0.0
 40
0.0213146639192059
 50
168.031220681820713
 51
349.8503035636787786
  0
ARC
  5
12824
  8
0
 10
3913.1498795855418393
 20
162.2404933012981019
 30
0.0
 40
0.0215514463652388
 50
354.1182456458968204
 51
71.6657877541839667
  0
ARC
  5
12825
  8
0
 10
3913.1501937372090651
 20
162.240577219497311
 30
0.0
 40
0.0213746969670335
 50
72.3943986042377361
 51
169.3332045331430891
  0
ARC
  5
12826
  8
0
 10
3913.150181461937791
 20
162.2401374950833031
 30
0.0
 40
0.0214484249545246
 50
168.1727050960722067
 51
272.2475174791269978
  0
ARC
  5
12827
  8
0
 10
3913.1498467402498136
 20
162.2402324715484099
 30
0.0
 40
0.0215589920883145
 50
273.1265346318384104
 51
354.8167474248405142
  0
ARC
  5
12828
  8
0
 10
3913.150154828515042
 20
162.2409557164407943
 30
0.0
 40
0.0407093622380832
 50
353.6079325557934112
 51
175.3711461196664061
  0
ARC
  5
12829
  8
0
 10
3913.1500342845001796
 20
162.2397062101667018
 30
0.0
 40
0.0407094018893709
 50
173.6043133922148911
 51
355.3747652832444146
  0
ARC
  5
1282A
  8
0
 10
3913.1366635006547767
 20
162.240560390718997
 30
0.0
 40
0.0557972836380307
 50
293.6260394270587994
 51
355.580813621160587
  0
ARC
  5
1282B
  8
0
 10
3913.1400957045248106
 20
162.2359547048467903
 30
0.0
 40
0.0502189304411763
 50
232.9320521994571038
 51
292.1441396735381204
  0
ARC
  5
1282C
  8
0
 10
3913.1442233116317766
 20
162.2412945568073042
 30
0.0
 40
0.0569677244782473
 50
178.0015607116698959
 51
232.8567740556034096
  0
ARC
  5
1282D
  8
0
 10
3913.1443414560508245
 20
162.2419303249633913
 30
0.0
 40
0.0570672096321864
 50
124.5028311821424012
 51
178.6436369617707101
  0
ARC
  5
1282E
  8
0
 10
3913.140692936321102
 20
162.2474099109223005
 30
0.0
 40
0.0504848932902353
 50
70.8468559050457714
 51
124.6130948068527005
  0
ARC
  5
1282F
  8
0
 10
3913.1391696696327926
 20
162.2457165938317871
 30
0.0
 40
0.052591671378768
 50
23.7779979858213615
 51
69.8844173819938845
  0
ARC
  5
12830
  8
0
 10
3913.1323507234428689
 20
162.242227161902008
 30
0.0
 40
0.0602403414028269
 50
354.3161935224366061
 51
24.2001775918619906
  0
ARC
  5
12831
  8
0
 10
3913.149466722048146
 20
162.4919740225726059
 30
0.0
 40
0.0213270681207864
 50
179.267293893363302
 51
1.0186623184872829
  0
ARC
  5
12832
  8
0
 10
3913.1494650953181917
 20
162.4926259027400874
 30
0.0
 40
0.021327068120537
 50
359.2672939374253929
 51
181.0186622744163003
  0
ARC
  5
12833
  8
0
 10
3913.1494674633840987
 20
162.4916769466896085
 30
0.0
 40
0.0407153236281638
 50
179.2662150824336891
 51
1.0197411294084191
  0
ARC
  5
12834
  8
0
 10
3913.1494643537980664
 20
162.4929230523067929
 30
0.0
 40
0.040715324755476
 50
359.2661114275085197
 51
181.0198447843322072
  0
ARC
  5
12835
  8
0
 10
3913.1392904866720528
 20
162.4956065905712137
 30
0.0
 40
0.0527641101692509
 50
356.5223881246888027
 51
183.7635680871507873
  0
ARC
  5
12836
  8
0
 10
3913.1393071167221933
 20
162.4889424257129065
 30
0.0
 40
0.0527641206620326
 50
176.5222080600474897
 51
3.7637481517946001
  0
CIRCLE
  5
12837
  8
0
 10
3913.1410453300509289
 20
163.5001561033149926
 30
0.0
 40
0.062992126
  0
CIRCLE
  5
12838
  8
0
 10
3913.1404165587459829
 20
163.752123822784398
 30
0.0
 40
0.062992126
  0
ARC
  5
12839
  8
0
 10
3913.1287991849208083
 20
163.4975482229222052
 30
0.0
 40
0.0606436514
 50
16.8165044250077109
 51
22.3152155104142409
  0
ARC
  5
1283A
  8
0
 10
3913.1283768640319067
 20
163.7493336599079043
 30
0.0
 40
0.0603979603
 50
21.8366251702148517
 51
28.8551885598118609
  0
CIRCLE
  5
1283B
  8
0
 10
3913.0141183133591767
 20
163.8777932967666118
 30
0.0
 40
0.062992126
  0
CIRCLE
  5
1283C
  8
0
 10
3913.0147470846641227
 20
163.6258255773971086
 30
0.0
 40
0.062992126
  0
CIRCLE
  5
1283D
  8
0
 10
3913.0153758559690687
 20
163.3738578580276908
 30
0.0
 40
0.062992126
  0
CIRCLE
  5
1283E
  8
0
 10
3913.1429316439662216
 20
162.7442529451066093
 30
0.0
 40
0.062992126
  0
CIRCLE
  5
1283F
  8
0
 10
3913.1423028726599114
 20
162.9962206645759863
 30
0.0
 40
0.062992126
  0
CIRCLE
  5
12840
  8
0
 10
3913.1416741013558749
 20
163.2481883839454895
 30
0.0
 40
0.062992126
  0
ARC
  5
12841
  8
0
 10
3913.1293949267028438
 20
163.245902659132696
 30
0.0
 40
0.0606836841
 50
11.4646123872120604
 51
15.3192163165123194
  0
CIRCLE
  5
12842
  8
0
 10
3913.0160046272731051
 20
163.1218901385582001
 30
0.0
 40
0.062992126
  0
CIRCLE
  5
12843
  8
0
 10
3913.0166333985789606
 20
162.8699224191886969
 30
0.0
 40
0.062992126
  0
ARC
  5
12844
  8
0
 10
3913.0205707854202046
 20
162.8697754780033051
 30
0.0
 40
0.0411815752826896
 50
179.9248692863907877
 51
0.3610869254315676
  0
ARC
  5
12845
  8
0
 10
3913.0205700030201115
 20
162.8700890094177964
 30
0.0
 40
0.0411815752824612
 50
359.92486936957431
 51
180.3610868422481985
  0
ARC
  5
12846
  8
0
 10
3913.0205701903191766
 20
162.8700139529628075
 30
0.0
 40
0.0215712997533683
 50
359.9259480977858061
 51
180.36000811404611
  0
ARC
  5
12847
  8
0
 10
3913.0205705981229585
 20
162.8698505339133931
 30
0.0
 40
0.0215712997556627
 50
179.9259464917493858
 51
0.3600097200916073
  0
ARC
  5
12848
  8
0
 10
3913.0158773288690099
 20
162.8695625043872042
 30
0.0
 40
0.0547255430594416
 50
179.7681334028586093
 51
0.5178228089634181
  0
ARC
  5
12849
  8
0
 10
3913.0162652297181012
 20
162.8698927837612018
 30
0.0
 40
0.0551131032133599
 50
90.4615564355746358
 51
180.1131242312567906
  0
ARC
  5
1284A
  8
0
 10
3913.01592086612618
 20
162.8703237683338898
 30
0.0
 40
0.054680421116017
 50
359.7205668345596905
 51
90.1043692614010752
  0
ARC
  5
1284B
  8
0
 10
3913.0199555058361511
 20
163.1229977882618982
 30
0.0
 40
0.0215680518965303
 50
191.2003492699797107
 51
11.6517306402350993
  0
ARC
  5
1284C
  8
0
 10
3913.019921845259887
 20
163.1231643354254004
 30
0.0
 40
0.0215680518966213
 50
11.2003492090106498
 51
191.6517307012169056
  0
ARC
  5
1284D
  8
0
 10
3913.0199709597432047
 20
163.1229213250356054
 30
0.0
 40
0.0411753749164945
 50
191.1992703253268076
 51
11.6528094782868408
  0
ARC
  5
1284E
  8
0
 10
3913.019906391465156
 20
163.1232407985874033
 30
0.0
 40
0.0411753749163218
 50
11.1992703851939606
 51
191.6528094184253064
  0
ARC
  5
1284F
  8
0
 10
3913.0153352315169286
 20
163.1212149915895964
 30
0.0
 40
0.0547156960286299
 50
190.465616503977202
 51
12.3864633815287704
  0
ARC
  5
12850
  8
0
 10
3913.0151767808329168
 20
163.1219989803039994
 30
0.0
 40
0.0547081348479709
 50
11.5488789453148009
 51
191.303200940191914
  0
ARC
  5
12851
  8
0
 10
3913.0193422811348682
 20
163.3761420179718868
 30
0.0
 40
0.0215583121964086
 50
201.6505265448487876
 51
22.153882833747069
  0
ARC
  5
12852
  8
0
 10
3913.0192716327201197
 20
163.3763177418861119
 30
0.0
 40
0.0215583121964523
 50
21.6505265192604313
 51
202.1538828593398875
  0
ARC
  5
12853
  8
0
 10
3913.0193746831641874
 20
163.3760614243541909
 30
0.0
 40
0.0411567812430567
 50
201.6494474749160872
 51
22.1549617109631498
  0
ARC
  5
12854
  8
0
 10
3913.019239230688072
 20
163.376398335511908
 30
0.0
 40
0.0411567812431356
 50
21.6494474492885089
 51
202.1549617365907068
  0
ARC
  5
12855
  8
0
 10
3913.0148373387560241
 20
163.3728325432134909
 30
0.0
 40
0.0546905927770921
 50
200.3464316542674055
 51
23.4579774676419497
  0
ARC
  5
12856
  8
0
 10
3913.0144723236539903
 20
163.3737404458597098
 30
0.0
 40
0.0546727767346688
 50
22.4328232290026506
 51
201.3715858929103888
  0
ARC
  5
12857
  8
0
 10
3913.0187324735620678
 20
163.6292836889863054
 30
0.0
 40
0.0215420921726239
 50
210.7705754531648097
 51
31.3605931589243099
  0
ARC
  5
12858
  8
0
 10
3913.0186180029650131
 20
163.6294737070298027
 30
0.0
 40
0.0215420921721709
 50
30.7705757133681495
 51
211.3605929501908065
  0
ARC
  5
12859
  8
0
 10
3913.0187849051849298
 20
163.6291966538024951
 30
0.0
 40
0.0411258163503011
 50
210.7694967342534937
 51
31.3616720255970698
  0
ARC
  5
1285A
  8
0
 10
3913.0185655711948129
 20
163.6295607421945988
 30
0.0
 40
0.0411258163506869
 50
30.7694966295957499
 51
211.3616721302605015
  0
ARC
  5
1285B
  8
0
 10
3913.0146397455168881
 20
163.6244072241358083
 30
0.0
 40
0.0544838947242818
 50
249.285389644496604
 51
33.3545590883890597
  0
ARC
  5
1285C
  8
0
 10
3913.014750501681192
 20
163.625438643456306
 30
0.0
 40
0.0554884276272141
 50
165.8975128434935016
 51
249.5551299597516959
  0
ARC
  5
1285D
  8
0
 10
3913.0139437138150242
 20
163.6256571632196994
 30
0.0
 40
0.0546527134486629
 50
96.7046765591221771
 51
165.9136096810333925
  0
ARC
  5
1285E
  8
0
 10
3913.0136464943111605
 20
163.6255917206954962
 30
0.0
 40
0.0546838460100998
 50
31.7455065306957884
 51
96.3873832209013699
  0
ARC
  5
1285F
  8
0
 10
3913.0180512291090054
 20
163.882431409029607
 30
0.0
 40
0.0215733248949947
 50
308.9210321131329806
 51
38.9889845959392503
  0
ARC
  5
12860
  8
0
 10
3913.0181410624982163
 20
163.8825470179106105
 30
0.0
 40
0.021607302397831
 50
218.6554945339119911
 51
308.5431041056767185
  0
ARC
  5
12861
  8
0
 10
3913.0180416858329409
 20
163.8826230009435108
 30
0.0
 40
0.0215775009178473
 50
128.9321330022426935
 51
218.9778837184753968
  0
ARC
  5
12862
  8
0
 10
3913.0179493650070981
 20
163.8825382194829103
 30
0.0
 40
0.0215857997512417
 50
38.5985030197215835
 51
128.6000956335772116
  0
ARC
  5
12863
  8
0
 10
3913.0182471966159028
 20
163.8823333358160994
 30
0.0
 40
0.0410454981884046
 50
272.6962822214811126
 51
39.1665537006888371
  0
ARC
  5
12864
  8
0
 10
3913.0183341027041024
 20
163.8827490572267038
 30
0.0
 40
0.0414568076140581
 50
154.6535576221239126
 51
272.5492777798693851
  0
ARC
  5
12865
  8
0
 10
3913.0177408343611205
 20
163.8829062651853121
 30
0.0
 40
0.040853503748321
 50
99.515133316935902
 51
154.4966237874176898
  0
ARC
  5
12866
  8
0
 10
3913.0177817030248661
 20
163.8823829466192024
 30
0.0
 40
0.0413764042010594
 50
38.7061778912917873
 51
99.4511547383552283
  0
ARC
  5
12867
  8
0
 10
3913.0113475687758182
 20
163.8759241105308035
 30
0.0
 40
0.0567756823725301
 50
320.5736693386917864
 51
39.7402640434337187
  0
ARC
  5
12868
  8
0
 10
3913.0142337143020086
 20
163.876599365409902
 30
0.0
 40
0.0550255461460449
 50
246.8619152005533124
 51
318.1212327702609741
  0
ARC
  5
12869
  8
0
 10
3913.0143341589960073
 20
163.8773040852589986
 30
0.0
 40
0.0557133539458443
 50
169.341080103785913
 51
247.0517110113960086
  0
ARC
  5
1286A
  8
0
 10
3913.0133839817481203
 20
163.8774253901601128
 30
0.0
 40
0.054757163756548
 50
108.2954524466416046
 51
169.2819240966913128
  0
ARC
  5
1286B
  8
0
 10
3913.012994710320072
 20
163.8777009661523039
 30
0.0
 40
0.0543740559795512
 50
39.4101457175289127
 51
107.9971539284877053
  0
ARC
  5
1286C
  8
0
 10
3913.1461717019478783
 20
163.7569163896772011
 30
0.0
 40
0.0212775062309423
 50
20.7637985505322291
 51
202.7862021701783135
  0
ARC
  5
1286D
  8
0
 10
3913.1464502971339243
 20
163.756218969651286
 30
0.0
 40
0.0212775062312149
 50
200.7637985095944089
 51
22.7862022111105098
  0
ARC
  5
1286E
  8
0
 10
3913.1465776300160542
 20
163.7559002115688997
 30
0.0
 40
0.0406207269469402
 50
200.7611424242894032
 51
22.7888582674341507
  0
ARC
  5
1286F
  8
0
 10
3913.145634733622046
 20
163.7565475194766975
 30
0.0
 40
0.0412505123647832
 50
21.4525521226580089
 51
92.3049990342644833
  0
ARC
  5
12870
  8
0
 10
3913.1459090716862192
 20
163.757608271255009
 30
0.0
 40
0.0402029004923943
 50
92.7564653785590849
 51
159.7929532799078913
  0
ARC
  5
12871
  8
0
 10
3913.1473265319827988
 20
163.7570354500846008
 30
0.0
 40
0.0417310046716703
 50
159.7271131029023934
 51
201.8541791419322919
  0
ARC
  5
12872
  8
0
 10
3913.1348270917560512
 20
163.7545583725552092
 30
0.0
 40
0.0522476364330874
 50
27.2504488370217892
 51
89.5640625003752859
  0
ARC
  5
12873
  8
0
 10
3913.136250657922119
 20
163.7549474361738078
 30
0.0
 40
0.0518672101282873
 50
91.1335038819310768
 51
152.2138057078244913
  0
ARC
  5
12874
  8
0
 10
3913.1421777843352174
 20
163.7515496142270024
 30
0.0
 40
0.0586953766629313
 50
151.9766372219351922
 51
214.4685866028819134
  0
ARC
  5
12875
  8
0
 10
3913.1391086932148937
 20
163.7487341685290971
 30
0.0
 40
0.0545748187654503
 50
213.8552574654871989
 51
265.1503519848913015
  0
ARC
  5
12876
  8
0
 10
3913.1381212616838638
 20
163.7431563947828863
 30
0.0
 40
0.0489362169429522
 50
265.7502287990216132
 51
313.640588539333578
  0
ARC
  5
12877
  8
0
 10
3913.1335317893090178
 20
163.7474211073480035
 30
0.0
 40
0.055191156245563
 50
314.0331177272115042
 51
350.8595864166599085
  0
ARC
  5
12878
  8
0
 10
3913.1271590145179289
 20
163.748844504431105
 30
0.0
 40
0.0617103738816123
 50
350.4947177620069851
 51
21.8376138491113991
  0
ARC
  5
12879
  8
0
 10
3913.1468418000881684
 20
163.5034625077242083
 30
0.0
 40
0.0212991715582678
 50
15.7440590057697101
 51
197.6478264356343004
  0
ARC
  5
1287A
  8
0
 10
3913.1470451100331047
 20
163.5027846659978934
 30
0.0
 40
0.0212991715595713
 50
195.7440587944313108
 51
17.6478266469690297
  0
ARC
  5
1287B
  8
0
 10
3913.1467043153429586
 20
163.5037950260291097
 30
0.0
 40
0.0406265213030595
 50
22.0845390058917594
 51
197.6999000753554867
  0
ARC
  5
1287C
  8
0
 10
3913.1458663037851693
 20
163.5027739488596978
 30
0.0
 40
0.0417917120236934
 50
338.1563434921076237
 51
22.9497865010352591
  0
ARC
  5
1287D
  8
0
 10
3913.1472692729457776
 20
163.5020772862704916
 30
0.0
 40
0.0402304546047368
 50
264.0186222713609254
 51
338.3338461326569018
  0
ARC
  5
1287E
  8
0
 10
3913.1476646531218648
 20
163.5031721519171128
 30
0.0
 40
0.0413615021979489
 50
196.473364764557914
 51
263.6319465188446998
  0
ARC
  5
1287F
  8
0
 10
3913.1297631815391469
 20
163.4974545736766913
 30
0.0
 40
0.0597491089599329
 50
327.1155017326590269
 51
17.1699103335080991
  0
ARC
  5
12880
  8
0
 10
3913.138231379391982
 20
163.4921194417343884
 30
0.0
 40
0.0497412411296572
 50
269.7471808950398895
 51
326.9801350373696778
  0
ARC
  5
12881
  8
0
 10
3913.1394738848489396
 20
163.4969266381334023
 30
0.0
 40
0.0545675418228484
 50
208.8094521792417027
 51
268.4647313013589951
  0
ARC
  5
12882
  8
0
 10
3913.142513080380013
 20
163.4993661132301099
 30
0.0
 40
0.0584100230511657
 50
152.8395828657592972
 51
209.469580858597709
  0
ARC
  5
12883
  8
0
 10
3913.1372208942721045
 20
163.502600451454299
 30
0.0
 40
0.0522270169785297
 50
93.4250936347083325
 51
153.3463170695721942
  0
ARC
  5
12884
  8
0
 10
3913.1354065022910618
 20
163.5018222499410001
 30
0.0
 40
0.0529280395908732
 50
20.7506358211637583
 51
91.4137400859313658
  0
ARC
  5
12885
  8
0
 10
3913.1362104392819674
 20
163.2496892261387131
 30
0.0
 40
0.0531421961185156
 50
13.3227167857008002
 51
87.2105349591467842
  0
ARC
  5
12886
  8
0
 10
3913.1384141029170678
 20
163.2495741210998972
 30
0.0
 40
0.0531957087239959
 50
89.5879496996149811
 51
164.1703698554958066
  0
ARC
  5
12887
  8
0
 10
3913.1429713965439987
 20
163.2472047350998139
 30
0.0
 40
0.058235715309253
 50
163.1506404641814072
 51
225.182044187593192
  0
ARC
  5
12888
  8
0
 10
3913.1386005962790477
 20
163.2422459661163998
 30
0.0
 40
0.0516389351358101
 50
224.7439976115128957
 51
288.2262947617887221
  0
ARC
  5
12889
  8
0
 10
3913.1367989748041509
 20
163.2427445538160953
 30
0.0
 40
0.0526989580537327
 50
289.917492809301109
 51
341.640434447639791
  0
ARC
  5
1288A
  8
0
 10
3913.1293658031668201
 20
163.2458266479196141
 30
0.0
 40
0.0607273736110845
 50
341.0895063513332843
 51
11.5294358919407998
  0
ARC
  5
1288B
  8
0
 10
3913.1478346035191862
 20
163.2500610275569102
 30
0.0
 40
0.0410164704635807
 50
101.8043800219456045
 51
191.7966593927642123
  0
ARC
  5
1288C
  8
0
 10
3913.1472812534170771
 20
163.2502708302116901
 30
0.0
 40
0.0407009611403011
 50
32.8446245193328181
 51
101.1022900583037938
  0
ARC
  5
1288D
  8
0
 10
3913.1464180335728997
 20
163.2494583850410095
 30
0.0
 40
0.0418673793955836
 50
331.9980336769031055
 51
33.1380240571372013
  0
ARC
  5
1288E
  8
0
 10
3913.1477886775410298
 20
163.2486425247770967
 30
0.0
 40
0.0402742200540684
 50
267.1770161069466099
 51
332.1073336058274208
  0
ARC
  5
1288F
  8
0
 10
3913.148163102208855
 20
163.2495959926085902
 30
0.0
 40
0.0412462677303929
 50
191.0710069412521932
 51
266.7227548821242067
  0
ARC
  5
12890
  8
0
 10
3913.1476424697120819
 20
163.2493477601342988
 30
0.0
 40
0.0213146639201666
 50
190.4356524852676102
 51
12.2547356928959204
  0
ARC
  5
12891
  8
0
 10
3913.1475093514231958
 20
163.2500112280584119
 30
0.0
 40
0.0213146639192059
 50
10.4356526481502598
 51
192.2547355300116863
  0
ARC
  5
12892
  8
0
 10
3913.1479940781241567
 20
162.9960732718008103
 30
0.0
 40
0.0215514463652388
 50
288.6201684576366802
 51
6.1677105659345646
  0
ARC
  5
12893
  8
0
 10
3913.1483086447019559
 20
162.9959909225325987
 30
0.0
 40
0.0213746969670335
 50
190.9527516786893102
 51
287.8915576075906984
  0
ARC
  5
12894
  8
0
 10
3913.1482941749818565
 20
162.9964305802060949
 30
0.0
 40
0.0214484249545246
 50
88.0384387326953259
 51
192.1132511157589988
  0
ARC
  5
12895
  8
0
 10
3913.1479599314770894
 20
162.996333934375798
 30
0.0
 40
0.0215589920883145
 50
5.4692087869887542
 51
87.1594215799972432
  0
ARC
  5
12896
  8
0
 10
3913.148271625516827
 20
162.9956122361153916
 30
0.0
 40
0.0407093622380832
 50
184.9148100921647142
 51
6.6780236560371922
  0
ARC
  5
12897
  8
0
 10
3913.1481448468957751
 20
162.9968611252097048
 30
0.0
 40
0.0407094018893709
 50
4.9111909285867634
 51
186.6816428196150923
  0
ARC
  5
12898
  8
0
 10
3913.1347784926679196
 20
162.9959402236297024
 30
0.0
 40
0.0557972836380307
 50
4.7051425906700146
 51
66.6599167847800373
  0
ARC
  5
12899
  8
0
 10
3913.1381876674749947
 20
163.0005629817785007
 30
0.0
 40
0.0502189304411763
 50
68.1418165382777943
 51
127.3539040123709043
  0
ARC
  5
1289A
  8
0
 10
3913.1423418736108033
 20
162.9952437966182117
 30
0.0
 40
0.0569677244782473
 50
127.4291821562170952
 51
182.2843955001623044
  0
ARC
  5
1289B
  8
0
 10
3913.1424631895861239
 20
162.9946086260221136
 30
0.0
 40
0.0570672096321864
 50
181.642319250061604
 51
235.7831250296721066
  0
ARC
  5
1289C
  8
0
 10
3913.1388420631251392
 20
162.9891108990690043
 30
0.0
 40
0.0504848932902353
 50
235.6728614049827968
 51
289.4391003067929091
  0
ARC
  5
1289D
  8
0
 10
3913.1373103643049944
 20
162.9907965926645943
 30
0.0
 40
0.052591671378768
 50
290.4015388298428206
 51
336.5079582260158872
  0
ARC
  5
1289E
  8
0
 10
3913.1304740877849326
 20
162.9942519487522929
 30
0.0
 40
0.0602403414028269
 50
336.0857786199749739
 51
5.9697626893952256
  0
ARC
  5
1289F
  8
0
 10
3913.148836324012791
 20
162.7445936220260023
 30
0.0
 40
0.0213270681207864
 50
359.2672938933445721
 51
181.0186623184685004
  0
ARC
  5
128A0
  8
0
 10
3913.1488379507432001
 20
162.7439417418584071
 30
0.0
 40
0.021327068120537
 50
179.2672939374155874
 51
1.0186622744065159
  0
ARC
  5
128A1
  8
0
 10
3913.1488355826768384
 20
162.7448906979089998
 30
0.0
 40
0.0407153236281638
 50
359.2662150824231162
 51
181.0197411293985965
  0
ARC
  5
128A2
  8
0
 10
3913.1488386922637801
 20
162.7436445922917017
 30
0.0
 40
0.040715324755476
 50
179.2661114274987142
 51
1.0198447843224721
  0
ARC
  5
128A3
  8
0
 10
3913.138678345002063
 20
162.7409103111363891
 30
0.0
 40
0.0527641101692509
 50
176.5223881246799067
 51
3.7635680871419148
  0
ARC
  5
128A4
  8
0
 10
3913.138661714952832
 20
162.747574475994611
 30
0.0
 40
0.0527641206620326
 50
356.5222080600385084
 51
183.7637481517847959
  0
CIRCLE
  5
128A5
  8
0
 10
3913.0169345121730657
 20
162.6182696485539054
 30
0.0
 40
0.062992126
  0
ARC
  5
128A6
  8
0
 10
3913.0208711166151261
 20
162.6184362388428042
 30
0.0
 40
0.0411815752826896
 50
359.9248692864006216
 51
180.3610869254405031
  0
ARC
  5
128A7
  8
0
 10
3913.0208718990152192
 20
162.6181227074283129
 30
0.0
 40
0.0411815752824612
 50
179.924869369583206
 51
0.3610868422579723
  0
ARC
  5
128A8
  8
0
 10
3913.0208717117147899
 20
162.6181977638833018
 30
0.0
 40
0.0215712997533683
 50
179.9259480977856924
 51
0.3600081140461444
  0
ARC
  5
128A9
  8
0
 10
3913.0208713039119175
 20
162.6183611829326878
 30
0.0
 40
0.0215712997556627
 50
359.925946491739694
 51
180.3600097200817913
  0
ARC
  5
128AA
  8
0
 10
3913.0161766555970644
 20
162.6186257854373878
 30
0.0
 40
0.0547255430594416
 50
359.7681334028675906
 51
180.5178228089731078
  0
ARC
  5
128AB
  8
0
 10
3913.016566199990848
 20
162.6182974461343065
 30
0.0
 40
0.0551131032133599
 50
180.1728319805743013
 51
269.8243997762622826
  0
ARC
  5
128AC
  8
0
 10
3913.0162239916708131
 20
162.6178647482599899
 30
0.0
 40
0.054680421116017
 50
270.1815869504471834
 51
0.5653893772717228
  0
LINE
  5
128AD
  8
0
 10
3912.8412438374648445
 20
160.3950080669411022
 30
0.0
 11
3912.8412438374648445
 21
160.4130453998560881
 31
0.0
  0
LINE
  5
128AE
  8
0
 10
3912.8688028926658262
 20
160.4161925323817002
 30
0.0
 11
3912.8688028926658262
 21
160.3983445317425094
 31
0.0
  0
LINE
  5
128AF
  8
0
 10
3912.9081729713648201
 20
160.4161925323751063
 30
0.0
 11
3912.9081729713648201
 21
160.3983154162083054
 31
0.0
  0
LINE
  5
128B0
  8
0
 10
3912.9357320264648479
 20
160.3949373304209871
 30
0.0
 11
3912.9357320264648479
 21
160.4130453998560881
 31
0.0
  0
ARC
  5
128B1
  8
0
 10
3912.88785976936515
 20
160.1213339968562082
 30
0.0
 40
0.277505084
 50
291.0157941586957122
 51
0.0475525818997794
  0
ARC
  5
128B2
  8
0
 10
3912.8882835385102226
 20
160.1219487027736932
 30
0.0
 40
0.2770814859096502
 50
359.9205144292067757
 51
110.8651062157394023
  0
CIRCLE
  5
128B3
  8
0
 10
3912.8884879319648462
 20
160.1215738404561932
 30
0.0
 40
0.2952755906
  0
ARC
  5
128B4
  8
0
 10
3912.8891161710648703
 20
160.121813739456087
 30
0.0
 40
0.2775051165
 50
111.015819397002403
 51
180.047666593700086
  0
ARC
  5
128B5
  8
0
 10
3912.8886926964319173
 20
160.1211960028448118
 30
0.0
 40
0.2770785168903679
 50
179.9200045661845877
 51
290.8652472261522917
  0
LINE
  5
128B7
  8
0
 10
3912.3963619477631255
 20
153.80409565890821
 30
0.0
 11
3912.3963619477631255
 21
155.4052481712820963
 31
0.0
  0
ENDSEC
  0
EOF
