  0
SECTION
  2
HEADER
  9
$ACADVER
  1
AC1009
  9
$INSBASE
 10
277.8348631508126232
 20
67.4668306300006861
 30
0.0
  9
$EXTMIN
 10
266.581627244266997
 20
56.0563171562455409
 30
-0.0015258207003583
  9
$EXTMAX
 10
282.0760545001766104
 20
76.1760576105008056
 30
0.0000000349246037
  9
$LIMMIN
 10
0.0
 20
0.0
  9
$LIMMAX
 10
11.6929133858000007
 20
8.2677165353999982
  9
$ORTHOMODE
 70
     0
  9
$REGENMODE
 70
     1
  9
$FILLMODE
 70
     1
  9
$QTEXTMODE
 70
     0
  9
$MIRRTEXT
 70
     0
  9
$DRAGMODE
 70
     2
  9
$LTSCALE
 40
0.6431102362
  9
$OSMODE
 70
  2039
  9
$ATTMODE
 70
     1
  9
$TEXTSIZE
 40
0.2
  9
$TRACEWID
 40
0.05
  9
$TEXTSTYLE
  7
STANDARD
  9
$CLAYER
  8
0
  9
$CELTYPE
  6
BYLAYER
  9
$CECOLOR
 62
   256
  9
$DIMSCALE
 40
1.0
  9
$DIMASZ
 40
0.1875
  9
$DIMEXO
 40
0.0625
  9
$DIMDLI
 40
0.4443307087
  9
$DIMRND
 40
0.0
  9
$DIMDLE
 40
0.0
  9
$DIMEXE
 40
0.125
  9
$DIMTP
 40
0.01
  9
$DIMTM
 40
0.01
  9
$DIMTXT
 40
1.0
  9
$DIMCEN
 40
0.1052362205
  9
$DIMTSZ
 40
0.0
  9
$DIMTOL
 70
     1
  9
$DIMLIM
 70
     0
  9
$DIMTIH
 70
     0
  9
$DIMTOH
 70
     1
  9
$DIMSE1
 70
     0
  9
$DIMSE2
 70
     0
  9
$DIMTAD
 70
     0
  9
$DIMZIN
 70
     0
  9
$DIMBLK
  1

  9
$DIMASO
 70
     1
  9
$DIMSHO
 70
     1
  9
$DIMPOST
  1
\X
  9
$DIMAPOST
  1

  9
$DIMALT
 70
     1
  9
$DIMALTD
 70
     2
  9
$DIMALTF
 40
25.3999999999999986
  9
$DIMLFAC
 40
1.0
  9
$DIMTOFL
 70
     0
  9
$DIMTVP
 40
0.0
  9
$DIMTIX
 70
     0
  9
$DIMSOXD
 70
     0
  9
$DIMSAH
 70
     0
  9
$DIMBLK1
  1

  9
$DIMBLK2
  1

  9
$DIMSTYLE
  2
STANDARD
  9
$DIMCLRD
 70
     0
  9
$DIMCLRE
 70
     0
  9
$DIMCLRT
 70
     0
  9
$DIMTFAC
 40
1.0
  9
$DIMGAP
 40
0.09
  9
$LUNITS
 70
     2
  9
$LUPREC
 70
     4
  9
$SKETCHINC
 40
0.1
  9
$FILLETRAD
 40
0.0
  9
$AUNITS
 70
     0
  9
$AUPREC
 70
     0
  9
$MENU
  1
.
  9
$ELEVATION
 40
0.0
  9
$PELEVATION
 40
0.0
  9
$THICKNESS
 40
0.0
  9
$LIMCHECK
 70
     0
  9
$BLIPMODE
 70
     0
  9
$CHAMFERA
 40
0.0
  9
$CHAMFERB
 40
0.0
  9
$SKPOLY
 70
     0
  9
$TDCREATE
 40
2458172.5207638889551163
  9
$TDUPDATE
 40
2459150.7528009261004627
  9
$TDINDWG
 40
0.2928907176
  9
$TDUSRTIMER
 40
0.2928907176
  9
$USRTIMER
 70
     1
  9
$ANGBASE
 50
0.0
  9
$ANGDIR
 70
     0
  9
$PDMODE
 70
     0
  9
$PDSIZE
 40
0.3125
  9
$PLINEWID
 40
0.0
  9
$COORDS
 70
     1
  9
$SPLFRAME
 70
     0
  9
$SPLINETYPE
 70
     6
  9
$SPLINESEGS
 70
     8
  9
$ATTDIA
 70
     1
  9
$ATTREQ
 70
     1
  9
$HANDLING
 70
     1
  9
$HANDSEED
  5
1F1BC
  9
$SURFTAB1
 70
     6
  9
$SURFTAB2
 70
     6
  9
$SURFTYPE
 70
     6
  9
$SURFU
 70
     6
  9
$SURFV
 70
     6
  9
$UCSNAME
  2

  9
$UCSORG
 10
0.0
 20
0.0
 30
0.0
  9
$UCSXDIR
 10
1.0
 20
0.0
 30
0.0
  9
$UCSYDIR
 10
0.0
 20
1.0
 30
0.0
  9
$PUCSNAME
  2

  9
$PUCSORG
 10
0.0
 20
0.0
 30
0.0
  9
$PUCSXDIR
 10
1.0
 20
0.0
 30
0.0
  9
$PUCSYDIR
 10
0.0
 20
1.0
 30
0.0
  9
$USERI1
 70
     0
  9
$USERI2
 70
     0
  9
$USERI3
 70
     0
  9
$USERI4
 70
     0
  9
$USERI5
 70
     0
  9
$USERR1
 40
0.0
  9
$USERR2
 40
0.0
  9
$USERR3
 40
0.0
  9
$USERR4
 40
0.0
  9
$USERR5
 40
0.0
  9
$WORLDVIEW
 70
     1
  9
$SHADEDGE
 70
     3
  9
$SHADEDIF
 70
    70
  9
$TILEMODE
 70
     1
  9
$MAXACTVP
 70
    64
  9
$PLIMCHECK
 70
     0
  9
$PEXTMIN
 10
1.0000000000000000E+20
 20
1.0000000000000000E+20
 30
1.0000000000000000E+20
  9
$PEXTMAX
 10
-1.0000000000000000E+20
 20
-1.0000000000000000E+20
 30
-1.0000000000000000E+20
  9
$PLIMMIN
 10
0.0
 20
0.0
  9
$PLIMMAX
 10
12.0
 20
9.0
  9
$UNITMODE
 70
     0
  9
$VISRETAIN
 70
     1
  9
$PLINEGEN
 70
     0
  9
$PSLTSCALE
 70
     1
  0
ENDSEC
  0
SECTION
  2
TABLES
  0
TABLE
  2
VPORT
 70
     1
  0
VPORT
  2
*ACTIVE
 70
     0
 10
0.0
 20
0.0
 11
1.0
 21
1.0
 12
0.2978960480030501
 22
0.0004971520499311
 13
0.0
 23
0.0
 14
1.0
 24
1.0
 15
0.0
 25
0.0
 16
0.0
 26
0.0
 36
85.2364218460335366
 17
274.0309448242188068
 27
66.1156902313232422
 37
0.0
 40
20.2871724136526694
 41
2.6486111111111108
 42
50.0
 43
0.0
 44
0.0
 50
0.0
 51
0.0
 71
     0
 72
   100
 73
     1
 74
     1
 75
     0
 76
     0
 77
     0
 78
     0
  0
ENDTAB
  0
TABLE
  2
LTYPE
 70
     2
  0
LTYPE
  2
CONTINUOUS
 70
     0
  3
Solid line
 72
    65
 73
     0
 40
0.0
  0
LTYPE
  2
PHANTOM2
 70
     0
  3
___ _ _ ___ _ _ ___ _ _ ___ _ _
 72
    65
 73
     6
 40
1.25
 49
0.625
 49
-0.125
 49
0.125
 49
-0.125
 49
0.125
 49
-0.125
  0
ENDTAB
  0
TABLE
  2
LAYER
 70
     2
  0
LAYER
  2
0
 70
     0
 62
   255
  6
CONTINUOUS
  0
LAYER
  2
DEFPOINTS
 70
     0
 62
     7
  6
CONTINUOUS
  0
ENDTAB
  0
TABLE
  2
STYLE
 70
     1
  0
STYLE
  2
STANDARD
 70
     0
 40
0.0
 41
0.8
 50
0.0
 71
     0
 42
0.2
  3
txt
  4

  0
ENDTAB
  0
TABLE
  2
VIEW
 70
     0
  0
ENDTAB
  0
TABLE
  2
UCS
 70
     0
  0
ENDTAB
  0
TABLE
  2
APPID
 70
    10
  0
APPID
  2
ACAD
 70
     0
  0
APPID
  2
ACAD_MLEADERVER
 70
     0
  0
APPID
  2
ACAD_EXEMPT_FROM_CAD_STANDARDS
 70
     0
  0
APPID
  2
ACAD_DSTYLE_DIMJAG
 70
     0
  0
APPID
  2
ACAD_DSTYLE_DIMTALN
 70
     0
  0
APPID
  2
ACAD_NAV_VCDISPLAY
 70
     0
  0
APPID
  2
ACAECLAYERSTANDARD
 70
     0
  0
APPID
  2
ACCMTRANSPARENCY
 70
     0
  0
APPID
  2
DCO15
 70
     0
  0
APPID
  2
ACDBATTR
 70
     0
  0
ENDTAB
  0
TABLE
  2
DIMSTYLE
 70
     1
  0
DIMSTYLE
  2
STANDARD
 70
     0
  3

  4

  5

  6

  7

 40
1.0
 41
0.1875
 42
0.0625
 43
0.38
 44
0.125
 45
0.0
 46
0.0
 47
0.01
 48
0.01
140
0.15625
141
0.09
142
0.0
143
25.3999999999999986
144
1.0
145
0.0
146
1.0
147
0.09
 71
     1
 72
     0
 73
     1
 74
     1
 75
     0
 76
     0
 77
     0
 78
     4
170
     0
171
     2
172
     0
173
     0
174
     0
175
     0
176
     0
177
     0
178
     0
  0
ENDTAB
  0
ENDSEC
  0
SECTION
  2
BLOCKS
  0
BLOCK
  8
0
  2
$MODEL_SPACE
 70
     0
 10
0.0
 20
0.0
 30
0.0
  3
$MODEL_SPACE
  1

  0
ENDBLK
  5
21
  8
0
  0
BLOCK
 67
     1
  8
0
  2
$PAPER_SPACE
 70
     0
 10
0.0
 20
0.0
 30
0.0
  3
$PAPER_SPACE
  1

  0
ENDBLK
  5
1D
 67
     1
  8
0
  0
BLOCK
  8
0
  2
_FILLED
 70
     0
 10
0.0
 20
0.0
 30
0.0
  3
_FILLED
  1

  0
SOLID
  5
87E2
  8
0
  6
BYBLOCK
 62
     0
 10
0.0
 20
0.0
 30
0.0
 11
-1.0
 21
0.1666666667
 31
0.0
 12
-1.0
 22
-0.1666666667
 32
0.0
 13
-1.0
 23
-0.1666666667
 33
0.0
  0
ENDBLK
  5
87E3
  8
0
  6
BYBLOCK
 62
     0
  0
ENDSEC
  0
SECTION
  2
ENTITIES
  0
ATTDEF
  5
1DAEA
  8
DEFPOINTS
 10
277.8351927720344179
 20
67.4704339372410402
 30
0.0
 40
0.001
  1
K-78074T-PNE
  3

  2
MODELNUMBER
 70
     0
1001
ACDBATTR
1070
     0
1070
     1
  0
ATTDEF
  5
1DAEB
  8
DEFPOINTS
 10
277.8351927720344179
 20
67.4687672705743751
 30
0.0
 40
0.001
  1
HYDRO-TOWER 200
  3

  2
TRADENAME
 70
     0
1001
ACDBATTR
1070
     0
1070
     1
  0
ATTDEF
  5
1DAEC
  8
DEFPOINTS
 10
277.8351927720344179
 20
67.4671006039077099
 30
0.0
 40
0.001
  1
IN-WALL TANK AND CARRIER SYSTEM
  3

  2
PRODUCT
 70
     0
1001
ACDBATTR
1070
     0
1070
     1
  0
LINE
  5
1EE3B
  8
0
 10
267.0475154899127119
 20
57.0382488924006665
 30
0.0
 11
266.6343749619126129
 21
57.0382488924006665
 31
0.0
  0
LINE
  5
1EE3C
  8
0
 10
267.1267462450126118
 20
57.0382488924006665
 30
0.0
 11
267.3627214186125798
 21
57.0382488924006665
 31
0.0
  0
LINE
  5
1EE3D
  8
0
 10
266.5950048832125958
 20
57.0776189712506365
 30
0.0
 11
266.5950048832125958
 21
58.7390362940506989
 31
0.0
  0
LINE
  5
1EE3E
  8
0
 10
267.3627214186125798
 20
56.8237976686290267
 30
0.0
 11
267.3627214186125798
 21
58.9928575966722519
 31
0.0
  0
LINE
  5
1EE3F
  8
0
 10
269.6461859855126022
 20
56.7370677901006388
 30
0.0
 11
269.6461859855126022
 21
59.0795874751006806
 31
0.0
  0
ARC
  5
1EE40
  8
0
 10
267.3824462499833885
 20
56.8252258202800675
 30
0.0
 40
0.0197764655523633
 50
184.1412025912968886
 51
268.1626602079643931
  0
LINE
  5
1EE41
  8
0
 10
267.3818121743125857
 20
56.8054595222506507
 30
0.0
 11
269.6461859855126022
 21
56.7370677901006388
 31
0.0
  0
ARC
  5
1EE42
  8
0
 10
266.6378661180970084
 20
57.0811101272717707
 30
0.0
 40
0.0430031815820497
 50
184.6566062497606993
 51
265.3433935320182968
  0
ARC
  5
1EE43
  8
0
 10
267.0475219135906855
 20
57.0500405883414317
 30
0.0
 40
0.011791697690445
 50
269.9687873898860744
 51
343.6054312694943178
  0
ARC
  5
1EE44
  8
0
 10
267.0871268280289996
 20
57.038243473048631
 30
0.0
 40
0.0295329787782599
 50
16.6093889385988014
 51
163.3358673376644106
  0
ARC
  5
1EE45
  8
0
 10
267.1267462453756139
 20
57.0500599164884434
 30
0.0
 40
0.0118110240877559
 50
196.6015442422796866
 51
269.999998239026695
  0
LINE
  5
1EE46
  8
0
 10
269.6461859855126022
 20
57.023921932843102
 30
0.0
 11
275.9060285052127028
 21
57.023921932843102
 31
0.0
  0
LINE
  5
1EE47
  8
0
 10
267.1267462450126118
 20
57.0382488924006665
 30
0.0
 11
267.1267462450126118
 21
58.7784063728006387
 31
0.0
  0
LINE
  5
1EE48
  8
0
 10
267.0475154899127119
 20
57.0382488924006665
 30
0.0
 11
267.0475154899127119
 21
58.7784063728006316
 31
0.0
  0
LINE
  5
1EE49
  8
0
 10
267.0475154899127119
 20
58.7784063728006316
 30
0.0
 11
266.6343749619126129
 21
58.7784063728006174
 31
0.0
  0
LINE
  5
1EE4A
  8
0
 10
267.1267462450126118
 20
58.7784063728006387
 30
0.0
 11
267.3627214186125798
 21
58.7784063728006174
 31
0.0
  0
ARC
  5
1EE4B
  8
0
 10
267.3824462499833885
 20
58.9914294450212182
 30
0.0
 40
0.0197764655523633
 50
91.8373397920355643
 51
175.8587974087022019
  0
LINE
  5
1EE4C
  8
0
 10
267.3818121743125857
 20
59.0111957430506422
 30
0.0
 11
269.6461859855126022
 21
59.0795874751006806
 31
0.0
  0
ARC
  5
1EE4D
  8
0
 10
266.6378661178944185
 20
58.7355451381232569
 30
0.0
 40
0.043003181372508
 50
94.6566062198900511
 51
175.3433938528025919
  0
ARC
  5
1EE4E
  8
0
 10
267.0475219138077136
 20
58.7666146771106597
 30
0.0
 40
0.0117916974397783
 50
16.3945683251052294
 51
90.0312136648148567
  0
ARC
  5
1EE4F
  8
0
 10
267.0871268280289996
 20
58.7784117922526619
 30
0.0
 40
0.0295329787782599
 50
196.6641326623355042
 51
343.3906110614004206
  0
ARC
  5
1EE50
  8
0
 10
267.1267462451577899
 20
58.766595348965069
 30
0.0
 40
0.011811023835552
 50
90.0000007044550756
 51
163.3984561635132877
  0
LINE
  5
1EE51
  8
0
 10
269.6461859855126022
 20
58.7927333324581909
 30
0.0
 11
275.9060285052127028
 21
58.7927333324581909
 31
0.0
  0
ARC
  5
1EE52
  8
0
 10
276.1880084649076821
 20
58.8826982063953182
 30
0.0
 40
0.1968892699334628
 50
90.0245463367767371
 51
165.513724821696286
  0
LINE
  5
1EE53
  8
0
 10
275.9973787794749001
 20
58.9319496799437914
 30
0.0
 11
275.9060285052127028
 21
58.9319496799006473
 31
0.0
  0
LINE
  5
1EE54
  8
0
 10
275.9060285052127028
 20
58.9319496799006473
 30
0.0
 11
275.9060285052127028
 21
56.8847055854006385
 31
0.0
  0
LINE
  5
1EE55
  8
0
 10
275.9973787794749001
 20
58.9319496799437914
 30
0.0
 11
275.9973787794749001
 21
56.8847055853575085
 31
0.0
  0
ARC
  5
1EE56
  8
0
 10
276.1881238022020852
 20
56.9341058937489208
 30
0.0
 40
0.1970382048344764
 50
194.519788637627812
 51
269.9419338379743181
  0
LINE
  5
1EE57
  8
0
 10
275.9973787794749001
 20
56.8847055853575085
 30
0.0
 11
275.9060285052127028
 21
56.8847055854006385
 31
0.0
  0
LINE
  5
1EE58
  8
0
 10
276.3502238391125729
 20
76.0950612934006472
 30
0.0
 11
276.3503995261527848
 21
76.1151930240446291
 31
0.0
  0
ARC
  5
1EE59
  8
0
 10
276.4094523956895273
 20
76.1146776770646198
 30
0.0
 40
0.0590551182360215
 50
90.0000000745566808
 51
179.5014873190235107
  0
LINE
  5
1EE5A
  8
0
 10
276.4094523956126181
 20
76.1737327953006513
 30
0.0
 11
281.0955180006126852
 21
76.1737327953006655
 31
0.0
  0
ARC
  5
1EE5B
  8
0
 10
281.0955180111712934
 20
76.1146776878134546
 30
0.0
 40
0.0590551074872062
 50
0.4999896519953932
 51
90.0000102440591547
  0
LINE
  5
1EE5C
  8
0
 10
281.1545708701140143
 20
76.1151930236399608
 30
0.0
 11
281.154746557012686
 21
76.0950612934006472
 31
0.0
  0
LINE
  5
1EE5D
  8
0
 10
281.154746557012686
 20
76.0950612934006472
 30
0.0
 11
280.9572642485126153
 21
76.0753075990006522
 31
0.0
  0
LINE
  5
1EE5E
  8
0
 10
276.3502238391125729
 20
76.0950612934006472
 30
0.0
 11
276.5477607886126066
 21
76.0753075990006522
 31
0.0
  0
LINE
  5
1EE5F
  8
0
 10
276.5477607886126066
 20
76.0753075990006522
 30
0.0
 11
281.1540600012125992
 21
76.0753075990006522
 31
0.0
  0
LINE
  5
1EE60
  8
0
 10
281.1540600012125992
 20
76.0753075990006522
 30
0.0
 11
281.1540600012125992
 21
73.3413984987006415
 31
0.0
  0
ARC
  5
1EE61
  8
0
 10
276.841246573989622
 20
75.7603468661120161
 30
0.0
 40
0.3149607328886328
 50
90.0000021423874159
 51
98.7485460385425569
  0
ARC
  5
1EE62
  8
0
 10
276.8412465622128025
 20
75.7603469684998885
 30
0.0
 40
0.3149606299007848
 50
98.7485467540647761
 51
108.9879249415865985
  0
LINE
  5
1EE63
  8
0
 10
277.3509123286125941
 20
74.6569541099006528
 30
0.0
 11
277.9926066942126113
 21
74.6569541099006528
 31
0.0
  0
LINE
  5
1EE64
  8
0
 10
277.4363303795994966
 20
74.5989296457006787
 30
0.0
 11
277.9926066941126237
 21
74.5989296457006503
 31
0.0
  0
LINE
  5
1EE65
  8
0
 10
277.9926066942126113
 20
72.9640407241006415
 30
0.0
 11
277.3513982020126036
 21
72.9640407241006699
 31
0.0
  0
LINE
  5
1EE66
  8
0
 10
277.4397659296154757
 20
73.0241264961006493
 30
0.0
 11
277.9926066941126237
 21
73.0241264961006493
 31
0.0
  0
LINE
  5
1EE67
  8
0
 10
277.993129705054173
 20
72.8699785790006871
 30
0.0
 11
277.9926066942126113
 21
74.6776698105006744
 31
0.0
  0
LINE
  5
1EE68
  8
0
 10
276.0778434404126074
 20
72.1457552363006442
 30
0.0
 11
281.4666505261125735
 21
72.1457552363006442
 31
0.0
  0
LINE
  5
1EE69
  8
0
 10
281.4666505261125735
 20
72.1457552363006442
 30
0.0
 11
281.2389936361134914
 21
60.8008535510426071
 31
0.0
  0
ARC
  5
1EE6A
  8
0
 10
280.9181617363437908
 20
60.8072916493655597
 30
0.0
 40
0.3208964895722981
 50
325.4187646634082967
 51
358.8504062057563146
  0
ARC
  5
1EE6B
  8
0
 10
281.4930868667469213
 20
60.4458698386037625
 30
0.0
 40
0.3587394312619395
 50
150.0148359755175989
 51
179.0741433467798061
  0
LINE
  5
1EE6C
  8
0
 10
281.1343942717126083
 20
60.4516665454006414
 30
0.0
 11
281.1343758420197219
 21
60.0394560310006895
 31
0.0
  0
ARC
  5
1EE6D
  8
0
 10
280.7880111177149161
 20
75.8866819709637781
 30
0.0
 40
0.2144881922633341
 50
26.9794859641900509
 51
61.5727141332838883
  0
ARC
  5
1EE6E
  8
0
 10
280.5239331355572858
 20
75.7522465931591427
 30
0.0
 40
0.5108158006056507
 50
1.960188241602282
 51
26.9794859641900509
  0
LINE
  5
1EE6F
  8
0
 10
281.0344500249125872
 20
75.7697190810006589
 30
0.0
 11
281.067036951839782
 21
73.3419231760848476
 31
0.0
  0
LINE
  5
1EE70
  8
0
 10
281.0607221009851742
 20
72.2052288656006738
 30
0.0
 11
281.0553618841956904
 21
72.5123154798006908
 31
0.0
  0
LINE
  5
1EE71
  8
0
 10
281.0515822441515752
 20
72.7288509129006826
 30
0.0
 11
280.9985714021125887
 21
75.7658400193006543
 31
0.0
  0
ARC
  5
1EE72
  8
0
 10
280.6836552870179844
 20
75.7603431380646555
 30
0.0
 40
0.314964085650512
 50
1.0000000000099021
 51
42.9971390213777269
  0
ARC
  5
1EE73
  8
0
 10
280.6836161752091812
 20
75.7603066684967672
 30
0.0
 40
0.315017562402111
 50
42.9971391367607083
 51
89.4112335327497192
  0
ARC
  5
1EE74
  8
0
 10
280.8346550468594955
 20
73.394271657802804
 30
0.0
 40
0.2383279134231057
 50
330.4671832853521778
 51
347.1822568405319771
  0
ARC
  5
1EE75
  8
0
 10
277.9334364083404125
 20
59.050724495733661
 30
0.0
 40
2.1659618888320131
 50
282.0147520669946744
 51
309.7553819925265088
  0
ARC
  5
1EE76
  8
0
 10
277.9335875599592782
 20
59.0500599161793716
 30
0.0
 40
2.1653543310533561
 50
309.7635530043099266
 51
359.9999999939170152
  0
LINE
  5
1EE77
  8
0
 10
280.0989418910126005
 20
59.0500599159494683
 30
0.0
 11
280.0989418910126005
 21
59.1142601199006492
 31
0.0
  0
ARC
  5
1EE78
  8
0
 10
280.1776820671049109
 20
59.1142600923201798
 30
0.0
 40
0.0787401842952979
 50
90.0000135287674965
 51
180.0261533424624929
  0
LINE
  5
1EE79
  8
0
 10
277.1993354494126152
 20
59.1930002766154431
 30
0.0
 11
280.5024853405126919
 21
59.1930002766154715
 31
0.0
  0
ARC
  5
1EE7A
  8
0
 10
280.5024853389987243
 20
59.3504805932545381
 30
0.0
 40
0.1574803166390666
 50
270.0000005508243817
 51
351.4414664156849994
  0
LINE
  5
1EE7B
  8
0
 10
280.658212009104318
 20
59.3270444172322726
 30
0.0
 11
280.7328391810154926
 21
59.8229205905400292
 31
0.0
  0
LINE
  5
1EE7C
  8
0
 10
281.9479219642174144
 20
59.8229205905204466
 30
0.0
 11
276.9689816093126069
 21
59.8229205906006811
 31
0.0
  0
LINE
  5
1EE7D
  8
0
 10
280.0989418910126005
 20
59.1142241504214567
 30
0.0
 11
277.6028788989127065
 21
59.1142241504214567
 31
0.0
  0
LINE
  5
1EE7E
  8
0
 10
277.7091781115125855
 20
62.1063851576006698
 30
0.0
 11
278.7721702374125812
 21
62.1063851576006698
 31
0.0
  0
LINE
  5
1EE7F
  8
0
 10
278.7721702374125812
 20
62.1063851576006698
 30
0.0
 11
278.7721702374125812
 21
61.9882749213006505
 31
0.0
  0
LINE
  5
1EE80
  8
0
 10
278.7721702374125812
 20
61.9882749213006505
 30
0.0
 11
278.692048720612604
 21
61.9882749213006505
 31
0.0
  0
LINE
  5
1EE81
  8
0
 10
278.692048720612604
 20
61.9882749213006505
 30
0.0
 11
277.8348631508126232
 21
61.0021957227006482
 31
0.0
  0
LINE
  5
1EE82
  8
0
 10
277.8348631508126232
 20
61.0021957227006482
 30
0.0
 11
277.8348631508126232
 21
60.173314291400672
 31
0.0
  0
LINE
  5
1EE83
  8
0
 10
277.8348631508126232
 20
60.173314291400672
 30
0.0
 11
277.7167529146125844
 21
60.173314291400672
 31
0.0
  0
LINE
  5
1EE84
  8
0
 10
277.8348631508126232
 20
60.4922119292006428
 30
0.0
 11
277.9926426785125955
 21
60.4922119292006428
 31
0.0
  0
LINE
  5
1EE85
  8
0
 10
278.0910678753126035
 20
60.4922119292006428
 30
0.0
 11
280.924087819069598
 21
60.4922119292006997
 31
0.0
  0
ARC
  5
1EE86
  8
0
 10
280.9240967972929184
 20
60.8094488285094883
 30
0.0
 40
0.3172368994358315
 50
269.9983784537496945
 51
324.9272998799261245
  0
ARC
  5
1EE87
  8
0
 10
280.9279051091896804
 20
73.3519109321505738
 30
0.0
 40
0.2263990866653931
 50
300.8787592000845734
 51
357.3386168407951118
  0
LINE
  5
1EE88
  8
0
 10
276.0778434404126074
 20
72.1457552363006442
 30
0.0
 11
276.3202537889101791
 21
60.8003834062923971
 31
0.0
  0
ARC
  5
1EE89
  8
0
 10
276.8412465616247005
 20
75.7603469693253686
 30
0.0
 40
0.3149606289288567
 50
108.9879248892816008
 51
147.1208715473823077
  0
LINE
  5
1EE8A
  8
0
 10
281.0512399012545757
 20
72.7484637284681952
 30
0.0
 11
281.0998867729126118
 21
72.736289170100676
 31
0.0
  0
LINE
  5
1EE8B
  8
0
 10
281.0998867729126118
 20
72.736289170100676
 30
0.0
 11
281.0998867729126118
 21
72.7288509129006826
 31
0.0
  0
LINE
  5
1EE8C
  8
0
 10
276.7320176917125991
 20
76.0556225591006694
 30
0.0
 11
276.3914692522125733
 21
76.0556225591006694
 31
0.0
  0
ARC
  5
1EE8D
  8
0
 10
276.391660435546612
 20
76.0157912975936512
 30
0.0
 40
0.0398317203282465
 50
90.275007961410779
 51
179.4359821263651042
  0
ARC
  5
1EE8E
  8
0
 10
-10895.1146960602691252
 20
73.4091981628498189
 30
0.0
 40
11171.4668308897998941
 50
359.9955430927777229
 51
0.0133706033935896
  0
ARC
  5
1EE8F
  8
0
 10
276.8411857012711152
 20
75.7603655055140592
 30
0.0
 40
0.3148994550989116
 50
147.1176924988203893
 51
179.0031790057857108
  0
LINE
  5
1EE90
  8
0
 10
276.5263339024421043
 20
75.7658437895254337
 30
0.0
 11
276.4641831376749792
 21
72.2052288656006738
 31
0.0
  0
LINE
  5
1EE91
  8
0
 10
276.4647329033717256
 20
72.236724921300663
 30
0.0
 11
276.3547964305852815
 21
72.236724776700882
 31
0.0
  0
ARC
  5
1EE92
  8
0
 10
276.3550770141042108
 20
72.2527015239718224
 30
0.0
 40
0.015979210883854
 50
180.8026927139027862
 51
268.9938753674376812
  0
LINE
  5
1EE93
  8
0
 10
276.3390993713126136
 20
72.2524776684506804
 30
0.0
 11
276.3390100306125987
 21
72.4970765271006741
 31
0.0
  0
ARC
  5
1EE94
  8
0
 10
276.4516046668039166
 20
72.4971176518393321
 30
0.0
 40
0.1125946437015446
 50
168.6551126352352128
 51
180.020927052419097
  0
ARC
  5
1EE95
  8
0
 10
276.3827991916461997
 20
72.5109224079737658
 30
0.0
 40
0.0424179759009166
 50
136.3613423517431045
 51
168.6551126352352128
  0
ARC
  5
1EE96
  8
0
 10
276.3766931758119085
 20
72.5167449490676148
 30
0.0
 40
0.0339808309953709
 50
100.1271262212411983
 51
136.3613423517431045
  0
ARC
  5
1EE97
  8
0
 10
276.3895058345869984
 20
72.4450118179932048
 30
0.0
 40
0.1068492488361688
 50
93.2844990012096247
 51
100.1271262212411983
  0
LINE
  5
1EE98
  8
0
 10
276.3833840212034829
 20
72.5516855513006789
 30
0.0
 11
276.4702305616212925
 21
72.5516855513006789
 31
0.0
  0
ARC
  5
1EE99
  8
0
 10
277.348932421777306
 20
74.6313189568949156
 30
0.0
 40
0.0257114974141595
 50
85.5835820331213739
 51
184.9120731216027878
  0
LINE
  5
1EE9A
  8
0
 10
277.3233153556125785
 20
74.6291173619291044
 30
0.0
 11
277.3233155812138762
 21
74.4303455136350891
 31
0.0
  0
LINE
  5
1EE9B
  8
0
 10
277.3233155812138762
 20
74.4303455136350891
 30
0.0
 11
277.7168041539126193
 21
74.4234770126006708
 31
0.0
  0
ARC
  5
1EE9C
  8
0
 10
277.7563941066995881
 20
74.5595405309742461
 30
0.0
 40
0.0393891155156165
 50
90.0114695766760491
 51
179.9636739404481034
  0
LINE
  5
1EE9D
  8
0
 10
277.7170049991005953
 20
74.5595655040398384
 30
0.0
 11
277.7170161430137227
 21
73.0634962816410223
 31
0.0
  0
ARC
  5
1EE9E
  8
0
 10
277.7563862218833037
 20
73.0634965749714098
 30
0.0
 40
0.039370078870759
 50
180.0004268874606908
 51
269.9999997514929078
  0
ARC
  5
1EE9F
  8
0
 10
277.4390641882620798
 20
73.0804782034185791
 30
0.0
 40
0.0563560765008746
 50
255.1616348203075972
 51
270.7134608980452981
  0
ARC
  5
1EEA0
  8
0
 10
277.4310315104323763
 20
73.0501579582614795
 30
0.0
 40
0.0249898338266088
 50
235.5718102909391973
 51
255.1616348203075972
  0
ARC
  5
1EEA1
  8
0
 10
277.4455452153542865
 20
73.0713323340016103
 30
0.0
 40
0.0506608645527502
 50
188.3419415250137945
 51
235.5718102909391973
  0
ARC
  5
1EEA2
  8
0
 10
277.3491371528264722
 20
72.9898436170398668
 30
0.0
 40
0.0259017688093568
 50
175.4964747455557017
 51
275.0079078529035996
  0
LINE
  5
1EEA3
  8
0
 10
277.3233153556125785
 20
72.9918774351476429
 30
0.0
 11
277.323306617741423
 21
73.190649173003024
 31
0.0
  0
LINE
  5
1EEA4
  8
0
 10
277.323306617741423
 20
73.1906491729985049
 30
0.0
 11
277.7168411498125806
 21
73.1975184792006814
 31
0.0
  0
LINE
  5
1EEA5
  8
0
 10
277.3232353840172095
 20
72.9898436170398668
 30
0.0
 11
277.3954203502125893
 21
73.0639824298006744
 31
0.0
  0
LINE
  5
1EEA6
  8
0
 10
277.3954203502125893
 20
73.0639824298006744
 30
0.0
 11
277.7170161430199755
 21
73.063495810799381
 31
0.0
  0
LINE
  5
1EEA7
  8
0
 10
277.4169029357727823
 20
73.0295454578608201
 30
0.0
 11
277.3513982019655941
 21
72.9640407241578686
 31
0.0
  0
ARC
  5
1EEA8
  8
0
 10
277.3799484005280078
 20
73.1902860543735585
 30
0.0
 40
0.0566342105998208
 50
179.6324828136172016
 51
261.1546491252410078
  0
ARC
  5
1EEA9
  8
0
 10
277.3881926868426717
 20
73.3539989798433822
 30
0.0
 40
0.2203267609147421
 50
265.5870736947501882
 51
272.8072449436230045
  0
LINE
  5
1EEAA
  8
0
 10
277.398983424950984
 20
73.1339366215304238
 30
0.0
 11
277.7170161430125859
 21
73.1394879032181109
 31
0.0
  0
LINE
  5
1EEAB
  8
0
 10
277.7170161430125859
 20
74.4835682386006823
 30
0.0
 11
277.3823704122125946
 21
74.4894007288006748
 31
0.0
  0
ARC
  5
1EEAC
  8
0
 10
277.3813713408487729
 20
74.4313449626653068
 30
0.0
 40
0.0580643619198033
 50
89.0141044254638274
 51
180.9862682973794961
  0
LINE
  5
1EEAD
  8
0
 10
277.350912328642778
 20
74.6569541098705258
 30
0.0
 11
277.4140682532125766
 21
74.5937981853006704
 31
0.0
  0
LINE
  5
1EEAE
  8
0
 10
277.3233153556361117
 20
74.6291173617747603
 30
0.0
 11
277.3923872955126058
 21
74.5600454219006821
 31
0.0
  0
LINE
  5
1EEAF
  8
0
 10
277.3923872955126058
 20
74.5600454219006821
 30
0.0
 11
277.7170161430125859
 21
74.559559566997649
 31
0.0
  0
ARC
  5
1EEB0
  8
0
 10
277.4338723905183883
 20
74.558737008828146
 30
0.0
 40
0.0402677283946286
 50
86.5003708011057171
 51
119.4597247351129994
  0
ARC
  5
1EEB1
  8
0
 10
277.448455553175279
 20
74.5478699139025878
 30
0.0
 40
0.0573750164473929
 50
126.8228398501853036
 51
167.7481497987398882
  0
ARC
  5
1EEB2
  8
0
 10
276.6353255398800002
 20
60.8072234338668878
 30
0.0
 40
0.3151459887677523
 50
181.2436632603009912
 51
234.3352764855870021
  0
ARC
  5
1EEB3
  8
0
 10
276.2056743651081092
 20
60.2858341416154104
 30
0.0
 40
0.3617762884506313
 50
0.2959315709324907
 51
47.1779030406426685
  0
LINE
  5
1EEB4
  8
0
 10
276.5674458280125805
 20
60.2877027007006774
 30
0.0
 11
276.5674458280125805
 21
60.0197709843006706
 31
0.0
  0
LINE
  5
1EEB5
  8
0
 10
276.9689816093126069
 20
59.8229205906006811
 30
0.0
 11
277.0436087808125762
 21
59.3270444173006695
 31
0.0
  0
ARC
  5
1EEB6
  8
0
 10
277.1993354508704215
 20
59.3504805931870223
 30
0.0
 40
0.1574803165715609
 50
188.5585335380025924
 51
269.9999994695962755
  0
ARC
  5
1EEB7
  8
0
 10
277.5241387427531095
 20
59.1142601204559099
 30
0.0
 40
0.0787401561595331
 50
359.9999995959772718
 51
90.0000009753988763
  0
LINE
  5
1EEB8
  8
0
 10
277.6028788989125928
 20
59.1142601199006776
 30
0.0
 11
277.6028788989125928
 21
59.0500599161006718
 31
0.0
  0
ARC
  5
1EEB9
  8
0
 10
277.4847686627126109
 20
59.0500599161007074
 30
0.0
 40
0.1181102362000352
 50
270.0000000000227942
 51
359.9999999999852776
  0
LINE
  5
1EEBA
  8
0
 10
277.4847686627126109
 20
58.9319496799006686
 30
0.0
 11
276.6552957688126071
 21
58.9319496799003275
 31
0.0
  0
LINE
  5
1EEBB
  8
0
 10
276.1878090057475106
 20
59.0795874919410124
 30
0.0
 11
276.2792744614995968
 21
59.0795874582603489
 31
0.0
  0
ARC
  5
1EEBC
  8
0
 10
276.2790747175798174
 20
58.882549369669313
 30
0.0
 40
0.1970381898344664
 50
14.5197903199485605
 51
89.9419174244652027
  0
LINE
  5
1EEBD
  8
0
 10
276.4698197243355935
 20
58.9319496799006686
 30
0.0
 11
276.5371855326126251
 21
58.9319496799006686
 31
0.0
  0
LINE
  5
1EEBE
  8
0
 10
276.4698197243503728
 20
58.9319496798438109
 30
0.0
 11
276.4698197243616278
 21
56.8847055854006811
 31
0.0
  0
ARC
  5
1EEBF
  8
0
 10
276.2790747016231876
 20
56.9341058937489635
 30
0.0
 40
0.1970382048344095
 50
270.0580661329221925
 51
345.4802113753240178
  0
LINE
  5
1EEC0
  8
0
 10
276.1879241148125743
 20
56.7370677901006815
 30
0.0
 11
276.2792743890125848
 21
56.7370677901006815
 31
0.0
  0
LINE
  5
1EEC1
  8
0
 10
276.4698197243504865
 20
56.8847055853578709
 30
0.0
 11
276.5371855326126251
 21
56.8847055853578709
 31
0.0
  0
LINE
  5
1EEC2
  8
0
 10
276.6552957688126071
 20
56.0579339318006831
 30
0.0
 11
276.5371855326126251
 21
56.0579339318006831
 31
0.0
  0
LINE
  5
1EEC3
  8
0
 10
276.5371855326126251
 20
56.0579339318006831
 30
0.0
 11
276.5371855326126251
 21
59.1595172256006805
 31
0.0
  0
LINE
  5
1EEC4
  8
0
 10
276.5371855326126251
 20
59.1595172256006805
 30
0.0
 11
276.6552957688126071
 21
59.1595393912006671
 31
0.0
  0
LINE
  5
1EEC5
  8
0
 10
276.6552957688126071
 20
59.1595393912006671
 30
0.0
 11
276.6552957688126071
 21
56.0579339318006831
 31
0.0
  0
ARC
  5
1EEC6
  8
0
 10
277.9327037231220743
 20
59.0550760562827293
 30
0.0
 40
2.1703706508439979
 50
270.0233324857088064
 51
282.0097573311908263
  0
LINE
  5
1EEC7
  8
0
 10
276.6552957688126071
 20
56.8847055854006811
 30
0.0
 11
277.9335875603745762
 21
56.8847055854006811
 31
0.0
  0
LINE
  5
1EEC8
  8
0
 10
277.7091781115125855
 20
62.1063851576006698
 30
0.0
 11
277.716752914712572
 21
60.1733142914007075
 31
0.0
  0
ARC
  5
1EEC9
  8
0
 10
276.63519317140981
 20
60.8075296515295918
 30
0.0
 40
0.3153177265747156
 50
234.3872594102946039
 51
269.9905974975750951
  0
LINE
  5
1EECA
  8
0
 10
276.6351414263126003
 20
60.4922119292006784
 30
0.0
 11
277.715503293597294
 21
60.4920668104556967
 31
0.0
  0
LINE
  5
1EECC
  8
0
 10
277.9926066942126113
 20
74.6776698105006744
 30
0.0
 11
278.0910318911126069
 21
74.6776698105006744
 31
0.0
  0
LINE
  5
1EECD
  8
0
 10
278.0910318911126069
 20
74.6776698105006744
 30
0.0
 11
278.0910318911126069
 21
72.8863312278006816
 31
0.0
  0
ARC
  5
1EECE
  8
0
 10
278.2485122061125935
 20
72.8863312278006816
 30
0.0
 40
0.1574803150000008
 50
180.0
 51
270.0000000498988015
  0
LINE
  5
1EECF
  8
0
 10
278.2485122062498135
 20
72.7288509128006808
 30
0.0
 11
281.8115043320125892
 21
72.7288509159036636
 31
0.0
  0
ARC
  5
1EED0
  8
0
 10
281.8115043322354722
 20
72.472945404326552
 30
0.0
 40
0.2559055115771329
 50
359.9999992553588868
 51
90.0000000498987731
  0
LINE
  5
1EED1
  8
0
 10
282.0674098438125839
 20
72.4729454010006862
 30
0.0
 11
282.0674098287183256
 21
71.3115280782006806
 31
0.0
  0
LINE
  5
1EED2
  8
0
 10
282.0674098287183256
 20
71.3115280782006806
 30
0.0
 11
281.9689846470125758
 21
71.3115280782006806
 31
0.0
  0
LINE
  5
1EED3
  8
0
 10
281.9689846470125758
 20
71.3115280782006806
 30
0.0
 11
281.9689846470125758
 21
72.4729454010006862
 31
0.0
  0
ARC
  5
1EED4
  8
0
 10
281.8115043320125892
 20
72.4729454010006862
 30
0.0
 40
0.1574803150000008
 50
359.9999999999992042
 51
89.9999980353279341
  0
LINE
  5
1EED5
  8
0
 10
281.8115043374126003
 20
72.630425716000687
 30
0.0
 11
278.2486665899209015
 21
72.6304258381703249
 31
0.0
  0
ARC
  5
1EED6
  8
0
 10
278.2486665987016181
 20
72.8864960030331162
 30
0.0
 40
0.2560701648627932
 50
183.6983464453701913
 51
269.9999980353279057
  0
ARC
  5
1EED7
  8
0
 10
278.2828035978928938
 20
72.7348294240937321
 30
0.0
 40
0.2225657849096751
 50
185.9363450402339026
 51
268.763335371273115
  0
LINE
  5
1EED8
  8
0
 10
278.2780001400125798
 20
72.5123154798006908
 30
0.0
 11
281.9478861628211916
 21
72.5123151547165747
 31
0.0
  0
ARC
  5
1EED9
  8
0
 10
281.9477657958088912
 20
72.4921286441375656
 30
0.0
 40
0.0201871934134531
 50
18.812140427219969
 51
89.658893244193834
  0
LINE
  5
1EEDA
  8
0
 10
276.5674458280125805
 20
60.0197709843006706
 30
0.0
 11
278.0638861525052903
 21
60.0197709916056894
 31
0.0
  0
LINE
  5
1EEDB
  8
0
 10
277.9926426785125955
 20
61.1837003066686123
 30
0.0
 11
277.9926426785125955
 21
60.1969363459006885
 31
0.0
  0
ARC
  5
1EEDC
  8
0
 10
278.2485482368531962
 20
60.1969363459006885
 30
0.0
 40
0.2559055583406007
 50
179.9999999999992042
 51
270.034555227422004
  0
LINE
  5
1EEDD
  8
0
 10
278.2487025741239108
 20
59.9410308341006868
 30
0.0
 11
281.8115396737525202
 21
59.9410308341006868
 31
0.0
  0
ARC
  5
1EEDE
  8
0
 10
281.8115403163102997
 20
59.783550519099748
 30
0.0
 40
0.1574803150022403
 50
0.0000000003387164
 51
90.0002337806806167
  0
LINE
  5
1EEDF
  8
0
 10
281.9690206313126168
 20
59.7835505191006789
 30
0.0
 11
281.9690206313194949
 21
58.6221331963006804
 31
0.0
  0
LINE
  5
1EEE0
  8
0
 10
281.9690206313194949
 20
58.6221331963006804
 30
0.0
 11
282.0674458281126249
 21
58.6221331963006804
 31
0.0
  0
LINE
  5
1EEE1
  8
0
 10
282.0674458281126249
 20
58.6221331963006804
 30
0.0
 11
282.0674458281126249
 21
59.7835505191006789
 31
0.0
  0
ARC
  5
1EEE2
  8
0
 10
281.8115403163125734
 20
59.7835505191006789
 30
0.0
 40
0.2559055118000018
 50
359.9999999999992042
 51
90.0
  0
LINE
  5
1EEE3
  8
0
 10
281.8115403163125734
 20
60.0394560309006877
 30
0.0
 11
278.2485481904496964
 21
60.0394560309006877
 31
0.0
  0
ARC
  5
1EEE4
  8
0
 10
278.2485481904496964
 20
60.1969363460378375
 30
0.0
 40
0.1574803151371538
 50
180.0000000499003932
 51
270.0
  0
LINE
  5
1EEE5
  8
0
 10
278.0910678753126035
 20
60.1969363459006885
 30
0.0
 11
278.0910678743546214
 21
61.2969255496251293
 31
0.0
  0
ARC
  5
1EEE6
  8
0
 10
278.2831187617501882
 20
60.0447921614476527
 30
0.0
 40
0.2227297899241551
 50
186.4501476631832872
 51
264.9686201824114278
  0
LINE
  5
1EEE7
  8
0
 10
276.9767084110051769
 20
60.019770986298532
 30
0.0
 11
276.9801410475125749
 21
59.8231153866006906
 31
0.0
  0
ARC
  5
1EEE8
  8
0
 10
281.9477568341692972
 20
59.8021855353102367
 30
0.0
 40
0.0207357236362869
 50
24.2559506689965083
 51
89.5424957536037738
  0
LINE
  5
1EEE9
  8
0
 10
281.181904843912605
 20
72.2052288656006738
 30
0.0
 11
276.3430003950126093
 21
72.2052288656006738
 31
0.0
  0
LINE
  5
1EEEA
  8
0
 10
281.181904843912605
 20
72.2052288656006738
 30
0.0
 11
281.181904843912605
 21
72.1457552436006893
 31
0.0
  0
LINE
  5
1EEEB
  8
0
 10
276.3430003950126093
 20
72.2052288656006738
 30
0.0
 11
276.3430003950126093
 21
72.1457552436006893
 31
0.0
  0
ENDSEC
  0
EOF
