  0
SECTION
  2
HEADER
  9
$ACADVER
  1
AC1009
  9
$INSBASE
 10
3472.9448153596840712
 20
143.8977270881071036
 30
0.0
  9
$EXTMIN
 10
3469.5078074856828607
 20
140.3544200015369086
 30
0.0
  9
$EXTMAX
 10
3472.9564758957671984
 20
147.4410341746772986
 30
0.0
  9
$LIMMIN
 10
0.0
 20
0.0
  9
$LIMMAX
 10
11.6929133858000007
 20
8.2677165353999982
  9
$ORTHOMODE
 70
     0
  9
$REGENMODE
 70
     1
  9
$FILLMODE
 70
     1
  9
$QTEXTMODE
 70
     0
  9
$MIRRTEXT
 70
     0
  9
$DRAGMODE
 70
     2
  9
$LTSCALE
 40
0.6431102362
  9
$OSMODE
 70
  4095
  9
$ATTMODE
 70
     1
  9
$TEXTSIZE
 40
0.2
  9
$TRACEWID
 40
0.05
  9
$TEXTSTYLE
  7
STANDARD
  9
$CLAYER
  8
0
  9
$CELTYPE
  6
BYLAYER
  9
$CECOLOR
 62
   256
  9
$DIMSCALE
 40
1.0
  9
$DIMASZ
 40
0.1875
  9
$DIMEXO
 40
0.0625
  9
$DIMDLI
 40
0.4443307087
  9
$DIMRND
 40
0.0
  9
$DIMDLE
 40
0.0
  9
$DIMEXE
 40
0.125
  9
$DIMTP
 40
0.01
  9
$DIMTM
 40
0.01
  9
$DIMTXT
 40
2.0
  9
$DIMCEN
 40
0.1052362205
  9
$DIMTSZ
 40
0.0
  9
$DIMTOL
 70
     1
  9
$DIMLIM
 70
     0
  9
$DIMTIH
 70
     1
  9
$DIMTOH
 70
     1
  9
$DIMSE1
 70
     0
  9
$DIMSE2
 70
     0
  9
$DIMTAD
 70
     0
  9
$DIMZIN
 70
     0
  9
$DIMBLK
  1

  9
$DIMASO
 70
     1
  9
$DIMSHO
 70
     1
  9
$DIMPOST
  1
\X
  9
$DIMAPOST
  1

  9
$DIMALT
 70
     1
  9
$DIMALTD
 70
     2
  9
$DIMALTF
 40
25.3999999999999986
  9
$DIMLFAC
 40
1.0
  9
$DIMTOFL
 70
     0
  9
$DIMTVP
 40
0.0
  9
$DIMTIX
 70
     0
  9
$DIMSOXD
 70
     0
  9
$DIMSAH
 70
     0
  9
$DIMBLK1
  1

  9
$DIMBLK2
  1

  9
$DIMSTYLE
  2
STANDARD
  9
$DIMCLRD
 70
     0
  9
$DIMCLRE
 70
     0
  9
$DIMCLRT
 70
     0
  9
$DIMTFAC
 40
1.0
  9
$DIMGAP
 40
0.09
  9
$LUNITS
 70
     2
  9
$LUPREC
 70
     4
  9
$SKETCHINC
 40
0.1
  9
$FILLETRAD
 40
0.0
  9
$AUNITS
 70
     0
  9
$AUPREC
 70
     0
  9
$MENU
  1
.
  9
$ELEVATION
 40
0.0
  9
$PELEVATION
 40
0.0
  9
$THICKNESS
 40
0.0
  9
$LIMCHECK
 70
     0
  9
$BLIPMODE
 70
     0
  9
$CHAMFERA
 40
0.0
  9
$CHAMFERB
 40
0.0
  9
$SKPOLY
 70
     0
  9
$TDCREATE
 40
2458060.468368056230247
  9
$TDUPDATE
 40
2459100.8570370371453464
  9
$TDINDWG
 40
0.5706204861
  9
$TDUSRTIMER
 40
0.5706204861
  9
$USRTIMER
 70
     1
  9
$ANGBASE
 50
0.0
  9
$ANGDIR
 70
     0
  9
$PDMODE
 70
     0
  9
$PDSIZE
 40
0.3125
  9
$PLINEWID
 40
0.0
  9
$COORDS
 70
     1
  9
$SPLFRAME
 70
     0
  9
$SPLINETYPE
 70
     6
  9
$SPLINESEGS
 70
     8
  9
$ATTDIA
 70
     1
  9
$ATTREQ
 70
     1
  9
$HANDLING
 70
     1
  9
$HANDSEED
  5
1732D
  9
$SURFTAB1
 70
     6
  9
$SURFTAB2
 70
     6
  9
$SURFTYPE
 70
     6
  9
$SURFU
 70
     6
  9
$SURFV
 70
     6
  9
$UCSNAME
  2

  9
$UCSORG
 10
0.0
 20
0.0
 30
0.0
  9
$UCSXDIR
 10
1.0
 20
0.0
 30
0.0
  9
$UCSYDIR
 10
0.0
 20
1.0
 30
0.0
  9
$PUCSNAME
  2

  9
$PUCSORG
 10
0.0
 20
0.0
 30
0.0
  9
$PUCSXDIR
 10
1.0
 20
0.0
 30
0.0
  9
$PUCSYDIR
 10
0.0
 20
1.0
 30
0.0
  9
$USERI1
 70
     0
  9
$USERI2
 70
     0
  9
$USERI3
 70
     0
  9
$USERI4
 70
     0
  9
$USERI5
 70
     0
  9
$USERR1
 40
0.0
  9
$USERR2
 40
0.0
  9
$USERR3
 40
0.0
  9
$USERR4
 40
0.0
  9
$USERR5
 40
0.0
  9
$WORLDVIEW
 70
     1
  9
$SHADEDGE
 70
     3
  9
$SHADEDIF
 70
    70
  9
$TILEMODE
 70
     1
  9
$MAXACTVP
 70
    64
  9
$PLIMCHECK
 70
     0
  9
$PEXTMIN
 10
1.0000000000000000E+20
 20
1.0000000000000000E+20
 30
1.0000000000000000E+20
  9
$PEXTMAX
 10
-1.0000000000000000E+20
 20
-1.0000000000000000E+20
 30
-1.0000000000000000E+20
  9
$PLIMMIN
 10
0.0
 20
0.0
  9
$PLIMMAX
 10
12.0
 20
9.0
  9
$UNITMODE
 70
     0
  9
$VISRETAIN
 70
     1
  9
$PLINEGEN
 70
     0
  9
$PSLTSCALE
 70
     1
  0
ENDSEC
  0
SECTION
  2
TABLES
  0
TABLE
  2
VPORT
 70
     1
  0
VPORT
  2
*ACTIVE
 70
     0
 10
0.0
 20
0.0
 11
1.0
 21
1.0
 12
167.5390264563500011
 22
-51.3637844877806415
 13
0.0
 23
0.0
 14
1.0
 24
1.0
 15
0.0
 25
0.0
 16
0.0
 26
0.0
 36
96.5995694866707311
 17
3303.693115234375
 27
195.2615115758877096
 37
0.0
 40
7.1455873840126278
 41
2.6486111111111108
 42
50.0
 43
0.0
 44
0.0
 50
0.0
 51
0.0
 71
     0
 72
   100
 73
     1
 74
     1
 75
     0
 76
     0
 77
     0
 78
     0
  0
ENDTAB
  0
TABLE
  2
LTYPE
 70
     2
  0
LTYPE
  2
CONTINUOUS
 70
     0
  3
Solid line
 72
    65
 73
     0
 40
0.0
  0
LTYPE
  2
PHANTOM2
 70
     0
  3
___ _ _ ___ _ _ ___ _ _ ___ _ _
 72
    65
 73
     6
 40
1.25
 49
0.625
 49
-0.125
 49
0.125
 49
-0.125
 49
0.125
 49
-0.125
  0
ENDTAB
  0
TABLE
  2
LAYER
 70
     2
  0
LAYER
  2
0
 70
     0
 62
   255
  6
CONTINUOUS
  0
LAYER
  2
DEFPOINTS
 70
     0
 62
     7
  6
CONTINUOUS
  0
ENDTAB
  0
TABLE
  2
STYLE
 70
     1
  0
STYLE
  2
STANDARD
 70
     0
 40
0.0
 41
0.8
 50
0.0
 71
     0
 42
0.2
  3
txt
  4

  0
ENDTAB
  0
TABLE
  2
VIEW
 70
     0
  0
ENDTAB
  0
TABLE
  2
UCS
 70
     0
  0
ENDTAB
  0
TABLE
  2
APPID
 70
     9
  0
APPID
  2
ACAD
 70
     0
  0
APPID
  2
ACAD_MLEADERVER
 70
     0
  0
APPID
  2
ACAD_EXEMPT_FROM_CAD_STANDARDS
 70
     0
  0
APPID
  2
ACAD_NAV_VCDISPLAY
 70
     0
  0
APPID
  2
ACAECLAYERSTANDARD
 70
     0
  0
APPID
  2
ACCMTRANSPARENCY
 70
     0
  0
APPID
  2
ACAD_DSTYLE_DIMJAG
 70
     0
  0
APPID
  2
ACAD_DSTYLE_DIMTALN
 70
     0
  0
APPID
  2
ACDBATTR
 70
     0
  0
ENDTAB
  0
TABLE
  2
DIMSTYLE
 70
     1
  0
DIMSTYLE
  2
STANDARD
 70
     0
  3

  4

  5

  6

  7

 40
1.0
 41
0.1875
 42
0.0625
 43
0.38
 44
0.125
 45
0.0
 46
0.0
 47
0.01
 48
0.01
140
0.15625
141
0.09
142
0.0
143
25.3999999999999986
144
1.0
145
0.0
146
1.0
147
0.09
 71
     1
 72
     0
 73
     1
 74
     1
 75
     0
 76
     0
 77
     0
 78
     4
170
     0
171
     2
172
     0
173
     0
174
     0
175
     0
176
     0
177
     0
178
     0
  0
ENDTAB
  0
ENDSEC
  0
SECTION
  2
BLOCKS
  0
BLOCK
  8
0
  2
$MODEL_SPACE
 70
     0
 10
0.0
 20
0.0
 30
0.0
  3
$MODEL_SPACE
  1

  0
ENDBLK
  5
21
  8
0
  0
BLOCK
 67
     1
  8
0
  2
$PAPER_SPACE
 70
     0
 10
0.0
 20
0.0
 30
0.0
  3
$PAPER_SPACE
  1

  0
ENDBLK
  5
1D
 67
     1
  8
0
  0
BLOCK
  8
0
  2
_FILLED
 70
     0
 10
0.0
 20
0.0
 30
0.0
  3
_FILLED
  1

  0
SOLID
  5
9E2C
  8
0
  6
BYBLOCK
 62
     0
 10
0.0
 20
0.0
 30
0.0
 11
-1.0
 21
0.1666666667
 31
0.0
 12
-1.0
 22
-0.1666666667
 32
0.0
 13
-1.0
 23
-0.1666666667
 33
0.0
  0
ENDBLK
  5
9E2D
  8
0
  6
BYBLOCK
 62
     0
  0
BLOCK
  8
0
  2
A$C6B0F1CD5
 70
     2
 10
0.0
 20
0.0
 30
0.0
  3
A$C6B0F1CD5
  1

  0
ATTDEF
  5
B779
  8
DEFPOINTS
 10
0.0005209962714616
 20
0.000347009907216
 30
0.0
 40
0.001
  1
BATH FAUCET
  3

  2
PRODUCT
 70
     0
1001
ACDBATTR
1070
     0
1070
     1
  0
ATTDEF
  5
B77A
  8
DEFPOINTS
 10
0.0005209962714616
 20
0.0020136765738812
 30
0.0
 40
0.001
  1
SINGULIER
  3

  2
TRADENAME
 70
     0
1001
ACDBATTR
1070
     0
1070
     1
  0
ATTDEF
  5
B77B
  8
DEFPOINTS
 10
0.0005209962714616
 20
0.0036803432405463
 30
0.0
 40
0.001
  1
K-10873W
  3

  2
MODELNUMBER
 70
     0
1001
ACDBATTR
1070
     0
1070
     1
  0
ENDBLK
  5
B77F
  8
0
  0
ENDSEC
  0
SECTION
  2
ENTITIES
  0
ATTDEF
  5
14FC8
  8
DEFPOINTS
 10
3472.9458092290988134
 20
143.9015767912437127
 30
0.0
 40
0.001
  1
K-78019IN-4A
  3

  2
MODELNUMBER
 70
     0
1001
ACDBATTR
1070
     0
1070
     1
  0
ATTDEF
  5
14FC9
  8
DEFPOINTS
 10
3472.9458092290988134
 20
143.8999101245769907
 30
0.0
 40
0.001
  1
COMPONENTS
  3

  2
TRADENAME
 70
     0
1001
ACDBATTR
1070
     0
1070
     1
  0
ATTDEF
  5
14FCA
  8
DEFPOINTS
 10
3472.9458092290988134
 20
143.8982434579102971
 30
0.0
 40
0.001
  1
VALVE TRIM
  3

  2
PRODUCT
 70
     0
1001
ACDBATTR
1070
     0
1070
     1
  0
LINE
  5
169F0
  8
0
 10
3472.9448153596858901
 20
140.3544200015369086
 30
0.0
 11
3472.9448153596808879
 21
147.4410341746772986
 31
0.0
  0
LINE
  5
169F1
  8
0
 10
3472.3936342572828835
 20
142.8839475604773952
 30
0.0
 11
3471.732216934482949
 21
142.8839475604773952
 31
0.0
  0
LINE
  5
169F2
  8
0
 10
3471.732216934482949
 20
142.8839475604773952
 30
0.0
 11
3471.7125318950829751
 21
142.8642625210773076
 31
0.0
  0
LINE
  5
169F3
  8
0
 10
3471.7125318950829751
 20
142.8642625210773076
 30
0.0
 11
3471.7125318950829751
 21
141.899695591877304
 31
0.0
  0
LINE
  5
169F4
  8
0
 10
3471.7125318950829751
 20
141.899695591877304
 30
0.0
 11
3471.732216934482949
 21
141.8800105525772892
 31
0.0
  0
LINE
  5
169F5
  8
0
 10
3471.732216934482949
 20
141.8800105525772892
 30
0.0
 11
3472.3936342572828835
 21
141.8800105525772892
 31
0.0
  0
LINE
  5
169F6
  8
0
 10
3471.732216934482949
 20
142.8839475604773952
 30
0.0
 11
3471.732216934482949
 21
141.8800105525772892
 31
0.0
  0
LINE
  5
169F7
  8
0
 10
3472.944815359031054
 20
140.3991660175867935
 30
0.0
 11
3472.8267051234829523
 21
140.4079986880275897
 31
0.0
  0
LINE
  5
169F8
  8
0
 10
3472.8267051234829523
 20
140.4079986880275897
 30
0.0
 11
3472.8267051234829523
 21
140.3726447022276034
 31
0.0
  0
LINE
  5
169F9
  8
0
 10
3472.8267051234829523
 20
140.3726447022276034
 30
0.0
 11
3472.9448153589801223
 21
140.3615985323669975
 31
0.0
  0
LINE
  5
16A15
  8
0
 10
3472.9448153596808879
 20
147.4410341746772986
 30
0.0
 11
3472.4295730075828033
 21
147.3959418123876901
 31
0.0
  0
ARC
  5
16A16
  8
0
 10
3472.4330043360350828
 20
147.3567215487719011
 30
0.0
 40
0.0393700786516548
 50
95.0000000069307475
 51
180.000000064471692
  0
LINE
  5
16A17
  8
0
 10
3472.3936342573838374
 20
147.3567215487275917
 30
0.0
 11
3472.3936342651682025
 21
140.4387326023276046
 31
0.0
  0
LINE
  5
16A18
  8
0
 10
3472.4295730076269137
 20
140.3994833688236952
 30
0.0
 11
3472.9448153596858901
 21
140.3544200015369086
 31
0.0
  0
LINE
  5
16A19
  8
0
 10
3472.3936342590159256
 20
145.905586606268713
 30
0.0
 11
3471.3306421312831844
 21
145.905586606268713
 31
0.0
  0
ARC
  5
16A1A
  8
0
 10
3471.3306174358181124
 20
145.8938002865075987
 30
0.0
 40
0.0117863456327785
 50
89.8799503242561286
 51
180.0987287308502971
  0
LINE
  5
16A1B
  8
0
 10
3471.3188311076842183
 20
145.8937799769772994
 30
0.0
 11
3471.3188311076842183
 21
143.9882789657247031
 31
0.0
  0
ARC
  5
16A1C
  8
0
 10
3471.3306036192079773
 20
143.9882623189780873
 30
0.0
 40
0.0117725232944974
 50
179.9189818005509096
 51
270.1874350333263237
  0
LINE
  5
16A1D
  8
0
 10
3471.3306421312831844
 20
143.9764898586770983
 30
0.0
 11
3472.3936342635352048
 21
143.9764898586770983
 31
0.0
  0
ARC
  5
16A1E
  8
0
 10
3471.3070585961581855
 20
143.9882623189778883
 30
0.0
 40
0.0117725232942984
 50
269.812564965735703
 51
0.0810182004229227
  0
LINE
  5
16A1F
  8
0
 10
3471.3070200840829784
 20
143.9764898586770983
 30
0.0
 11
3470.3070200840838879
 21
143.9764898586770983
 31
0.0
  0
ARC
  5
16A20
  8
0
 10
3470.3069815702019696
 20
143.9882623162054074
 30
0.0
 40
0.0117725205276271
 50
179.9223583222265006
 51
270.1874438684769189
  0
LINE
  5
16A21
  8
0
 10
3470.2952090604831028
 20
143.9882782691773002
 30
0.0
 11
3470.2952090604831028
 21
145.8937900801772969
 31
0.0
  0
ARC
  5
16A22
  8
0
 10
3470.3069953719259502
 20
145.8938003162882069
 30
0.0
 40
0.0117863158872826
 50
89.8798688763173175
 51
180.0497599104658093
  0
LINE
  5
16A23
  8
0
 10
3470.3070200840838879
 20
145.905586606268713
 30
0.0
 11
3471.3070200840829784
 21
145.905586606268713
 31
0.0
  0
ARC
  5
16A24
  8
0
 10
3471.3070447795480504
 20
145.8938002865070871
 30
0.0
 40
0.0117863456332854
 50
359.9012712716103124
 51
90.1200496732425904
  0
LINE
  5
16A25
  8
0
 10
3470.2952090604831028
 20
145.8859160644772999
 30
0.0
 11
3470.2853637616831293
 21
145.8859138434810916
 31
0.0
  0
LINE
  5
16A26
  8
0
 10
3470.2853637616831293
 20
145.8859138434810916
 30
0.0
 11
3470.2853675938090419
 21
143.9994273895939898
 31
0.0
  0
LINE
  5
16A27
  8
0
 10
3470.2853675938090419
 20
143.9994273895939898
 30
0.0
 11
3470.2952090604831028
 21
143.9994273895939898
 31
0.0
  0
ARC
  5
16A28
  8
0
 10
3470.8998149151830148
 20
145.1170174151774006
 30
0.0
 40
0.9842519684999416
 50
128.6295348271387127
 51
133.9698342980479993
  0
LINE
  5
16A29
  8
0
 10
3470.2164689029841611
 20
144.0566794460102074
 30
0.0
 11
3470.2637129974827985
 21
144.0139666270773091
 31
0.0
  0
LINE
  5
16A2A
  8
0
 10
3470.2637129974827985
 20
144.0139666270773091
 30
0.0
 11
3470.2637129974827985
 21
144.0172701888774043
 31
0.0
  0
LINE
  5
16A2B
  8
0
 10
3470.2637129974827985
 20
144.0172701888774043
 30
0.0
 11
3470.2853675938090419
 21
143.9994274206545128
 31
0.0
  0
LINE
  5
16A39
  8
0
 10
3470.2164689029841611
 20
145.9055866055541912
 30
0.0
 11
3470.2164689029841611
 21
143.9764898586770983
 31
0.0
  0
LINE
  5
16A3A
  8
0
 10
3470.2164689029841611
 20
143.9764898586770983
 30
0.0
 11
3469.7843822888839895
 21
143.9764898586770983
 31
0.0
  0
ARC
  5
16A3B
  8
0
 10
3469.6848642440718322
 20
143.0128550555016034
 30
0.0
 40
0.9687599677598953
 50
84.1037607188920617
 51
89.9935784845488058
  0
ARC
  5
16A3C
  8
0
 10
3469.68500269351307
 20
143.0159034583219864
 30
0.0
 40
0.9657115593171399
 50
90.0017724356271458
 51
95.9102211254109704
  0
LINE
  5
16A3D
  8
0
 10
3469.585563391182859
 20
143.9764817429771142
 30
0.0
 11
3469.5463977279841856
 21
143.9764898586770983
 31
0.0
  0
ARC
  5
16A3E
  8
0
 10
3469.5463834315141867
 20
143.9961603514884132
 30
0.0
 40
0.0196704980065679
 50
182.2753917176171115
 51
270.0416424352545732
  0
ARC
  5
16A3F
  8
0
 10
3493.1495397691860489
 20
144.9410486720769882
 30
0.0
 40
23.6417322835022503
 50
177.7075572240009933
 51
182.2924427758003958
  0
ARC
  5
16A40
  8
0
 10
3469.5463467209001465
 20
145.8859535060516066
 30
0.0
 40
0.0196331664755479
 50
89.8511450566734169
 51
177.7685078542536132
  0
LINE
  5
16A41
  8
0
 10
3469.5463977279841856
 20
145.905586606268713
 30
0.0
 11
3470.2164689029841611
 21
145.905586606268713
 31
0.0
  0
LINE
  5
16A42
  8
0
 10
3469.5865476431840762
 20
143.9765831233839037
 30
0.0
 11
3469.5865476431840762
 21
141.6142770185770985
 31
0.0
  0
LINE
  5
16A43
  8
0
 10
3469.7833980368832272
 20
143.976583123299406
 30
0.0
 11
3469.7833980368832272
 21
141.6142770185770985
 31
0.0
  0
ARC
  5
16A44
  8
0
 10
3469.6062574532061262
 20
141.6142872789048113
 30
0.0
 40
0.0197098126929094
 50
180.029826437711705
 51
269.9279925938724887
  0
LINE
  5
16A45
  8
0
 10
3469.6062326825831406
 20
141.5945774817772929
 30
0.0
 11
3469.7637129974841628
 21
141.5945774817772929
 31
0.0
  0
ARC
  5
16A46
  8
0
 10
3469.7636882268611771
 20
141.6142872789048965
 30
0.0
 40
0.0197098126930247
 50
270.0720074064662981
 51
359.9701735619706824
  0
LINE
  5
16A4D
  8
0
 10
3469.5267284429828578
 20
145.8867179650574997
 30
0.0
 11
3469.5267284429828578
 21
143.9953793791966916
 31
0.0
  0
ARC
  5
16A4E
  8
0
 10
3472.4330318261490902
 20
140.438728806776794
 30
0.0
 40
0.0393975611643157
 50
179.9944801395326124
 51
264.9633642346714169
  0
LINE
  5
16A52
  8
0
 10
3471.7125318950829751
 20
142.768194804577405
 30
0.0
 11
3471.3522602681941862
 21
142.7754002370770934
 31
0.0
  0
ARC
  5
16A53
  8
0
 10
3471.3526589597881866
 20
142.7953348168917103
 30
0.0
 40
0.0199385663318304
 50
223.8491908718814898
 51
268.8542371678701102
  0
LINE
  5
16A54
  8
0
 10
3471.3382799265841641
 20
142.7903241089773019
 30
0.0
 11
3471.3382799265841641
 21
141.929569753277292
 31
0.0
  0
ARC
  5
16A55
  8
0
 10
3471.3185899173959115
 20
141.9295718118306979
 30
0.0
 40
0.0196900092949825
 50
269.0147039427587856
 51
359.9940098343353156
  0
LINE
  5
16A56
  8
0
 10
3471.318251331682859
 20
141.9098847138791939
 30
0.0
 11
3471.2236198387840886
 21
141.911539510930794
 31
0.0
  0
ARC
  5
16A57
  8
0
 10
3471.2243082103727829
 20
141.9509048404094926
 30
0.0
 40
0.0393713477089512
 50
180.0018147634528134
 51
268.9981852582999977
  0
LINE
  5
16A58
  8
0
 10
3471.1849368626831165
 20
141.9509035933774044
 30
0.0
 11
3471.1849112532240724
 21
142.7594464167717945
 31
0.0
  0
ARC
  5
16A59
  8
0
 10
3471.318355114859969
 20
142.7594506434188872
 30
0.0
 40
0.1334438617035828
 50
174.0120825894092036
 51
180.0018147634528134
  0
ARC
  5
16A5A
  8
0
 10
3471.2250987919619547
 20
142.7686037896125981
 30
0.0
 40
0.0397464255052741
 50
91.1848353098006612
 51
173.110833959241603
  0
LINE
  5
16A5B
  8
0
 10
3471.224276923187972
 20
142.808341716988906
 30
0.0
 11
3471.3182513365018167
 21
142.8100061975596873
 31
0.0
  0
ARC
  5
16A5C
  8
0
 10
3471.3185948873028792
 20
142.7903241564254131
 30
0.0
 40
0.0196850392809972
 50
359.9998618963007857
 51
90.9996763025794735
  0
ARC
  5
16A5D
  8
0
 10
3471.3579649658468043
 20
141.9689829940332118
 30
0.0
 40
0.0196850392631518
 50
91.1457624402870863
 51
180.0000001626603989
  0
LINE
  5
16A5E
  8
0
 10
3471.35757134391406
 20
141.9886640974719967
 30
0.0
 11
3471.7125318951320878
 21
141.9957633060303124
 31
0.0
  0
ARC
  5
16A5F
  8
0
 10
3471.3382032336407974
 20
142.7620699540563862
 30
0.0
 40
0.0193725032665467
 50
1.219599310328207
 51
43.4797344560387202
  0
LINE
  5
16A60
  8
0
 10
3471.357571348284182
 20
142.762482286477308
 30
0.0
 11
3471.35757134391406
 21
141.9886640974719967
 31
0.0
  0
ENDSEC
  0
EOF
