  0
SECTION
  2
HEADER
  9
$ACADVER
  1
AC1009
  9
$INSBASE
 10
3462.4359135997328849
 20
154.0731156441773066
 30
0.0
  9
$EXTMIN
 10
3458.8589054743970337
 20
150.6264904001263858
 30
-0.0000000349181948
  9
$EXTMAX
 10
3466.0131876227301291
 20
154.0825203818480986
 30
0.0000000814935746
  9
$LIMMIN
 10
0.0
 20
0.0
  9
$LIMMAX
 10
11.6929133858000007
 20
8.2677165353999982
  9
$ORTHOMODE
 70
     0
  9
$REGENMODE
 70
     1
  9
$FILLMODE
 70
     1
  9
$QTEXTMODE
 70
     0
  9
$MIRRTEXT
 70
     0
  9
$DRAGMODE
 70
     2
  9
$LTSCALE
 40
0.6431102362
  9
$OSMODE
 70
  4095
  9
$ATTMODE
 70
     1
  9
$TEXTSIZE
 40
0.2
  9
$TRACEWID
 40
0.05
  9
$TEXTSTYLE
  7
STANDARD
  9
$CLAYER
  8
0
  9
$CELTYPE
  6
BYLAYER
  9
$CECOLOR
 62
   256
  9
$DIMSCALE
 40
1.0
  9
$DIMASZ
 40
0.1875
  9
$DIMEXO
 40
0.0625
  9
$DIMDLI
 40
0.4443307087
  9
$DIMRND
 40
0.0
  9
$DIMDLE
 40
0.0
  9
$DIMEXE
 40
0.125
  9
$DIMTP
 40
0.01
  9
$DIMTM
 40
0.01
  9
$DIMTXT
 40
2.0
  9
$DIMCEN
 40
0.1052362205
  9
$DIMTSZ
 40
0.0
  9
$DIMTOL
 70
     1
  9
$DIMLIM
 70
     0
  9
$DIMTIH
 70
     1
  9
$DIMTOH
 70
     1
  9
$DIMSE1
 70
     0
  9
$DIMSE2
 70
     0
  9
$DIMTAD
 70
     0
  9
$DIMZIN
 70
     0
  9
$DIMBLK
  1

  9
$DIMASO
 70
     1
  9
$DIMSHO
 70
     1
  9
$DIMPOST
  1
\X
  9
$DIMAPOST
  1

  9
$DIMALT
 70
     1
  9
$DIMALTD
 70
     2
  9
$DIMALTF
 40
25.3999999999999986
  9
$DIMLFAC
 40
1.0
  9
$DIMTOFL
 70
     0
  9
$DIMTVP
 40
0.0
  9
$DIMTIX
 70
     0
  9
$DIMSOXD
 70
     0
  9
$DIMSAH
 70
     0
  9
$DIMBLK1
  1

  9
$DIMBLK2
  1

  9
$DIMSTYLE
  2
STANDARD
  9
$DIMCLRD
 70
     0
  9
$DIMCLRE
 70
     0
  9
$DIMCLRT
 70
     0
  9
$DIMTFAC
 40
1.0
  9
$DIMGAP
 40
0.09
  9
$LUNITS
 70
     2
  9
$LUPREC
 70
     4
  9
$SKETCHINC
 40
0.1
  9
$FILLETRAD
 40
0.0
  9
$AUNITS
 70
     0
  9
$AUPREC
 70
     0
  9
$MENU
  1
.
  9
$ELEVATION
 40
0.0
  9
$PELEVATION
 40
0.0
  9
$THICKNESS
 40
0.0
  9
$LIMCHECK
 70
     0
  9
$BLIPMODE
 70
     0
  9
$CHAMFERA
 40
0.0
  9
$CHAMFERB
 40
0.0
  9
$SKPOLY
 70
     0
  9
$TDCREATE
 40
2458060.468368056230247
  9
$TDUPDATE
 40
2459100.857430555857718
  9
$TDINDWG
 40
0.5710140046
  9
$TDUSRTIMER
 40
0.5710140046
  9
$USRTIMER
 70
     1
  9
$ANGBASE
 50
0.0
  9
$ANGDIR
 70
     0
  9
$PDMODE
 70
     0
  9
$PDSIZE
 40
0.3125
  9
$PLINEWID
 40
0.0
  9
$COORDS
 70
     1
  9
$SPLFRAME
 70
     0
  9
$SPLINETYPE
 70
     6
  9
$SPLINESEGS
 70
     8
  9
$ATTDIA
 70
     1
  9
$ATTREQ
 70
     1
  9
$HANDLING
 70
     1
  9
$HANDSEED
  5
17578
  9
$SURFTAB1
 70
     6
  9
$SURFTAB2
 70
     6
  9
$SURFTYPE
 70
     6
  9
$SURFU
 70
     6
  9
$SURFV
 70
     6
  9
$UCSNAME
  2

  9
$UCSORG
 10
0.0
 20
0.0
 30
0.0
  9
$UCSXDIR
 10
1.0
 20
0.0
 30
0.0
  9
$UCSYDIR
 10
0.0
 20
1.0
 30
0.0
  9
$PUCSNAME
  2

  9
$PUCSORG
 10
0.0
 20
0.0
 30
0.0
  9
$PUCSXDIR
 10
1.0
 20
0.0
 30
0.0
  9
$PUCSYDIR
 10
0.0
 20
1.0
 30
0.0
  9
$USERI1
 70
     0
  9
$USERI2
 70
     0
  9
$USERI3
 70
     0
  9
$USERI4
 70
     0
  9
$USERI5
 70
     0
  9
$USERR1
 40
0.0
  9
$USERR2
 40
0.0
  9
$USERR3
 40
0.0
  9
$USERR4
 40
0.0
  9
$USERR5
 40
0.0
  9
$WORLDVIEW
 70
     1
  9
$SHADEDGE
 70
     3
  9
$SHADEDIF
 70
    70
  9
$TILEMODE
 70
     1
  9
$MAXACTVP
 70
    64
  9
$PLIMCHECK
 70
     0
  9
$PEXTMIN
 10
1.0000000000000000E+20
 20
1.0000000000000000E+20
 30
1.0000000000000000E+20
  9
$PEXTMAX
 10
-1.0000000000000000E+20
 20
-1.0000000000000000E+20
 30
-1.0000000000000000E+20
  9
$PLIMMIN
 10
0.0
 20
0.0
  9
$PLIMMAX
 10
12.0
 20
9.0
  9
$UNITMODE
 70
     0
  9
$VISRETAIN
 70
     1
  9
$PLINEGEN
 70
     0
  9
$PSLTSCALE
 70
     1
  0
ENDSEC
  0
SECTION
  2
TABLES
  0
TABLE
  2
VPORT
 70
     1
  0
VPORT
  2
*ACTIVE
 70
     0
 10
0.0
 20
0.0
 11
1.0
 21
1.0
 12
158.7429313141882972
 22
-42.9070061849004887
 13
0.0
 23
0.0
 14
1.0
 24
1.0
 15
0.0
 25
0.0
 16
0.0
 26
0.0
 36
96.5995694866707311
 17
3303.693115234375
 27
195.2615115758877096
 37
0.0
 40
3.4847902867014251
 41
2.6486111111111108
 42
50.0
 43
0.0
 44
0.0
 50
0.0
 51
0.0
 71
     0
 72
   100
 73
     1
 74
     1
 75
     0
 76
     0
 77
     0
 78
     0
  0
ENDTAB
  0
TABLE
  2
LTYPE
 70
     2
  0
LTYPE
  2
CONTINUOUS
 70
     0
  3
Solid line
 72
    65
 73
     0
 40
0.0
  0
LTYPE
  2
PHANTOM2
 70
     0
  3
___ _ _ ___ _ _ ___ _ _ ___ _ _
 72
    65
 73
     6
 40
1.25
 49
0.625
 49
-0.125
 49
0.125
 49
-0.125
 49
0.125
 49
-0.125
  0
ENDTAB
  0
TABLE
  2
LAYER
 70
     2
  0
LAYER
  2
0
 70
     0
 62
   255
  6
CONTINUOUS
  0
LAYER
  2
DEFPOINTS
 70
     0
 62
     7
  6
CONTINUOUS
  0
ENDTAB
  0
TABLE
  2
STYLE
 70
     1
  0
STYLE
  2
STANDARD
 70
     0
 40
0.0
 41
0.8
 50
0.0
 71
     0
 42
0.2
  3
txt
  4

  0
ENDTAB
  0
TABLE
  2
VIEW
 70
     0
  0
ENDTAB
  0
TABLE
  2
UCS
 70
     0
  0
ENDTAB
  0
TABLE
  2
APPID
 70
     9
  0
APPID
  2
ACAD
 70
     0
  0
APPID
  2
ACAD_MLEADERVER
 70
     0
  0
APPID
  2
ACAD_EXEMPT_FROM_CAD_STANDARDS
 70
     0
  0
APPID
  2
ACAD_NAV_VCDISPLAY
 70
     0
  0
APPID
  2
ACAECLAYERSTANDARD
 70
     0
  0
APPID
  2
ACCMTRANSPARENCY
 70
     0
  0
APPID
  2
ACAD_DSTYLE_DIMJAG
 70
     0
  0
APPID
  2
ACAD_DSTYLE_DIMTALN
 70
     0
  0
APPID
  2
ACDBATTR
 70
     0
  0
ENDTAB
  0
TABLE
  2
DIMSTYLE
 70
     1
  0
DIMSTYLE
  2
STANDARD
 70
     0
  3

  4

  5

  6

  7

 40
1.0
 41
0.1875
 42
0.0625
 43
0.38
 44
0.125
 45
0.0
 46
0.0
 47
0.01
 48
0.01
140
0.15625
141
0.09
142
0.0
143
25.3999999999999986
144
1.0
145
0.0
146
1.0
147
0.09
 71
     1
 72
     0
 73
     1
 74
     1
 75
     0
 76
     0
 77
     0
 78
     4
170
     0
171
     2
172
     0
173
     0
174
     0
175
     0
176
     0
177
     0
178
     0
  0
ENDTAB
  0
ENDSEC
  0
SECTION
  2
BLOCKS
  0
BLOCK
  8
0
  2
$MODEL_SPACE
 70
     0
 10
0.0
 20
0.0
 30
0.0
  3
$MODEL_SPACE
  1

  0
ENDBLK
  5
21
  8
0
  0
BLOCK
 67
     1
  8
0
  2
$PAPER_SPACE
 70
     0
 10
0.0
 20
0.0
 30
0.0
  3
$PAPER_SPACE
  1

  0
ENDBLK
  5
1D
 67
     1
  8
0
  0
BLOCK
  8
0
  2
_FILLED
 70
     0
 10
0.0
 20
0.0
 30
0.0
  3
_FILLED
  1

  0
SOLID
  5
9E2C
  8
0
  6
BYBLOCK
 62
     0
 10
0.0
 20
0.0
 30
0.0
 11
-1.0
 21
0.1666666667
 31
0.0
 12
-1.0
 22
-0.1666666667
 32
0.0
 13
-1.0
 23
-0.1666666667
 33
0.0
  0
ENDBLK
  5
9E2D
  8
0
  6
BYBLOCK
 62
     0
  0
BLOCK
  8
0
  2
A$C6B0F1CD5
 70
     2
 10
0.0
 20
0.0
 30
0.0
  3
A$C6B0F1CD5
  1

  0
ATTDEF
  5
B779
  8
DEFPOINTS
 10
0.0005209962714616
 20
0.000347009907216
 30
0.0
 40
0.001
  1
BATH FAUCET
  3

  2
PRODUCT
 70
     0
1001
ACDBATTR
1070
     0
1070
     1
  0
ATTDEF
  5
B77A
  8
DEFPOINTS
 10
0.0005209962714616
 20
0.0020136765738812
 30
0.0
 40
0.001
  1
SINGULIER
  3

  2
TRADENAME
 70
     0
1001
ACDBATTR
1070
     0
1070
     1
  0
ATTDEF
  5
B77B
  8
DEFPOINTS
 10
0.0005209962714616
 20
0.0036803432405463
 30
0.0
 40
0.001
  1
K-10873W
  3

  2
MODELNUMBER
 70
     0
1001
ACDBATTR
1070
     0
1070
     1
  0
ENDBLK
  5
B77F
  8
0
  0
ENDSEC
  0
SECTION
  2
ENTITIES
  0
LINE
  5
169FC
  8
0
 10
3465.9792351809628599
 20
154.0731156441773066
 30
0.0
 11
3458.8926210078229815
 21
154.0731156441773066
 31
0.0
  0
LINE
  5
169FD
  8
0
 10
3461.4713611652928194
 20
153.5219345418773003
 30
0.0
 11
3461.4713611652928194
 21
152.458942415777301
 31
0.0
  0
ARC
  5
169FE
  8
0
 10
3461.4831474602160597
 20
152.4589177085535994
 30
0.0
 40
0.0117863208193422
 50
179.8798929110488984
 51
270.0497499550054954
  0
LINE
  5
169FF
  8
0
 10
3461.4831576942838183
 20
152.4471313921773969
 30
0.0
 11
3463.3886695052838149
 21
152.4471313921773969
 31
0.0
  0
LINE
  5
16A00
  8
0
 10
3465.9792351809628599
 20
154.0731156441773066
 30
0.0
 11
3465.934142821532987
 21
153.5578732921773053
 31
0.0
  0
ARC
  5
16A01
  8
0
 10
3465.8949225578107871
 20
153.5613046206360082
 30
0.0
 40
0.0393700787586257
 50
270.0000000328814735
 51
354.9999999965173743
  0
LINE
  5
16A02
  8
0
 10
3465.8949225578330697
 20
153.5219345418773003
 30
0.0
 11
3458.9769046416331548
 21
153.5219345379082085
 31
0.0
  0
ARC
  5
16A03
  8
0
 10
3458.9769046416099627
 20
153.5613046162046089
 30
0.0
 40
0.039370078296388
 50
184.9999936636673112
 51
270.0000000328814735
  0
LINE
  5
16A04
  8
0
 10
3458.9376843779691626
 20
153.5578732921260041
 30
0.0
 11
3458.8926210078229815
 21
154.0731156441773066
 31
0.0
  0
ARC
  5
16A05
  8
0
 10
3461.4831474602160597
 20
152.4353450758011093
 30
0.0
 40
0.0117863208193363
 50
89.950250044994533
 51
180.1201070889688935
  0
LINE
  5
16A06
  8
0
 10
3461.4713611652928194
 20
152.4353203685774076
 30
0.0
 11
3461.4713611652928194
 21
151.4353203686773099
 31
0.0
  0
ARC
  5
16A07
  8
0
 10
3461.4831474602310664
 20
151.4352956613685137
 30
0.0
 40
0.0117863208342756
 50
179.8798924979525111
 51
270.0497496401554827
  0
LINE
  5
16A08
  8
0
 10
3461.4831576942337961
 20
151.4235093449773046
 30
0.0
 11
3463.3886695052337927
 21
151.4235093288195912
 31
0.0
  0
ARC
  5
16A09
  8
0
 10
3463.3886592408730394
 20
151.4353451328964866
 30
0.0
 40
0.0118358085276349
 50
270.0496885903402244
 51
359.8801191931336803
  0
ARC
  5
16A0A
  8
0
 10
3463.3886568524890208
 20
152.4352931967522977
 30
0.0
 40
0.0118382021867793
 50
0.1315091755534841
 51
89.938761663721607
  0
ARC
  5
16A0B
  8
0
 10
3463.3886592408498473
 20
152.4589671963109083
 30
0.0
 40
0.0118358085844484
 50
270.0496889389056037
 51
359.8800402171885935
  0
LINE
  5
16A0C
  8
0
 10
3461.4910317099329404
 20
151.4235093449105989
 30
0.0
 11
3461.4910317099329404
 21
151.4136668252772893
 31
0.0
  0
LINE
  5
16A0D
  8
0
 10
3461.4910317099329404
 20
151.4136668252772893
 30
0.0
 11
3463.3807919753721762
 21
151.4136624279487933
 31
0.0
  0
LINE
  5
16A0E
  8
0
 10
3463.3807919753721762
 20
151.4136624279487933
 30
0.0
 11
3463.3807919753721762
 21
151.4235093288864107
 31
0.0
  0
ARC
  5
16A0F
  8
0
 10
3462.2600888856350139
 20
152.0282779122279919
 30
0.0
 40
0.9844773881105403
 50
218.6309658314494868
 51
223.970336338153686
  0
ARC
  5
16A10
  8
0
 10
3462.6117382884331164
 20
152.0282779371771937
 30
0.0
 40
0.984477423599869
 50
316.0296636368170766
 51
321.3687063529000056
  0
LINE
  5
16A31
  8
0
 10
3463.400495023493022
 20
152.458942415777301
 30
0.0
 11
3463.400495023493022
 21
153.5219345404462103
 31
0.0
  0
LINE
  5
16A32
  8
0
 10
3463.400495023493022
 20
152.4353203685764129
 30
0.0
 11
3463.400495023493022
 21
151.4353203686773099
 31
0.0
  0
LINE
  5
16A33
  8
0
 10
3463.400495023493022
 20
152.458942415777301
 30
0.0
 11
3463.400495023493022
 21
153.5219345404462103
 31
0.0
  0
LINE
  5
16A47
  8
0
 10
3461.4713611652928194
 20
151.3447691874773113
 30
0.0
 11
3463.400495023493022
 21
151.3447691874773113
 31
0.0
  0
LINE
  5
16A48
  8
0
 10
3463.400495023493022
 20
151.3447691874773113
 30
0.0
 11
3463.400495023493022
 21
150.6746980124773074
 31
0.0
  0
ARC
  5
16A49
  8
0
 10
3463.3807910368191187
 20
150.6747162142686136
 30
0.0
 40
0.0197039950818647
 50
272.3455305065119205
 51
359.9470723594074002
  0
ARC
  5
16A4A
  8
0
 10
3461.4910576699357989
 20
150.6747090300702041
 30
0.0
 40
0.0196965077241182
 50
180.0320494176719137
 51
267.6756702973651727
  0
LINE
  5
16A4B
  8
0
 10
3461.4713611652928194
 20
150.6746980124773074
 30
0.0
 11
3461.4713611652928194
 21
151.3447691874773113
 31
0.0
  0
LINE
  5
16A4C
  8
0
 10
3461.4902588567888415
 20
150.6550287273772994
 30
0.0
 11
3463.3815974374961115
 21
150.6550287273772994
 31
0.0
  0
ARC
  5
16A50
  8
0
 10
3462.4358917945651228
 20
174.275917445772393
 30
0.0
 40
23.6398096756051501
 50
267.7073428204953984
 51
270.0000528491567025
  0
ARC
  5
16A51
  8
0
 10
3462.4359269506708188
 20
174.2755366676996971
 30
0.0
 40
23.6394288975261091
 50
269.9999676409418043
 51
272.2925544718412993
  0
ATTDEF
  5
16A7F
  8
DEFPOINTS
 10
3462.4370084983279412
 20
154.0712970617969972
 30
0.0
 40
0.001
  1
K-78019IN-4A
  3

  2
MODELNUMBER
 70
     0
1001
ACDBATTR
1070
     0
1070
     1
  0
ATTDEF
  5
16A80
  8
DEFPOINTS
 10
3462.4370084983279412
 20
154.0696303951303037
 30
0.0
 40
0.001
  1
COMPONENTS
  3

  2
TRADENAME
 70
     0
1001
ACDBATTR
1070
     0
1070
     1
  0
ATTDEF
  5
16A81
  8
DEFPOINTS
 10
3462.4370084983279412
 20
154.0679637284636101
 30
0.0
 40
0.001
  1
VALVE TRIM
  3

  2
PRODUCT
 70
     0
1001
ACDBATTR
1070
     0
1070
     1
  0
ENDSEC
  0
EOF
