  0
SECTION
  2
HEADER
  9
$ACADVER
  1
AC1009
  9
$INSBASE
 10
49.3073763383972192
 20
2.5085009147540349
 30
0.0
  9
$EXTMIN
 10
44.0368215244350765
 20
2.5020389327855201
 30
-0.0000000000112498
  9
$EXTMAX
 10
54.5791408003313094
 20
4.0045490557785293
 30
0.0000000000002956
  9
$LIMMIN
 10
0.0
 20
0.0
  9
$LIMMAX
 10
11.6929133858000007
 20
8.2677165353999982
  9
$ORTHOMODE
 70
     0
  9
$REGENMODE
 70
     1
  9
$FILLMODE
 70
     1
  9
$QTEXTMODE
 70
     0
  9
$MIRRTEXT
 70
     0
  9
$DRAGMODE
 70
     2
  9
$LTSCALE
 40
0.6431102362
  9
$OSMODE
 70
  4095
  9
$ATTMODE
 70
     1
  9
$TEXTSIZE
 40
0.2
  9
$TRACEWID
 40
0.05
  9
$TEXTSTYLE
  7
STANDARD
  9
$CLAYER
  8
0
  9
$CELTYPE
  6
BYLAYER
  9
$CECOLOR
 62
   256
  9
$DIMSCALE
 40
1.0
  9
$DIMASZ
 40
0.1875
  9
$DIMEXO
 40
0.0625
  9
$DIMDLI
 40
0.4443307087
  9
$DIMRND
 40
0.0
  9
$DIMDLE
 40
0.0
  9
$DIMEXE
 40
0.125
  9
$DIMTP
 40
0.01
  9
$DIMTM
 40
0.01
  9
$DIMTXT
 40
1.0
  9
$DIMCEN
 40
0.1052362205
  9
$DIMTSZ
 40
0.0
  9
$DIMTOL
 70
     1
  9
$DIMLIM
 70
     0
  9
$DIMTIH
 70
     1
  9
$DIMTOH
 70
     1
  9
$DIMSE1
 70
     0
  9
$DIMSE2
 70
     0
  9
$DIMTAD
 70
     0
  9
$DIMZIN
 70
     0
  9
$DIMBLK
  1

  9
$DIMASO
 70
     1
  9
$DIMSHO
 70
     1
  9
$DIMPOST
  1
\X
  9
$DIMAPOST
  1

  9
$DIMALT
 70
     1
  9
$DIMALTD
 70
     2
  9
$DIMALTF
 40
25.3999999999999986
  9
$DIMLFAC
 40
1.0
  9
$DIMTOFL
 70
     0
  9
$DIMTVP
 40
0.0
  9
$DIMTIX
 70
     0
  9
$DIMSOXD
 70
     0
  9
$DIMSAH
 70
     0
  9
$DIMBLK1
  1

  9
$DIMBLK2
  1

  9
$DIMSTYLE
  2
STANDARD
  9
$DIMCLRD
 70
     0
  9
$DIMCLRE
 70
     0
  9
$DIMCLRT
 70
     0
  9
$DIMTFAC
 40
1.0
  9
$DIMGAP
 40
0.09
  9
$LUNITS
 70
     2
  9
$LUPREC
 70
     4
  9
$SKETCHINC
 40
0.1
  9
$FILLETRAD
 40
0.0
  9
$AUNITS
 70
     0
  9
$AUPREC
 70
     0
  9
$MENU
  1
.
  9
$ELEVATION
 40
0.0
  9
$PELEVATION
 40
0.0
  9
$THICKNESS
 40
0.0
  9
$LIMCHECK
 70
     0
  9
$BLIPMODE
 70
     0
  9
$CHAMFERA
 40
0.0
  9
$CHAMFERB
 40
0.0
  9
$SKPOLY
 70
     0
  9
$TDCREATE
 40
2458172.500289352145046
  9
$TDUPDATE
 40
2459080.6225462961010635
  9
$TDINDWG
 40
0.0325158912
  9
$TDUSRTIMER
 40
0.0325158912
  9
$USRTIMER
 70
     1
  9
$ANGBASE
 50
0.0
  9
$ANGDIR
 70
     0
  9
$PDMODE
 70
     0
  9
$PDSIZE
 40
0.3125
  9
$PLINEWID
 40
0.0
  9
$COORDS
 70
     1
  9
$SPLFRAME
 70
     0
  9
$SPLINETYPE
 70
     6
  9
$SPLINESEGS
 70
     8
  9
$ATTDIA
 70
     1
  9
$ATTREQ
 70
     1
  9
$HANDLING
 70
     1
  9
$HANDSEED
  5
CE8
  9
$SURFTAB1
 70
     6
  9
$SURFTAB2
 70
     6
  9
$SURFTYPE
 70
     6
  9
$SURFU
 70
     6
  9
$SURFV
 70
     6
  9
$UCSNAME
  2

  9
$UCSORG
 10
0.0
 20
0.0
 30
0.0
  9
$UCSXDIR
 10
1.0
 20
0.0
 30
0.0
  9
$UCSYDIR
 10
0.0
 20
1.0
 30
0.0
  9
$PUCSNAME
  2

  9
$PUCSORG
 10
0.0
 20
0.0
 30
0.0
  9
$PUCSXDIR
 10
1.0
 20
0.0
 30
0.0
  9
$PUCSYDIR
 10
0.0
 20
1.0
 30
0.0
  9
$USERI1
 70
     0
  9
$USERI2
 70
     0
  9
$USERI3
 70
     0
  9
$USERI4
 70
     0
  9
$USERI5
 70
     0
  9
$USERR1
 40
0.0
  9
$USERR2
 40
0.0
  9
$USERR3
 40
0.0
  9
$USERR4
 40
0.0
  9
$USERR5
 40
0.0
  9
$WORLDVIEW
 70
     1
  9
$SHADEDGE
 70
     3
  9
$SHADEDIF
 70
    70
  9
$TILEMODE
 70
     1
  9
$MAXACTVP
 70
    64
  9
$PLIMCHECK
 70
     0
  9
$PEXTMIN
 10
1.0000000000000000E+20
 20
1.0000000000000000E+20
 30
1.0000000000000000E+20
  9
$PEXTMAX
 10
-1.0000000000000000E+20
 20
-1.0000000000000000E+20
 30
-1.0000000000000000E+20
  9
$PLIMMIN
 10
0.0
 20
0.0
  9
$PLIMMAX
 10
12.0
 20
9.0
  9
$UNITMODE
 70
     0
  9
$VISRETAIN
 70
     1
  9
$PLINEGEN
 70
     0
  9
$PSLTSCALE
 70
     1
  0
ENDSEC
  0
SECTION
  2
TABLES
  0
TABLE
  2
VPORT
 70
     1
  0
VPORT
  2
*ACTIVE
 70
     0
 10
0.0
 20
0.0
 11
1.0
 21
1.0
 12
0.0675338239859684
 22
0.0000967093176012
 13
0.0
 23
0.0
 14
1.0
 24
1.0
 15
0.0
 25
0.0
 16
-0.0000000000000071
 26
0.0
 36
29.5539484596238715
 17
49.2404473383972316
 27
3.2531972849644228
 37
0.0
 40
5.273846364024747
 41
2.005224660397074
 42
50.0
 43
0.0
 44
0.0
 50
0.0
 51
0.0
 71
     0
 72
   100
 73
     1
 74
     1
 75
     0
 76
     0
 77
     0
 78
     0
  0
ENDTAB
  0
TABLE
  2
LTYPE
 70
     3
  0
LTYPE
  2
CONTINUOUS
 70
     0
  3
Solid line
 72
    65
 73
     0
 40
0.0
  0
LTYPE
  2
PHANTOM2
 70
     0
  3
___ _ _ ___ _ _ ___ _ _ ___ _ _
 72
    65
 73
     6
 40
1.25
 49
0.625
 49
-0.125
 49
0.125
 49
-0.125
 49
0.125
 49
-0.125
  0
ENDTAB
  0
TABLE
  2
LAYER
 70
     2
  0
LAYER
  2
0
 70
     0
 62
   255
  6
CONTINUOUS
  0
LAYER
  2
DEFPOINTS
 70
     0
 62
     7
  6
CONTINUOUS
  0
ENDTAB
  0
TABLE
  2
STYLE
 70
     1
  0
STYLE
  2
STANDARD
 70
     0
 40
0.0
 41
0.8
 50
0.0
 71
     0
 42
0.2
  3
txt
  4

  0
ENDTAB
  0
TABLE
  2
VIEW
 70
     0
  0
ENDTAB
  0
TABLE
  2
UCS
 70
     0
  0
ENDTAB
  0
TABLE
  2
APPID
 70
     9
  0
APPID
  2
ACAD
 70
     0
  0
APPID
  2
ACAD_MLEADERVER
 70
     0
  0
APPID
  2
ACAD_EXEMPT_FROM_CAD_STANDARDS
 70
     0
  0
APPID
  2
ACAD_DSTYLE_DIMJAG
 70
     0
  0
APPID
  2
ACAD_DSTYLE_DIMTALN
 70
     0
  0
APPID
  2
ACAD_NAV_VCDISPLAY
 70
     0
  0
APPID
  2
ACAECLAYERSTANDARD
 70
     0
  0
APPID
  2
ACCMTRANSPARENCY
 70
     0
  0
APPID
  2
ACDBATTR
 70
     0
  0
ENDTAB
  0
TABLE
  2
DIMSTYLE
 70
     2
  0
DIMSTYLE
  2
STANDARD
 70
     0
  3

  4

  5

  6

  7

 40
1.0
 41
0.1875
 42
0.0625
 43
0.38
 44
0.125
 45
0.0
 46
0.0
 47
0.01
 48
0.01
140
0.15625
141
0.09
142
0.0
143
25.3999999999999986
144
1.0
145
0.0
146
1.0
147
0.09
 71
     1
 72
     0
 73
     1
 74
     1
 75
     0
 76
     0
 77
     0
 78
     4
170
     0
171
     2
172
     0
173
     0
174
     0
175
     0
176
     0
177
     0
178
     0
  0
ENDTAB
  0
ENDSEC
  0
SECTION
  2
BLOCKS
  0
BLOCK
  8
0
  2
$MODEL_SPACE
 70
     0
 10
0.0
 20
0.0
 30
0.0
  3
$MODEL_SPACE
  1

  0
ENDBLK
  5
21
  8
0
  0
BLOCK
 67
     1
  8
0
  2
$PAPER_SPACE
 70
     0
 10
0.0
 20
0.0
 30
0.0
  3
$PAPER_SPACE
  1

  0
ENDBLK
  5
1D
 67
     1
  8
0
  0
ENDSEC
  0
SECTION
  2
ENTITIES
  0
ATTDEF
  5
817
  8
DEFPOINTS
 10
49.3029865131116907
 20
2.5056472708378101
 30
0.0
 40
0.001
  1
K-77990T-8DR
  3

  2
MODELNUMBER
 70
     0
1001
ACDBATTR
1070
     0
1070
     1
  0
ATTDEF
  5
818
  8
DEFPOINTS
 10
49.3029865131116907
 20
2.503980604171145
 30
0.0
 40
0.001
  1
COMPONENTS
  3

  2
TRADENAME
 70
     0
1001
ACDBATTR
1070
     0
1070
     1
  0
ATTDEF
  5
819
  8
DEFPOINTS
 10
49.3029865131116907
 20
2.5023139375044798
 30
0.0
 40
0.001
  1
BATH FAUCET HANDLES
  3

  2
PRODUCT
 70
     0
1001
ACDBATTR
1070
     0
1070
     1
  0
LINE
  5
8DD
  8
0
 10
44.2955654486972321
 20
2.5085009147540349
 30
0.0
 11
44.2955654486972108
 21
2.5872190249540359
 31
0.0
  0
LINE
  5
8DE
  8
0
 10
44.0959894340972198
 20
3.9454867414540362
 30
0.0
 11
44.0396599367972215
 21
2.7250143005540362
 31
0.0
  0
LINE
  5
8DF
  8
0
 10
44.0645557218972286
 20
2.7001185154540361
 30
0.0
 11
44.0602954045972197
 21
2.6078116384540362
 31
0.0
  0
LINE
  5
8E0
  8
0
 10
44.3849061288972209
 20
2.5872190249540359
 30
0.0
 11
44.3849060871972227
 21
2.5281859540540359
 31
0.0
  0
LINE
  5
8E1
  8
0
 10
45.1511066286972209
 20
2.5281859540540359
 30
0.0
 11
45.1511066582972234
 21
2.5872190249540359
 31
0.0
  0
LINE
  5
8E2
  8
0
 10
45.3297880185972204
 20
2.5872190249540359
 30
0.0
 11
45.3297880481972228
 21
2.5281859540540359
 31
0.0
  0
LINE
  5
8E3
  8
0
 10
44.1550445521972179
 20
4.0045418595540356
 30
0.0
 11
44.0959894340972198
 21
3.9454867414540362
 31
0.0
  0
LINE
  5
8E4
  8
0
 10
44.0396599367972215
 20
2.7250143005540362
 30
0.0
 11
44.0645557219972233
 21
2.7001185154540361
 31
0.0
  0
LINE
  5
8E5
  8
0
 10
46.0959885479972229
 20
2.5281857369540361
 30
0.0
 11
46.09598854799723
 21
2.5872190249540359
 31
0.0
  0
LINE
  5
8E6
  8
0
 10
46.4163389548972205
 20
2.7001185154540361
 30
0.0
 11
46.4205992722972169
 21
2.6078116384540362
 31
0.0
  0
LINE
  5
8E7
  8
0
 10
46.3849052426972221
 20
3.9454867414540362
 30
0.0
 11
46.4412347399972205
 21
2.7250143005540362
 31
0.0
  0
LINE
  5
8E8
  8
0
 10
46.185329228197233
 20
2.5085009147540349
 30
0.0
 11
46.185329228197233
 21
2.5872190249540359
 31
0.0
  0
LINE
  5
8E9
  8
0
 10
46.4412347399972205
 20
2.7250143005540362
 30
0.0
 11
46.4163389548972205
 21
2.7001185154540361
 31
0.0
  0
LINE
  5
8EA
  8
0
 10
46.325850124597217
 20
4.0045418595540356
 30
0.0
 11
46.3849052426972221
 21
3.9454867414540362
 31
0.0
  0
LINE
  5
8EB
  8
0
 10
44.2955654486972321
 20
2.5085009147540349
 30
0.0
 11
46.185329228197233
 21
2.5085009147540349
 31
0.0
  0
LINE
  5
8EC
  8
0
 10
44.2955654486972321
 20
2.5281859540540359
 30
0.0
 11
44.3849060871972227
 21
2.5281859540540359
 31
0.0
  0
LINE
  5
8ED
  8
0
 10
45.1511066286972209
 20
2.5281859540540359
 30
0.0
 11
45.3297880481972228
 21
2.5281859540540359
 31
0.0
  0
LINE
  5
8EE
  8
0
 10
46.0959885479972229
 20
2.5281857369540361
 30
0.0
 11
46.185329228197233
 21
2.5281859540538631
 31
0.0
  0
LINE
  5
8EF
  8
0
 10
44.0799595109972273
 20
2.5872190249540359
 30
0.0
 11
46.4009351657972289
 21
2.5872190249540359
 31
0.0
  0
LINE
  5
8F0
  8
0
 10
44.0645557218972286
 20
2.7001185154540361
 30
0.0
 11
46.4163389548972205
 21
2.7001185154540361
 31
0.0
  0
LINE
  5
8F1
  8
0
 10
46.325850124597217
 20
4.0045418595540356
 30
0.0
 11
44.1550445521972179
 21
4.0045418595540356
 31
0.0
  0
ARC
  5
8F2
  8
0
 10
44.6000698075341475
 20
3.6529233106160071
 30
0.0
 40
1.25246784370838
 50
293.9734331578234787
 51
296.1013834466709795
  0
ARC
  5
8F3
  8
0
 10
45.5447035082044493
 20
3.6534680091407781
 30
0.0
 40
1.2530663937705271
 50
293.973682645753172
 51
296.1006135837391184
  0
ARC
  5
8F4
  8
0
 10
44.9314184153058207
 20
3.6433059685637299
 30
0.0
 40
1.2418407190677809
 50
243.8908569830925046
 51
246.0371319616037056
  0
ARC
  5
8F5
  8
0
 10
45.876262204546677
 20
3.6432224503122259
 30
0.0
 40
1.2417489245196021
 50
243.8907426310865958
 51
246.0371733626093089
  0
ARC
  5
8F6
  8
0
 10
46.4009351657972289
 20
2.606904064354036
 30
0.0
 40
0.0196850394
 50
270.0
 51
2.6425452936999898
  0
ARC
  5
8F7
  8
0
 10
44.0799595109972273
 20
2.606904064354036
 30
0.0
 40
0.0196850394
 50
177.3574547062999898
 51
270.0
  0
LINE
  5
8F8
  8
0
 10
52.4294234486972215
 20
2.5085009147540349
 30
0.0
 11
52.4294234486972215
 21
2.5872190249540359
 31
0.0
  0
LINE
  5
8F9
  8
0
 10
52.2298474340972234
 20
3.9454867414540362
 30
0.0
 11
52.1735179367972108
 21
2.7250143005540362
 31
0.0
  0
LINE
  5
8FA
  8
0
 10
52.1984137218972322
 20
2.7001185154540361
 30
0.0
 11
52.1941534045972233
 21
2.6078116384540362
 31
0.0
  0
LINE
  5
8FB
  8
0
 10
52.5187641288972173
 20
2.5872190249540359
 30
0.0
 11
52.5187640871972405
 21
2.5281859540540359
 31
0.0
  0
LINE
  5
8FC
  8
0
 10
53.2849646286972174
 20
2.5281859540540359
 30
0.0
 11
53.2849646582972198
 21
2.5872190249540359
 31
0.0
  0
LINE
  5
8FD
  8
0
 10
53.4636460185972169
 20
2.5872190249540359
 30
0.0
 11
53.4636460481972193
 21
2.5281859540540359
 31
0.0
  0
LINE
  5
8FE
  8
0
 10
52.2889025521972215
 20
4.0045418595540356
 30
0.0
 11
52.2298474340972234
 21
3.9454867414540362
 31
0.0
  0
LINE
  5
8FF
  8
0
 10
52.1735179367972108
 20
2.7250143005540362
 30
0.0
 11
52.1984137219972268
 21
2.7001185154540361
 31
0.0
  0
LINE
  5
900
  8
0
 10
54.2298465479972194
 20
2.5281857369540361
 30
0.0
 11
54.2298465479972265
 21
2.5872190249540359
 31
0.0
  0
LINE
  5
901
  8
0
 10
54.550196954897217
 20
2.7001185154540361
 30
0.0
 11
54.5544572722972205
 21
2.6078116384540362
 31
0.0
  0
LINE
  5
902
  8
0
 10
54.5187632426972186
 20
3.9454867414540362
 30
0.0
 11
54.575092739997217
 21
2.7250143005540362
 31
0.0
  0
LINE
  5
903
  8
0
 10
54.3191872281972223
 20
2.5085009147540349
 30
0.0
 11
54.3191872281972223
 21
2.5872190249540359
 31
0.0
  0
LINE
  5
904
  8
0
 10
54.575092739997217
 20
2.7250143005540362
 30
0.0
 11
54.550196954897217
 21
2.7001185154540361
 31
0.0
  0
LINE
  5
905
  8
0
 10
54.4597081245972277
 20
4.0045418595540356
 30
0.0
 11
54.5187632426972186
 21
3.9454867414540362
 31
0.0
  0
LINE
  5
906
  8
0
 10
52.4294234486972215
 20
2.5085009147540349
 30
0.0
 11
54.3191872281972223
 21
2.5085009147540349
 31
0.0
  0
LINE
  5
907
  8
0
 10
52.4294234486972215
 20
2.5281859540540359
 30
0.0
 11
52.5187640871972334
 21
2.5281859540540359
 31
0.0
  0
LINE
  5
908
  8
0
 10
53.2849646286972174
 20
2.5281859540540359
 30
0.0
 11
53.4636460481972193
 21
2.5281859540540359
 31
0.0
  0
LINE
  5
909
  8
0
 10
54.2298465479972265
 20
2.5281857369540361
 30
0.0
 11
54.3191872281972223
 21
2.5281859540538631
 31
0.0
  0
LINE
  5
90A
  8
0
 10
52.2138175109972167
 20
2.5872190249540359
 30
0.0
 11
54.5347931657972325
 21
2.5872190249540359
 31
0.0
  0
LINE
  5
90B
  8
0
 10
52.1984137218972322
 20
2.7001185154540361
 30
0.0
 11
54.550196954897217
 21
2.7001185154540361
 31
0.0
  0
LINE
  5
90C
  8
0
 10
54.4597081245972277
 20
4.0045418595540356
 30
0.0
 11
52.2889025521972215
 21
4.0045418595540356
 31
0.0
  0
ARC
  5
90D
  8
0
 10
52.7339278075341511
 20
3.6529233106160071
 30
0.0
 40
1.25246784370838
 50
293.9734331578234787
 51
296.1013834466709795
  0
ARC
  5
90E
  8
0
 10
53.6785615082044529
 20
3.6534680091407781
 30
0.0
 40
1.2530663937705271
 50
293.973682645753172
 51
296.1006135837391184
  0
ARC
  5
90F
  8
0
 10
53.0652764153058172
 20
3.6433059685637299
 30
0.0
 40
1.2418407190677809
 50
243.8908569830925046
 51
246.0371319616037056
  0
ARC
  5
910
  8
0
 10
54.0101202045466806
 20
3.6432224503122259
 30
0.0
 40
1.2417489245196021
 50
243.8907426310865958
 51
246.0371733626093089
  0
ARC
  5
911
  8
0
 10
54.5347931657972325
 20
2.606904064354036
 30
0.0
 40
0.0196850394
 50
270.0
 51
2.6425452936999898
  0
ARC
  5
912
  8
0
 10
52.2138175109972167
 20
2.606904064354036
 30
0.0
 40
0.0196850394
 50
177.3574547062999898
 51
270.0
  0
ENDSEC
  0
EOF
