  0
SECTION
  2
HEADER
  9
$ACADVER
  1
AC1009
  9
$INSBASE
 10
80.4644707780804822
 20
15.3907159302653405
 30
0.0
  9
$EXTMIN
 10
73.9625376916804669
 20
15.3907159302653405
 30
0.0
  9
$EXTMAX
 10
81.6455731403804634
 20
25.7565698888653394
 30
0.0
  9
$LIMMIN
 10
0.0
 20
0.0
  9
$LIMMAX
 10
11.6929133858000007
 20
8.2677165353999982
  9
$ORTHOMODE
 70
     1
  9
$REGENMODE
 70
     1
  9
$FILLMODE
 70
     1
  9
$QTEXTMODE
 70
     0
  9
$MIRRTEXT
 70
     0
  9
$DRAGMODE
 70
     2
  9
$LTSCALE
 40
0.6431102362
  9
$OSMODE
 70
  3839
  9
$ATTMODE
 70
     1
  9
$TEXTSIZE
 40
0.2
  9
$TRACEWID
 40
0.05
  9
$TEXTSTYLE
  7
STANDARD
  9
$CLAYER
  8
0
  9
$CELTYPE
  6
BYLAYER
  9
$CECOLOR
 62
   256
  9
$DIMSCALE
 40
1.0
  9
$DIMASZ
 40
0.1875
  9
$DIMEXO
 40
0.0625
  9
$DIMDLI
 40
0.4443307087
  9
$DIMRND
 40
0.0
  9
$DIMDLE
 40
0.0
  9
$DIMEXE
 40
0.125
  9
$DIMTP
 40
0.01
  9
$DIMTM
 40
0.01
  9
$DIMTXT
 40
1.0
  9
$DIMCEN
 40
0.1052362205
  9
$DIMTSZ
 40
0.0
  9
$DIMTOL
 70
     1
  9
$DIMLIM
 70
     0
  9
$DIMTIH
 70
     0
  9
$DIMTOH
 70
     1
  9
$DIMSE1
 70
     0
  9
$DIMSE2
 70
     0
  9
$DIMTAD
 70
     0
  9
$DIMZIN
 70
     0
  9
$DIMBLK
  1

  9
$DIMASO
 70
     1
  9
$DIMSHO
 70
     1
  9
$DIMPOST
  1
\X
  9
$DIMAPOST
  1

  9
$DIMALT
 70
     1
  9
$DIMALTD
 70
     2
  9
$DIMALTF
 40
25.3999999999999986
  9
$DIMLFAC
 40
1.0
  9
$DIMTOFL
 70
     0
  9
$DIMTVP
 40
0.0
  9
$DIMTIX
 70
     0
  9
$DIMSOXD
 70
     0
  9
$DIMSAH
 70
     0
  9
$DIMBLK1
  1

  9
$DIMBLK2
  1

  9
$DIMSTYLE
  2
STANDARD
  9
$DIMCLRD
 70
     0
  9
$DIMCLRE
 70
     0
  9
$DIMCLRT
 70
     0
  9
$DIMTFAC
 40
1.0
  9
$DIMGAP
 40
0.09
  9
$LUNITS
 70
     2
  9
$LUPREC
 70
     4
  9
$SKETCHINC
 40
0.1
  9
$FILLETRAD
 40
0.0
  9
$AUNITS
 70
     0
  9
$AUPREC
 70
     0
  9
$MENU
  1
.
  9
$ELEVATION
 40
0.0
  9
$PELEVATION
 40
0.0
  9
$THICKNESS
 40
0.0
  9
$LIMCHECK
 70
     0
  9
$BLIPMODE
 70
     0
  9
$CHAMFERA
 40
0.0
  9
$CHAMFERB
 40
0.0
  9
$SKPOLY
 70
     0
  9
$TDCREATE
 40
2458172.5207638889551163
  9
$TDUPDATE
 40
2459058.3376273149624467
  9
$TDINDWG
 40
0.063806956
  9
$TDUSRTIMER
 40
0.063806956
  9
$USRTIMER
 70
     1
  9
$ANGBASE
 50
0.0
  9
$ANGDIR
 70
     0
  9
$PDMODE
 70
     0
  9
$PDSIZE
 40
0.3125
  9
$PLINEWID
 40
0.0
  9
$COORDS
 70
     1
  9
$SPLFRAME
 70
     0
  9
$SPLINETYPE
 70
     6
  9
$SPLINESEGS
 70
     8
  9
$ATTDIA
 70
     1
  9
$ATTREQ
 70
     1
  9
$HANDLING
 70
     1
  9
$HANDSEED
  5
10FD
  9
$SURFTAB1
 70
     6
  9
$SURFTAB2
 70
     6
  9
$SURFTYPE
 70
     6
  9
$SURFU
 70
     6
  9
$SURFV
 70
     6
  9
$UCSNAME
  2

  9
$UCSORG
 10
0.0
 20
0.0
 30
0.0
  9
$UCSXDIR
 10
1.0
 20
0.0
 30
0.0
  9
$UCSYDIR
 10
0.0
 20
1.0
 30
0.0
  9
$PUCSNAME
  2

  9
$PUCSORG
 10
0.0
 20
0.0
 30
0.0
  9
$PUCSXDIR
 10
1.0
 20
0.0
 30
0.0
  9
$PUCSYDIR
 10
0.0
 20
1.0
 30
0.0
  9
$USERI1
 70
     0
  9
$USERI2
 70
     0
  9
$USERI3
 70
     0
  9
$USERI4
 70
     0
  9
$USERI5
 70
     0
  9
$USERR1
 40
0.0
  9
$USERR2
 40
0.0
  9
$USERR3
 40
0.0
  9
$USERR4
 40
0.0
  9
$USERR5
 40
0.0
  9
$WORLDVIEW
 70
     1
  9
$SHADEDGE
 70
     3
  9
$SHADEDIF
 70
    70
  9
$TILEMODE
 70
     1
  9
$MAXACTVP
 70
    64
  9
$PLIMCHECK
 70
     0
  9
$PEXTMIN
 10
1.0000000000000000E+20
 20
1.0000000000000000E+20
 30
1.0000000000000000E+20
  9
$PEXTMAX
 10
-1.0000000000000000E+20
 20
-1.0000000000000000E+20
 30
-1.0000000000000000E+20
  9
$PLIMMIN
 10
0.0
 20
0.0
  9
$PLIMMAX
 10
12.0
 20
9.0
  9
$UNITMODE
 70
     0
  9
$VISRETAIN
 70
     1
  9
$PLINEGEN
 70
     0
  9
$PSLTSCALE
 70
     1
  0
ENDSEC
  0
SECTION
  2
TABLES
  0
TABLE
  2
VPORT
 70
     1
  0
VPORT
  2
*ACTIVE
 70
     0
 10
0.0
 20
0.0
 11
1.0
 21
1.0
 12
0.0
 22
0.0
 13
0.0
 23
0.0
 14
1.0
 24
1.0
 15
0.0
 25
0.0
 16
-0.0000000000000142
 26
0.0
 36
53.5550594432495188
 17
77.8040580749511719
 27
20.5719685554504395
 37
0.0
 40
12.9000226095575492
 41
3.314341846758349
 42
50.0
 43
0.0
 44
0.0
 50
0.0
 51
0.0
 71
     0
 72
   100
 73
     1
 74
     1
 75
     0
 76
     0
 77
     0
 78
     0
  0
ENDTAB
  0
TABLE
  2
LTYPE
 70
     2
  0
LTYPE
  2
CONTINUOUS
 70
     0
  3
Solid line
 72
    65
 73
     0
 40
0.0
  0
LTYPE
  2
PHANTOM2
 70
     0
  3
___ _ _ ___ _ _ ___ _ _ ___ _ _
 72
    65
 73
     6
 40
1.25
 49
0.625
 49
-0.125
 49
0.125
 49
-0.125
 49
0.125
 49
-0.125
  0
ENDTAB
  0
TABLE
  2
LAYER
 70
     2
  0
LAYER
  2
0
 70
     0
 62
   255
  6
CONTINUOUS
  0
LAYER
  2
DEFPOINTS
 70
     0
 62
     7
  6
CONTINUOUS
  0
ENDTAB
  0
TABLE
  2
STYLE
 70
     1
  0
STYLE
  2
STANDARD
 70
     0
 40
0.0
 41
0.8
 50
0.0
 71
     0
 42
0.2
  3
txt
  4

  0
ENDTAB
  0
TABLE
  2
VIEW
 70
     0
  0
ENDTAB
  0
TABLE
  2
UCS
 70
     0
  0
ENDTAB
  0
TABLE
  2
APPID
 70
    10
  0
APPID
  2
ACAD
 70
     0
  0
APPID
  2
ACAD_MLEADERVER
 70
     0
  0
APPID
  2
ACAD_EXEMPT_FROM_CAD_STANDARDS
 70
     0
  0
APPID
  2
ACAD_DSTYLE_DIMJAG
 70
     0
  0
APPID
  2
ACAD_DSTYLE_DIMTALN
 70
     0
  0
APPID
  2
ACAD_NAV_VCDISPLAY
 70
     0
  0
APPID
  2
ACAECLAYERSTANDARD
 70
     0
  0
APPID
  2
ACCMTRANSPARENCY
 70
     0
  0
APPID
  2
DCO15
 70
     0
  0
APPID
  2
ACDBATTR
 70
     0
  0
ENDTAB
  0
TABLE
  2
DIMSTYLE
 70
     1
  0
DIMSTYLE
  2
STANDARD
 70
     0
  3

  4

  5

  6

  7

 40
1.0
 41
0.1875
 42
0.0625
 43
0.38
 44
0.125
 45
0.0
 46
0.0
 47
0.01
 48
0.01
140
0.15625
141
0.09
142
0.0
143
25.3999999999999986
144
1.0
145
0.0
146
1.0
147
0.09
 71
     1
 72
     0
 73
     1
 74
     1
 75
     0
 76
     0
 77
     0
 78
     4
170
     0
171
     2
172
     0
173
     0
174
     0
175
     0
176
     0
177
     0
178
     0
  0
ENDTAB
  0
ENDSEC
  0
SECTION
  2
BLOCKS
  0
BLOCK
  8
0
  2
$MODEL_SPACE
 70
     0
 10
0.0
 20
0.0
 30
0.0
  3
$MODEL_SPACE
  1

  0
ENDBLK
  5
21
  8
0
  0
BLOCK
 67
     1
  8
0
  2
$PAPER_SPACE
 70
     0
 10
0.0
 20
0.0
 30
0.0
  3
$PAPER_SPACE
  1

  0
ENDBLK
  5
1D
 67
     1
  8
0
  0
ENDSEC
  0
SECTION
  2
ENTITIES
  0
ATTDEF
  5
829
  8
DEFPOINTS
 10
80.4606906945846561
 20
15.4027077140205098
 30
0.0
 40
0.001
  1
K-77968T-ND
  3

  2
MODELNUMBER
 70
     0
1001
ACDBATTR
1070
     0
1070
     1
  0
ATTDEF
  5
82A
  8
DEFPOINTS
 10
80.4606906945846561
 20
15.4010410473538393
 30
0.0
 40
0.001
  1
COMPONENTS
  3

  2
TRADENAME
 70
     0
1001
ACDBATTR
1070
     0
1070
     1
  0
ATTDEF
  5
82B
  8
DEFPOINTS
 10
80.4606906945846561
 20
15.3993743806871795
 30
0.0
 40
0.001
  1
BATHROOM SINK SPOUT
  3

  2
PRODUCT
 70
     0
1001
ACDBATTR
1070
     0
1070
     1
  0
LINE
  5
DC9
  8
0
 10
80.2141248858804659
 20
15.7731125002653396
 30
0.0
 11
79.2984246734804685
 21
15.5515813042653406
 31
0.0
  0
LINE
  5
DCA
  8
0
 10
80.7026597544804787
 20
15.6722119932653392
 30
0.0
 11
80.2262818016804573
 21
15.6722119932653392
 31
0.0
  0
LINE
  5
DCB
  8
0
 10
73.9625376916804669
 20
22.1119168998653386
 30
0.0
 11
74.1313718575804756
 21
23.0438221125653406
 31
0.0
  0
LINE
  5
DCC
  8
0
 10
80.7148166702804701
 20
15.7731125002653396
 30
0.0
 11
81.6305168826804533
 21
15.5515813042653406
 31
0.0
  0
LINE
  5
DCD
  8
0
 10
74.5575057090804734
 20
22.9666190317653509
 30
0.0
 11
74.3886715431804646
 21
22.0347138190653489
 31
0.0
  0
LINE
  5
DCE
  8
0
 10
73.9625376916804669
 20
22.1119168998653386
 30
0.0
 11
74.3886715431804646
 21
22.0347138190653489
 31
0.0
  0
LINE
  5
DCF
  8
0
 10
80.2262818016804573
 20
15.6722119932653392
 30
0.0
 11
80.2262818016804573
 21
15.7635457865653397
 31
0.0
  0
LINE
  5
DD0
  8
0
 10
80.2479404447804683
 20
15.6722119932653392
 30
0.0
 11
80.2479404447804683
 21
22.4553100463653408
 31
0.0
  0
LINE
  5
DD1
  8
0
 10
80.6810113108804643
 20
22.4553100463653408
 30
0.0
 11
80.6810113108804643
 21
15.6722119932653392
 31
0.0
  0
LINE
  5
DD2
  8
0
 10
80.7026597544804787
 20
15.6722119932653392
 30
0.0
 11
80.7026597544804645
 21
15.7635459349653395
 31
0.0
  0
ARC
  5
DD3
  8
0
 10
77.3797514683804764
 20
22.4553100463653408
 30
0.0
 40
3.301259842499999
 50
0.0
 51
169.7310538026999893
  0
ARC
  5
DD4
  8
0
 10
77.3797514683804764
 20
22.4553100463653408
 30
0.0
 40
2.868188976399999
 50
0.0
 51
169.7310538026999893
  0
LINE
  5
DD5
  8
0
 10
79.2833684158804743
 20
15.3907159302653405
 30
0.0
 11
81.6455731402804759
 21
15.3907159302653405
 31
0.0
  0
LINE
  5
DD6
  8
0
 10
81.6455731402804759
 20
15.5324482137653401
 30
0.0
 11
79.2833684158804743
 21
15.5324482137653401
 31
0.0
  0
LINE
  5
DD7
  8
0
 10
79.2833684158804743
 20
15.3907159302653405
 30
0.0
 11
79.2833684158804743
 21
15.5324482137653401
 31
0.0
  0
LINE
  5
DD8
  8
0
 10
81.6455731402804759
 20
15.3907159302653405
 30
0.0
 11
81.6455731402804759
 21
15.5324482137653401
 31
0.0
  0
ARC
  5
DD9
  8
0
 10
81.6258881009804753
 20
15.5324482137653401
 30
0.0
 40
0.0196850394
 50
0.0
 51
76.4000000001001069
  0
ARC
  5
DDA
  8
0
 10
79.3030534552804767
 20
15.5324482137653401
 30
0.0
 40
0.0196850394
 50
103.5999999998998931
 51
180.0
  0
ARC
  5
DDB
  8
0
 10
80.2163953921985353
 20
15.7634901832244196
 30
0.0
 40
0.0098865658434292
 50
0.3222406654995281
 51
103.2768029279659032
  0
ARC
  5
DDC
  8
0
 10
80.7125459219101486
 20
15.7634904899537904
 30
0.0
 40
0.0098863229057577
 50
76.7214235175895851
 51
179.6786690218218894
  0
ENDSEC
  0
EOF
