  0
SECTION
  2
HEADER
  9
$ACADVER
  1
AC1009
  9
$INSBASE
 10
3657.4827122116098508
 20
347.75229269809779
 30
0.0
  9
$EXTMIN
 10
3656.3016098494099424
 20
347.7471121527270839
 30
0.0
  9
$EXTMAX
 10
3658.6638145739098036
 20
358.1181466566977747
 30
0.0
  9
$LIMMIN
 10
0.0
 20
0.0
  9
$LIMMAX
 10
11.6929133858000007
 20
8.2677165353999982
  9
$ORTHOMODE
 70
     0
  9
$REGENMODE
 70
     1
  9
$FILLMODE
 70
     1
  9
$QTEXTMODE
 70
     0
  9
$MIRRTEXT
 70
     0
  9
$DRAGMODE
 70
     2
  9
$LTSCALE
 40
0.6431102362
  9
$OSMODE
 70
  4095
  9
$ATTMODE
 70
     1
  9
$TEXTSIZE
 40
0.2
  9
$TRACEWID
 40
0.05
  9
$TEXTSTYLE
  7
STANDARD
  9
$CLAYER
  8
0
  9
$CELTYPE
  6
BYLAYER
  9
$CECOLOR
 62
   256
  9
$DIMSCALE
 40
1.0
  9
$DIMASZ
 40
0.1875
  9
$DIMEXO
 40
0.0625
  9
$DIMDLI
 40
0.4443307087
  9
$DIMRND
 40
0.0
  9
$DIMDLE
 40
0.0
  9
$DIMEXE
 40
0.125
  9
$DIMTP
 40
0.01
  9
$DIMTM
 40
0.01
  9
$DIMTXT
 40
2.0
  9
$DIMCEN
 40
0.1052362205
  9
$DIMTSZ
 40
0.0
  9
$DIMTOL
 70
     1
  9
$DIMLIM
 70
     0
  9
$DIMTIH
 70
     1
  9
$DIMTOH
 70
     1
  9
$DIMSE1
 70
     0
  9
$DIMSE2
 70
     0
  9
$DIMTAD
 70
     0
  9
$DIMZIN
 70
     0
  9
$DIMBLK
  1

  9
$DIMASO
 70
     1
  9
$DIMSHO
 70
     1
  9
$DIMPOST
  1
\X
  9
$DIMAPOST
  1

  9
$DIMALT
 70
     1
  9
$DIMALTD
 70
     2
  9
$DIMALTF
 40
25.3999999999999986
  9
$DIMLFAC
 40
1.0
  9
$DIMTOFL
 70
     0
  9
$DIMTVP
 40
0.0
  9
$DIMTIX
 70
     0
  9
$DIMSOXD
 70
     0
  9
$DIMSAH
 70
     0
  9
$DIMBLK1
  1

  9
$DIMBLK2
  1

  9
$DIMSTYLE
  2
STANDARD
  9
$DIMCLRD
 70
     0
  9
$DIMCLRE
 70
     0
  9
$DIMCLRT
 70
     0
  9
$DIMTFAC
 40
1.0
  9
$DIMGAP
 40
0.09
  9
$LUNITS
 70
     2
  9
$LUPREC
 70
     4
  9
$SKETCHINC
 40
0.1
  9
$FILLETRAD
 40
0.0
  9
$AUNITS
 70
     0
  9
$AUPREC
 70
     0
  9
$MENU
  1
.
  9
$ELEVATION
 40
0.0
  9
$PELEVATION
 40
0.0
  9
$THICKNESS
 40
0.0
  9
$LIMCHECK
 70
     0
  9
$BLIPMODE
 70
     0
  9
$CHAMFERA
 40
0.0
  9
$CHAMFERB
 40
0.0
  9
$SKPOLY
 70
     0
  9
$TDCREATE
 40
2458060.468368056230247
  9
$TDUPDATE
 40
2460000.6701851850375533
  9
$TDINDWG
 40
0.6891390046
  9
$TDUSRTIMER
 40
0.6891390046
  9
$USRTIMER
 70
     1
  9
$ANGBASE
 50
0.0
  9
$ANGDIR
 70
     0
  9
$PDMODE
 70
     0
  9
$PDSIZE
 40
0.3125
  9
$PLINEWID
 40
0.0
  9
$COORDS
 70
     1
  9
$SPLFRAME
 70
     0
  9
$SPLINETYPE
 70
     6
  9
$SPLINESEGS
 70
     8
  9
$ATTDIA
 70
     1
  9
$ATTREQ
 70
     1
  9
$HANDLING
 70
     1
  9
$HANDSEED
  5
CA86
  9
$SURFTAB1
 70
     6
  9
$SURFTAB2
 70
     6
  9
$SURFTYPE
 70
     6
  9
$SURFU
 70
     6
  9
$SURFV
 70
     6
  9
$UCSNAME
  2

  9
$UCSORG
 10
0.0
 20
0.0
 30
0.0
  9
$UCSXDIR
 10
1.0
 20
0.0
 30
0.0
  9
$UCSYDIR
 10
0.0
 20
1.0
 30
0.0
  9
$PUCSNAME
  2

  9
$PUCSORG
 10
0.0
 20
0.0
 30
0.0
  9
$PUCSXDIR
 10
1.0
 20
0.0
 30
0.0
  9
$PUCSYDIR
 10
0.0
 20
1.0
 30
0.0
  9
$USERI1
 70
     0
  9
$USERI2
 70
     0
  9
$USERI3
 70
     0
  9
$USERI4
 70
     0
  9
$USERI5
 70
     0
  9
$USERR1
 40
0.0
  9
$USERR2
 40
0.0
  9
$USERR3
 40
0.0
  9
$USERR4
 40
0.0
  9
$USERR5
 40
0.0
  9
$WORLDVIEW
 70
     1
  9
$SHADEDGE
 70
     3
  9
$SHADEDIF
 70
    70
  9
$TILEMODE
 70
     1
  9
$MAXACTVP
 70
    64
  9
$PLIMCHECK
 70
     0
  9
$PEXTMIN
 10
1.0000000000000000E+20
 20
1.0000000000000000E+20
 30
1.0000000000000000E+20
  9
$PEXTMAX
 10
-1.0000000000000000E+20
 20
-1.0000000000000000E+20
 30
-1.0000000000000000E+20
  9
$PLIMMIN
 10
0.0
 20
0.0
  9
$PLIMMAX
 10
12.0
 20
9.0
  9
$UNITMODE
 70
     0
  9
$VISRETAIN
 70
     1
  9
$PLINEGEN
 70
     0
  9
$PSLTSCALE
 70
     1
  0
ENDSEC
  0
SECTION
  2
TABLES
  0
TABLE
  2
VPORT
 70
     1
  0
VPORT
  2
*ACTIVE
 70
     0
 10
0.0
 20
0.0
 11
1.0
 21
1.0
 12
71.4023899460351004
 22
32.8533599955327986
 13
0.0
 23
0.0
 14
1.0
 24
1.0
 15
0.0
 25
0.0
 16
0.0
 26
0.0
 36
25.2877321337879302
 17
3586.080322265625
 27
320.0792694091796875
 37
0.0
 40
10.4532355700523603
 41
2.5251322751322749
 42
50.0
 43
0.0
 44
0.0
 50
0.0
 51
0.0
 71
     0
 72
   100
 73
     1
 74
     1
 75
     0
 76
     0
 77
     0
 78
     0
  0
ENDTAB
  0
TABLE
  2
LTYPE
 70
     2
  0
LTYPE
  2
CONTINUOUS
 70
     0
  3
Solid line
 72
    65
 73
     0
 40
0.0
  0
LTYPE
  2
PHANTOM2
 70
     0
  3
___ _ _ ___ _ _ ___ _ _ ___ _ _
 72
    65
 73
     6
 40
1.25
 49
0.625
 49
-0.125
 49
0.125
 49
-0.125
 49
0.125
 49
-0.125
  0
ENDTAB
  0
TABLE
  2
LAYER
 70
     2
  0
LAYER
  2
0
 70
     0
 62
   255
  6
CONTINUOUS
  0
LAYER
  2
DEFPOINTS
 70
     0
 62
     7
  6
CONTINUOUS
  0
ENDTAB
  0
TABLE
  2
STYLE
 70
     1
  0
STYLE
  2
STANDARD
 70
     0
 40
0.0
 41
0.8
 50
0.0
 71
     0
 42
0.2
  3
txt
  4

  0
ENDTAB
  0
TABLE
  2
VIEW
 70
     0
  0
ENDTAB
  0
TABLE
  2
UCS
 70
     0
  0
ENDTAB
  0
TABLE
  2
APPID
 70
     9
  0
APPID
  2
ACAD
 70
     0
  0
APPID
  2
ACAD_MLEADERVER
 70
     0
  0
APPID
  2
ACAD_EXEMPT_FROM_CAD_STANDARDS
 70
     0
  0
APPID
  2
ACAD_NAV_VCDISPLAY
 70
     0
  0
APPID
  2
ACAECLAYERSTANDARD
 70
     0
  0
APPID
  2
ACCMTRANSPARENCY
 70
     0
  0
APPID
  2
ACAD_DSTYLE_DIMJAG
 70
     0
  0
APPID
  2
ACAD_DSTYLE_DIMTALN
 70
     0
  0
APPID
  2
ACDBATTR
 70
     0
  0
ENDTAB
  0
TABLE
  2
DIMSTYLE
 70
     1
  0
DIMSTYLE
  2
STANDARD
 70
     0
  3

  4

  5

  6

  7

 40
1.0
 41
0.1875
 42
0.0625
 43
0.38
 44
0.125
 45
0.0
 46
0.0
 47
0.01
 48
0.01
140
0.15625
141
0.09
142
0.0
143
25.3999999999999986
144
1.0
145
0.0
146
1.0
147
0.09
 71
     1
 72
     0
 73
     1
 74
     1
 75
     0
 76
     0
 77
     0
 78
     4
170
     0
171
     2
172
     0
173
     0
174
     0
175
     0
176
     0
177
     0
178
     0
  0
ENDTAB
  0
ENDSEC
  0
SECTION
  2
BLOCKS
  0
BLOCK
  8
0
  2
$MODEL_SPACE
 70
     0
 10
0.0
 20
0.0
 30
0.0
  3
$MODEL_SPACE
  1

  0
ENDBLK
  5
21
  8
0
  0
BLOCK
 67
     1
  8
0
  2
$PAPER_SPACE
 70
     0
 10
0.0
 20
0.0
 30
0.0
  3
$PAPER_SPACE
  1

  0
ENDBLK
  5
1D
 67
     1
  8
0
  0
BLOCK
  8
0
  2
_FILLED
 70
     0
 10
0.0
 20
0.0
 30
0.0
  3
_FILLED
  1

  0
SOLID
  5
6F59
  8
0
  6
BYBLOCK
 62
     0
 10
0.0
 20
0.0
 30
0.0
 11
-1.0
 21
0.1666666667
 31
0.0
 12
-1.0
 22
-0.1666666667
 32
0.0
 13
-1.0
 23
-0.1666666667
 33
0.0
  0
ENDBLK
  5
6F5A
  8
0
  6
BYBLOCK
 62
     0
  0
ENDSEC
  0
SECTION
  2
ENTITIES
  0
ATTDEF
  5
3930
  8
DEFPOINTS
 10
3657.4840165541631904
 20
347.7504454860605279
 30
0.0
 40
0.001
  1
K-77968T-E2
  3

  2
MODELNUMBER
 70
     0
1001
ACDBATTR
1070
     0
1070
     1
  0
ATTDEF
  5
3931
  8
DEFPOINTS
 10
3657.4840165541631904
 20
347.7487788193938059
 30
0.0
 40
0.001
  1
COMPONENTS
  3

  2
TRADENAME
 70
     0
1001
ACDBATTR
1070
     0
1070
     1
  0
ATTDEF
  5
3932
  8
DEFPOINTS
 10
3657.4840165541631904
 20
347.7471121527270839
 30
0.0
 40
0.001
  1
BATRHROOM SINK FAUCET
  3

  2
PRODUCT
 70
     0
1001
ACDBATTR
1070
     0
1070
     1
  0
LINE
  5
C947
  8
0
 10
3656.3016098494099424
 20
347.75229269809779
 30
0.0
 11
3658.6638145738102139
 21
347.75229269809779
 31
0.0
  0
LINE
  5
C948
  8
0
 10
3658.6638145738102139
 20
347.894024981597795
 30
0.0
 11
3656.3016098494099424
 21
347.894024981597795
 31
0.0
  0
LINE
  5
C949
  8
0
 10
3656.3166661070099508
 20
347.913158072097815
 30
0.0
 11
3656.8141528704099983
 21
348.0335127866978269
 31
0.0
  0
LINE
  5
C94A
  8
0
 10
3656.8141528704099983
 20
348.0335127866978269
 30
0.0
 11
3656.8164672613102084
 21
348.03378876109781
 31
0.0
  0
LINE
  5
C94B
  8
0
 10
3656.8164672613102084
 20
348.03378876109781
 30
0.0
 11
3656.8632752640100989
 21
348.03378876109781
 31
0.0
  0
LINE
  5
C94C
  8
0
 10
3658.1021491331111974
 20
348.03378876109781
 30
0.0
 11
3658.1489571619099479
 21
348.03378876109781
 31
0.0
  0
LINE
  5
C94D
  8
0
 10
3658.151271552810158
 20
348.0335127866978269
 30
0.0
 11
3658.1489571619099479
 21
348.03378876109781
 31
0.0
  0
LINE
  5
C94E
  8
0
 10
3658.648758316211115
 20
347.913158072097815
 30
0.0
 11
3658.151271552810158
 21
348.0335127866978269
 31
0.0
  0
LINE
  5
C94F
  8
0
 10
3657.0905122032099825
 20
354.4462684581977783
 30
0.0
 11
3657.1086964636101584
 21
354.451883227697806
 31
0.0
  0
LINE
  5
C950
  8
0
 10
3657.1098329799101521
 20
354.4438119964978
 30
0.0
 11
3657.1223346589099492
 21
354.4476721505977821
 31
0.0
  0
LINE
  5
C951
  8
0
 10
3656.3016098494099424
 20
347.75229269809779
 30
0.0
 11
3656.3016098494099424
 21
347.894024981597795
 31
0.0
  0
LINE
  5
C952
  8
0
 10
3656.8577122116098508
 20
348.03378876109781
 30
0.0
 11
3656.8577122116098508
 21
358.1083041369977877
 31
0.0
  0
LINE
  5
C953
  8
0
 10
3656.9098775660099818
 20
354.4380504351977947
 30
0.0
 11
3656.9098775660099818
 21
354.4317338193977776
 31
0.0
  0
LINE
  5
C954
  8
0
 10
3657.0905122032099825
 20
354.4633168978978119
 30
0.0
 11
3657.0905122032099825
 21
354.4462684581977783
 31
0.0
  0
LINE
  5
C955
  8
0
 10
3657.1086964636101584
 20
354.451883227697806
 30
0.0
 11
3657.1086964636101584
 21
354.4633168978978119
 31
0.0
  0
LINE
  5
C956
  8
0
 10
3657.4256255974100895
 20
354.4410046117977799
 30
0.0
 11
3657.4256255974100895
 21
354.4476721505977821
 31
0.0
  0
LINE
  5
C957
  8
0
 10
3657.4453106368100634
 20
354.4476721505977821
 30
0.0
 11
3657.4453106368100634
 21
354.4410046117977799
 31
0.0
  0
LINE
  5
C958
  8
0
 10
3657.5201137864100929
 20
354.4410046117977799
 30
0.0
 11
3657.5201137864100929
 21
354.4476721505977821
 31
0.0
  0
LINE
  5
C959
  8
0
 10
3657.5397988258109763
 20
354.4476721505977821
 30
0.0
 11
3657.5397988258109763
 21
354.4410046117977799
 31
0.0
  0
LINE
  5
C95A
  8
0
 10
3657.8567279596099979
 20
354.4633168978978119
 30
0.0
 11
3657.8567279596099979
 21
354.451883227697806
 31
0.0
  0
LINE
  5
C95B
  8
0
 10
3657.8749122201111277
 20
354.4462684581977783
 30
0.0
 11
3657.8749122201111277
 21
354.4633168978978119
 31
0.0
  0
LINE
  5
C95C
  8
0
 10
3658.1077122116098508
 20
358.1083041369977877
 30
0.0
 11
3658.1077122116098508
 21
348.03378876109781
 31
0.0
  0
LINE
  5
C95D
  8
0
 10
3658.6638145738102139
 20
347.75229269809779
 30
0.0
 11
3658.6638145738102139
 21
347.894024981597795
 31
0.0
  0
LINE
  5
C95E
  8
0
 10
3658.0978696919110007
 20
354.3962905868978055
 30
0.0
 11
3656.8675547313100651
 21
354.3962905868978055
 31
0.0
  0
LINE
  5
C95F
  8
0
 10
3657.051609849309898
 20
354.4064673566978172
 30
0.0
 11
3657.9138145739098036
 21
354.4064673566978172
 31
0.0
  0
LINE
  5
C960
  8
0
 10
3657.0516098494108519
 20
354.4339220983978862
 30
0.0
 11
3657.9138145737101695
 21
354.4339220983978862
 31
0.0
  0
LINE
  5
C961
  8
0
 10
3657.4256255974100895
 20
354.4410046117977799
 30
0.0
 11
3657.4453106368100634
 21
354.4410046117977799
 31
0.0
  0
LINE
  5
C962
  8
0
 10
3657.5201137864100929
 20
354.4410046117977799
 30
0.0
 11
3657.5397988258109763
 21
354.4410046117977799
 31
0.0
  0
LINE
  5
C963
  8
0
 10
3657.0496413455111906
 20
354.4438119964978
 30
0.0
 11
3657.1098329799101521
 21
354.4438119964978
 31
0.0
  0
LINE
  5
C964
  8
0
 10
3657.8555914434100487
 20
354.4438119964978
 30
0.0
 11
3657.9157830778099196
 21
354.4438119964978
 31
0.0
  0
LINE
  5
C965
  8
0
 10
3657.0905122032099825
 20
354.4462684581977783
 30
0.0
 11
3657.0496413455111906
 21
354.4462684581977783
 31
0.0
  0
LINE
  5
C966
  8
0
 10
3657.8749122201111277
 20
354.4462684581977783
 30
0.0
 11
3657.9157830778099196
 21
354.4462684581977783
 31
0.0
  0
LINE
  5
C967
  8
0
 10
3657.1223346589099492
 20
354.4476721505977821
 30
0.0
 11
3657.4256255974100895
 21
354.4476721505977821
 31
0.0
  0
LINE
  5
C968
  8
0
 10
3657.4453106368100634
 20
354.4476721505977821
 30
0.0
 11
3657.5201137864100929
 21
354.4476721505977821
 31
0.0
  0
LINE
  5
C969
  8
0
 10
3657.5397988258109763
 20
354.4476721505977821
 30
0.0
 11
3657.8430897643102071
 21
354.4476721505977821
 31
0.0
  0
LINE
  5
C96A
  8
0
 10
3657.1086964636101584
 20
354.451883227697806
 30
0.0
 11
3657.8567279596099979
 21
354.451883227697806
 31
0.0
  0
LINE
  5
C96B
  8
0
 10
3657.9138145739098036
 20
354.4633168978978119
 30
0.0
 11
3657.051609849309898
 21
354.4633168978978119
 31
0.0
  0
LINE
  5
C96C
  8
0
 10
3656.8675547313100651
 20
354.4734936676978236
 30
0.0
 11
3658.0978696919110007
 21
354.4734936676978236
 31
0.0
  0
LINE
  5
C96D
  8
0
 10
3657.8430897643102071
 20
354.4476721505977821
 30
0.0
 11
3657.8555914434100487
 21
354.4438119964978
 31
0.0
  0
LINE
  5
C96E
  8
0
 10
3657.8567279596099979
 20
354.451883227697806
 30
0.0
 11
3657.8749122201111277
 21
354.4462684581977783
 31
0.0
  0
LINE
  5
C96F
  8
0
 10
3656.8675547313100651
 20
358.1181466566977747
 30
0.0
 11
3658.0978696919110007
 21
358.1181466566977747
 31
0.0
  0
ARC
  5
C970
  8
0
 10
3658.6441295345098297
 20
347.894024981597795
 30
0.0
 40
0.0196850394
 50
0.0
 51
76.4000000001129678
  0
ARC
  5
C971
  8
0
 10
3656.3212948888099163
 20
347.894024981597795
 30
0.0
 40
0.0196850394
 50
103.5999999998870038
 51
180.0
  0
ARC
  5
C972
  8
0
 10
3656.8675547313100651
 20
358.1083041369977877
 30
0.0
 40
0.0098425197
 50
90.0
 51
180.0
  0
ARC
  5
C973
  8
0
 10
3658.0978696919110007
 20
358.1083041369977877
 30
0.0
 40
0.0098425197
 50
0.0
 51
90.0
  0
ARC
  5
C974
  8
0
 10
3657.7240952550419024
 20
344.7022500110616079
 30
0.0
 40
3.4409535742221058
 50
94.0226052715486986
 51
104.4875142696330954
  0
ARC
  5
C975
  8
0
 10
3657.2413292588480545
 20
344.7022507900683763
 30
0.0
 40
3.440952790774007
 50
75.5124843678720197
 51
85.9773953245493345
  0
ARC
  5
C976
  8
0
 10
3656.8659963155591868
 20
354.4537524782056721
 30
0.0
 40
0.0198026064500363
 50
85.4862976979609783
 51
114.729451767603905
  0
ARC
  5
C977
  8
0
 10
3656.8674491109468363
 20
354.4241812354730996
 30
0.0
 40
0.0278908485638519
 50
249.5672755836575902
 51
270.2169749508092877
  0
ARC
  5
C978
  8
0
 10
3658.099406148513026
 20
354.4536292983132171
 30
0.0
 40
0.019923701210846
 50
65.3613791249765654
 51
94.4228714094738137
  0
ARC
  5
C979
  8
0
 10
3658.0975230232970716
 20
354.426718351529928
 30
0.0
 40
0.0304297393947611
 50
270.6527521596129873
 51
289.5629973059860731
  0
ARC
  5
C97A
  8
0
 10
3656.9341801766909157
 20
354.4221762464954963
 30
0.0
 40
0.0290276894161731
 50
99.8126914416391315
 51
146.8478875999859952
  0
ARC
  5
C97B
  8
0
 10
3657.0410710948799533
 20
353.9626691464193868
 30
0.0
 40
0.5007586608390584
 50
88.7940882896484425
 51
102.9051194199115002
  0
ARC
  5
C97C
  8
0
 10
3656.9341801766909157
 20
354.4476080081000759
 30
0.0
 40
0.0290276894161731
 50
213.1521124000140048
 51
260.1873085583608827
  0
ARC
  5
C97D
  8
0
 10
3657.0410710948799533
 20
354.9071151081761855
 30
0.0
 40
0.5007586608390584
 50
257.0948805800884998
 51
271.205911710351586
  0
LINE
  5
C97E
  8
0
 10
3658.0555468572101745
 20
354.4380504351977947
 30
0.0
 11
3658.0555468572101745
 21
354.4317338193977776
 31
0.0
  0
ARC
  5
C97F
  8
0
 10
3658.0312442465301501
 20
354.4221762464954963
 30
0.0
 40
0.0290276894161731
 50
33.1521124000139693
 51
80.1873085583608685
  0
ARC
  5
C980
  8
0
 10
3657.9243533283411125
 20
353.9626691464193868
 30
0.0
 40
0.5007586608390584
 50
77.094880580088514
 51
91.2059117103515575
  0
ARC
  5
C981
  8
0
 10
3658.0312442465301501
 20
354.4476080081000759
 30
0.0
 40
0.0290276894161731
 50
279.8126914416391173
 51
326.8478875999861089
  0
ARC
  5
C982
  8
0
 10
3657.9243533283411125
 20
354.9071151081761855
 30
0.0
 40
0.5007586608390584
 50
268.794088289648414
 51
282.9051194199115002
  0
ARC
  5
C983
  8
0
 10
3657.0351748626148947
 20
354.714763001537392
 30
0.0
 40
0.2813213850158186
 50
249.0731497944229886
 51
273.3491653867139917
  0
ARC
  5
C984
  8
0
 10
3657.9300894308171337
 20
354.7157987085881814
 30
0.0
 40
0.2823460542424608
 50
266.6955523118808173
 51
290.8821325894152778
  0
ARC
  5
C985
  8
0
 10
3657.0390591141849654
 20
354.75117894566921
 30
0.0
 40
0.3075490612288712
 50
253.8720598348650128
 51
271.9718379031772884
  0
ARC
  5
C986
  8
0
 10
3657.9262803235278625
 20
354.7518633869361224
 30
0.0
 40
0.308230192094572
 50
268.0483281105499032
 51
286.1077741913986756
  0
ARC
  5
C987
  8
0
 10
3657.0395784384850231
 20
354.6953782258287902
 30
0.0
 40
0.2493129326745453
 50
252.5249103778427866
 51
272.3132324527209107
  0
ARC
  5
C988
  8
0
 10
3657.9258667043541209
 20
354.6952225415691942
 30
0.0
 40
0.2491582131931679
 50
267.6805618105764211
 51
287.4812955537294101
  0
ENDSEC
  0
EOF
