  0
SECTION
  2
HEADER
  9
$ACADVER
  1
AC1009
  9
$INSBASE
 10
3894.7960896907038659
 20
215.9944839374994956
 30
0.0
  9
$EXTMIN
 10
3887.452748855594109
 20
215.9890460193649062
 30
0.0
  9
$EXTMAX
 10
3895.7409715817548204
 20
227.2110195222246887
 30
0.0
  9
$LIMMIN
 10
0.0
 20
0.0
  9
$LIMMAX
 10
11.6929133858000007
 20
8.2677165353999982
  9
$ORTHOMODE
 70
     0
  9
$REGENMODE
 70
     1
  9
$FILLMODE
 70
     1
  9
$QTEXTMODE
 70
     0
  9
$MIRRTEXT
 70
     0
  9
$DRAGMODE
 70
     2
  9
$LTSCALE
 40
0.6431102362
  9
$OSMODE
 70
  3839
  9
$ATTMODE
 70
     1
  9
$TEXTSIZE
 40
0.2
  9
$TRACEWID
 40
0.05
  9
$TEXTSTYLE
  7
STANDARD
  9
$CLAYER
  8
0
  9
$CELTYPE
  6
BYLAYER
  9
$CECOLOR
 62
   256
  9
$DIMSCALE
 40
1.0
  9
$DIMASZ
 40
0.1875
  9
$DIMEXO
 40
0.0625
  9
$DIMDLI
 40
0.4443307087
  9
$DIMRND
 40
0.0
  9
$DIMDLE
 40
0.0
  9
$DIMEXE
 40
0.125
  9
$DIMTP
 40
0.01
  9
$DIMTM
 40
0.01
  9
$DIMTXT
 40
2.0
  9
$DIMCEN
 40
0.1052362205
  9
$DIMTSZ
 40
0.0
  9
$DIMTOL
 70
     1
  9
$DIMLIM
 70
     0
  9
$DIMTIH
 70
     1
  9
$DIMTOH
 70
     1
  9
$DIMSE1
 70
     0
  9
$DIMSE2
 70
     0
  9
$DIMTAD
 70
     0
  9
$DIMZIN
 70
     0
  9
$DIMBLK
  1

  9
$DIMASO
 70
     1
  9
$DIMSHO
 70
     1
  9
$DIMPOST
  1
\X
  9
$DIMAPOST
  1

  9
$DIMALT
 70
     1
  9
$DIMALTD
 70
     2
  9
$DIMALTF
 40
25.3999999999999986
  9
$DIMLFAC
 40
1.0
  9
$DIMTOFL
 70
     0
  9
$DIMTVP
 40
0.0
  9
$DIMTIX
 70
     0
  9
$DIMSOXD
 70
     0
  9
$DIMSAH
 70
     0
  9
$DIMBLK1
  1

  9
$DIMBLK2
  1

  9
$DIMSTYLE
  2
STANDARD
  9
$DIMCLRD
 70
     0
  9
$DIMCLRE
 70
     0
  9
$DIMCLRT
 70
     0
  9
$DIMTFAC
 40
1.0
  9
$DIMGAP
 40
0.09
  9
$LUNITS
 70
     2
  9
$LUPREC
 70
     4
  9
$SKETCHINC
 40
0.1
  9
$FILLETRAD
 40
0.0
  9
$AUNITS
 70
     0
  9
$AUPREC
 70
     0
  9
$MENU
  1
.
  9
$ELEVATION
 40
0.0
  9
$PELEVATION
 40
0.0
  9
$THICKNESS
 40
0.0
  9
$LIMCHECK
 70
     0
  9
$BLIPMODE
 70
     0
  9
$CHAMFERA
 40
0.0
  9
$CHAMFERB
 40
0.0
  9
$SKPOLY
 70
     0
  9
$TDCREATE
 40
2458060.468368056230247
  9
$TDUPDATE
 40
2459016.7029050919227302
  9
$TDINDWG
 40
0.5305857639
  9
$TDUSRTIMER
 40
0.5305857639
  9
$USRTIMER
 70
     1
  9
$ANGBASE
 50
0.0
  9
$ANGDIR
 70
     0
  9
$PDMODE
 70
     0
  9
$PDSIZE
 40
0.3125
  9
$PLINEWID
 40
0.0
  9
$COORDS
 70
     1
  9
$SPLFRAME
 70
     0
  9
$SPLINETYPE
 70
     6
  9
$SPLINESEGS
 70
     8
  9
$ATTDIA
 70
     1
  9
$ATTREQ
 70
     1
  9
$HANDLING
 70
     1
  9
$HANDSEED
  5
9157
  9
$SURFTAB1
 70
     6
  9
$SURFTAB2
 70
     6
  9
$SURFTYPE
 70
     6
  9
$SURFU
 70
     6
  9
$SURFV
 70
     6
  9
$UCSNAME
  2

  9
$UCSORG
 10
0.0
 20
0.0
 30
0.0
  9
$UCSXDIR
 10
1.0
 20
0.0
 30
0.0
  9
$UCSYDIR
 10
0.0
 20
1.0
 30
0.0
  9
$PUCSNAME
  2

  9
$PUCSORG
 10
0.0
 20
0.0
 30
0.0
  9
$PUCSXDIR
 10
1.0
 20
0.0
 30
0.0
  9
$PUCSYDIR
 10
0.0
 20
1.0
 30
0.0
  9
$USERI1
 70
     0
  9
$USERI2
 70
     0
  9
$USERI3
 70
     0
  9
$USERI4
 70
     0
  9
$USERI5
 70
     0
  9
$USERR1
 40
0.0
  9
$USERR2
 40
0.0
  9
$USERR3
 40
0.0
  9
$USERR4
 40
0.0
  9
$USERR5
 40
0.0
  9
$WORLDVIEW
 70
     1
  9
$SHADEDGE
 70
     3
  9
$SHADEDIF
 70
    70
  9
$TILEMODE
 70
     1
  9
$MAXACTVP
 70
    64
  9
$PLIMCHECK
 70
     0
  9
$PEXTMIN
 10
1.0000000000000000E+20
 20
1.0000000000000000E+20
 30
1.0000000000000000E+20
  9
$PEXTMAX
 10
-1.0000000000000000E+20
 20
-1.0000000000000000E+20
 30
-1.0000000000000000E+20
  9
$PLIMMIN
 10
0.0
 20
0.0
  9
$PLIMMAX
 10
12.0
 20
9.0
  9
$UNITMODE
 70
     0
  9
$VISRETAIN
 70
     1
  9
$PLINEGEN
 70
     0
  9
$PSLTSCALE
 70
     1
  0
ENDSEC
  0
SECTION
  2
TABLES
  0
TABLE
  2
VPORT
 70
     1
  0
VPORT
  2
*ACTIVE
 70
     0
 10
0.0
 20
0.0
 11
1.0
 21
1.0
 12
6.4727182122505509
 22
2.004616369416119
 13
0.0
 23
0.0
 14
1.0
 24
1.0
 15
0.0
 25
0.0
 16
0.0
 26
0.0
 36
39.2658501705266687
 17
3891.596923828125
 27
221.6000299066550951
 37
0.0
 40
17.9663742108919706
 41
2.3528591352859132
 42
50.0
 43
0.0
 44
0.0
 50
0.0
 51
0.0
 71
     0
 72
   100
 73
     1
 74
     1
 75
     0
 76
     0
 77
     0
 78
     0
  0
ENDTAB
  0
TABLE
  2
LTYPE
 70
     2
  0
LTYPE
  2
CONTINUOUS
 70
     0
  3
Solid line
 72
    65
 73
     0
 40
0.0
  0
LTYPE
  2
PHANTOM2
 70
     0
  3
___ _ _ ___ _ _ ___ _ _ ___ _ _
 72
    65
 73
     6
 40
1.25
 49
0.625
 49
-0.125
 49
0.125
 49
-0.125
 49
0.125
 49
-0.125
  0
ENDTAB
  0
TABLE
  2
LAYER
 70
     2
  0
LAYER
  2
0
 70
     0
 62
   255
  6
CONTINUOUS
  0
LAYER
  2
DEFPOINTS
 70
     0
 62
     7
  6
CONTINUOUS
  0
ENDTAB
  0
TABLE
  2
STYLE
 70
     1
  0
STYLE
  2
STANDARD
 70
     0
 40
0.0
 41
0.8
 50
0.0
 71
     0
 42
0.2
  3
txt
  4

  0
ENDTAB
  0
TABLE
  2
VIEW
 70
     0
  0
ENDTAB
  0
TABLE
  2
UCS
 70
     0
  0
ENDTAB
  0
TABLE
  2
APPID
 70
     9
  0
APPID
  2
ACAD
 70
     0
  0
APPID
  2
ACAD_MLEADERVER
 70
     0
  0
APPID
  2
ACAD_EXEMPT_FROM_CAD_STANDARDS
 70
     0
  0
APPID
  2
ACAD_NAV_VCDISPLAY
 70
     0
  0
APPID
  2
ACAECLAYERSTANDARD
 70
     0
  0
APPID
  2
ACCMTRANSPARENCY
 70
     0
  0
APPID
  2
ACAD_DSTYLE_DIMJAG
 70
     0
  0
APPID
  2
ACAD_DSTYLE_DIMTALN
 70
     0
  0
APPID
  2
ACDBATTR
 70
     0
  0
ENDTAB
  0
TABLE
  2
DIMSTYLE
 70
     1
  0
DIMSTYLE
  2
STANDARD
 70
     0
  3

  4

  5

  6

  7

 40
1.0
 41
0.1875
 42
0.0625
 43
0.38
 44
0.125
 45
0.0
 46
0.0
 47
0.01
 48
0.01
140
0.15625
141
0.09
142
0.0
143
25.3999999999999986
144
1.0
145
0.0
146
1.0
147
0.09
 71
     1
 72
     0
 73
     1
 74
     1
 75
     0
 76
     0
 77
     0
 78
     4
170
     0
171
     2
172
     0
173
     0
174
     0
175
     0
176
     0
177
     0
178
     0
  0
ENDTAB
  0
ENDSEC
  0
SECTION
  2
BLOCKS
  0
BLOCK
  8
0
  2
$MODEL_SPACE
 70
     0
 10
0.0
 20
0.0
 30
0.0
  3
$MODEL_SPACE
  1

  0
ENDBLK
  5
21
  8
0
  0
BLOCK
 67
     1
  8
0
  2
$PAPER_SPACE
 70
     0
 10
0.0
 20
0.0
 30
0.0
  3
$PAPER_SPACE
  1

  0
ENDBLK
  5
1D
 67
     1
  8
0
  0
BLOCK
  8
0
  2
_FILLED
 70
     0
 10
0.0
 20
0.0
 30
0.0
  3
_FILLED
  1

  0
SOLID
  5
6F59
  8
0
  6
BYBLOCK
 62
     0
 10
0.0
 20
0.0
 30
0.0
 11
-1.0
 21
0.1666666667
 31
0.0
 12
-1.0
 22
-0.1666666667
 32
0.0
 13
-1.0
 23
-0.1666666667
 33
0.0
  0
ENDBLK
  5
6F5A
  8
0
  6
BYBLOCK
 62
     0
  0
ENDSEC
  0
SECTION
  2
ENTITIES
  0
ATTDEF
  5
3930
  8
DEFPOINTS
 10
3894.7966122309280763
 20
215.9923793526982081
 30
0.0
 40
0.001
  1
K-77959T-4AND
  3

  2
MODELNUMBER
 70
     0
1001
ACDBATTR
1070
     0
1070
     1
  0
ATTDEF
  5
3931
  8
DEFPOINTS
 10
3894.7966122309280763
 20
215.9907126860315998
 30
0.0
 40
0.001
  1
COMPONENTS
  3

  2
TRADENAME
 70
     0
1001
ACDBATTR
1070
     0
1070
     1
  0
ATTDEF
  5
3932
  8
DEFPOINTS
 10
3894.7966122309280763
 20
215.9890460193649062
 30
0.0
 40
0.001
  1
BATHROOM SINK FAUCET
  3

  2
PRODUCT
 70
     0
1001
ACDBATTR
1070
     0
1070
     1
  0
ARC
  5
8F71
  8
0
 10
3893.9987664539821708
 20
227.1914134652697044
 30
0.0
 40
0.0196060569550433
 50
89.7677652267107504
 51
180.2313128727521132
  0
ARC
  5
8F72
  8
0
 10
3893.9890030764690891
 20
226.9059012416643952
 30
0.0
 40
0.0098425196471332
 50
180.0000005170830093
 51
269.9215760408549727
  0
ARC
  5
8F73
  8
0
 10
3895.6031821666260839
 20
226.9058953879126079
 30
0.0
 40
0.00983665961931
 50
270.044327975725821
 51
0.0340959448263853
  0
LINE
  5
8F74
  8
0
 10
3895.6130188245037971
 20
226.9059012415756058
 30
0.0
 11
3895.6130188245037971
 21
227.1913343124755897
 31
0.0
  0
ARC
  5
8F75
  8
0
 10
3895.5934055505131255
 20
227.1914060883376862
 30
0.0
 40
0.0196134053245323
 50
359.79032385868652
 51
90.2105977508059595
  0
ARC
  5
8F76
  8
0
 10
3895.0945574346751528
 20
224.2856729658547863
 30
0.0
 40
2.7839644900644429
 50
110.3393364227441964
 51
113.0721352005533049
  0
ARC
  5
8F77
  8
0
 10
3894.0065825901738208
 20
226.8398356424220879
 30
0.0
 40
0.0077375107564915
 50
113.0721352005552944
 51
180.6622089812512968
  0
LINE
  5
8F78
  8
0
 10
3893.9988455962038643
 20
226.8397462163756018
 30
0.0
 11
3893.9988455962038643
 21
226.8212555816371889
 31
0.0
  0
ARC
  5
8F79
  8
0
 10
3893.9986371068462176
 20
226.8017790080878058
 30
0.0
 40
0.0194776894172941
 50
89.3866937636588972
 51
180.6132646237919062
  0
LINE
  5
8F7A
  8
0
 10
3893.9791605331452047
 20
226.8015705328755871
 30
0.0
 11
3893.9791605331452047
 21
225.2267673927372016
 31
0.0
  0
LINE
  5
8F7B
  8
0
 10
3893.9791605331452047
 20
224.2191024861839139
 30
0.0
 11
3893.9791605331452047
 21
216.1992083281755868
 31
0.0
  0
ARC
  5
8F7C
  8
0
 10
3894.0002422581151222
 20
216.2006050255569107
 30
0.0
 40
0.0211279410089072
 50
183.7903961421523888
 51
266.2097002578898923
  0
ARC
  5
8F7D
  8
0
 10
3893.971635064603106
 20
216.159947162882105
 30
0.0
 40
0.0195761395715211
 50
89.9623953181360889
 51
103.5378435302229008
  0
LINE
  5
8F7E
  8
0
 10
3893.9670525339029155
 20
216.178979389575602
 30
0.0
 11
3893.8587517761211529
 21
216.1529824400122095
 31
0.0
  0
ARC
  5
8F7F
  8
0
 10
3893.8610487970549912
 20
216.1434132747035903
 30
0.0
 40
0.0098409974025514
 50
103.4981182010515965
 51
180.0288879345062014
  0
LINE
  5
8F80
  8
0
 10
3893.851207800903012
 20
216.1434083129755948
 30
0.0
 11
3893.8512077996529115
 21
215.9944839374994956
 31
0.0
  0
LINE
  5
8F81
  8
0
 10
3893.8512077996529115
 20
215.9944839374994956
 30
0.0
 11
3895.7409715817548204
 21
215.9944839374994956
 31
0.0
  0
ARC
  5
8F82
  8
0
 10
3894.4976219467321243
 20
224.2856729658547863
 30
0.0
 40
2.7839644900644429
 50
66.9278647994466525
 51
69.660663577255761
  0
ARC
  5
8F83
  8
0
 10
3895.5855967912339111
 20
226.8398356424220879
 30
0.0
 40
0.0077375107564915
 50
359.3377910187485895
 51
66.927864799444734
  0
LINE
  5
8F84
  8
0
 10
3895.5933337852038676
 20
226.8397462163756018
 30
0.0
 11
3895.5933337852038676
 21
226.8212555816371889
 31
0.0
  0
ARC
  5
8F85
  8
0
 10
3895.5933790465528546
 20
226.8016157799609971
 30
0.0
 40
0.0196398538301622
 50
359.867999561171473
 51
90.1320420513940661
  0
LINE
  5
8F86
  8
0
 10
3895.6130188482620724
 20
226.8015705328755871
 30
0.0
 11
3895.613018842107067
 21
216.1991927499065866
 31
0.0
  0
ARC
  5
8F88
  8
0
 10
3895.593333828689083
 20
216.1992083178107862
 30
0.0
 40
0.0196850195735775
 50
269.9998734306915935
 51
359.9546918928032824
  0
ARC
  5
8F89
  8
0
 10
3895.6205343453329988
 20
216.1598629158525
 30
0.0
 40
0.0196603825951929
 50
76.4913772233004465
 51
90.0083839283415159
  0
LINE
  5
8F8A
  8
0
 10
3895.6251268475039069
 20
216.178979389575602
 30
0.0
 11
3895.7334276052870337
 21
216.1529824400122095
 31
0.0
  0
ARC
  5
8F8B
  8
0
 10
3895.7311305843518312
 20
216.1434132747035903
 30
0.0
 40
0.0098409974025514
 50
359.9711120654937986
 51
76.5018817989488014
  0
LINE
  5
8F8C
  8
0
 10
3895.7409715805038104
 20
216.1434083129755948
 30
0.0
 11
3895.7409715817548204
 21
215.9944839374994956
 31
0.0
  0
ARC
  5
8F8D
  8
0
 10
3893.1587269176889095
 20
227.0535150723464994
 30
0.0
 40
0.8270436780511797
 50
352.7512170869466104
 51
7.2487829228731169
  0
ARC
  5
8F8E
  8
0
 10
3891.2227491954231482
 20
227.1322808564673039
 30
0.0
 40
0.0196833867393026
 50
89.9951891153303052
 51
180.0048379873614977
  0
LINE
  5
8F8F
  8
0
 10
3891.2030658087528536
 20
227.1322791944255926
 30
0.0
 11
3891.2030725834529221
 21
226.9747988795712956
 31
0.0
  0
ARC
  5
8F90
  8
0
 10
3891.2227566275978461
 20
226.9747978926586995
 30
0.0
 40
0.019684044169917
 50
179.9971273216328029
 51
269.9831773488606927
  0
ARC
  5
8F91
  8
0
 10
3889.3230533014611865
 20
223.1612906345970941
 30
0.0
 40
2.065476845421983
 50
89.9833432813444318
 51
135.0132535929323012
  0
LINE
  5
8F92
  8
0
 10
3887.8622028126660553
 20
224.6214654352152991
 30
0.0
 11
3887.4585153042889942
 21
224.2178263051906981
 31
0.0
  0
ARC
  5
8F93
  8
0
 10
3887.4724338950200035
 20
224.2039060462406894
 30
0.0
 40
0.0196850394251703
 50
134.9965665998026907
 51
224.9965667017964961
  0
LINE
  5
8F94
  8
0
 10
3887.4585136360938122
 20
224.1899874554848964
 30
0.0
 11
3888.1295477126668629
 21
223.5180845914252075
 31
0.0
  0
ARC
  5
8F95
  8
0
 10
3888.1407505972729268
 20
223.52777116791151
 30
0.0
 40
0.0148099421854316
 50
220.8483394182186998
 51
269.0288493590650205
  0
ARC
  5
8F96
  8
0
 10
3888.1382252407779561
 20
223.5384208623206064
 30
0.0
 40
0.0255589008749318
 50
275.1051827305784059
 51
309.3900905870301017
  0
LINE
  5
8F97
  8
0
 10
3888.154444838965901
 20
223.5186678360074097
 30
0.0
 11
3888.5581323828128006
 21
223.8875722508182946
 31
0.0
  0
ARC
  5
8F98
  8
0
 10
3889.4152656905871481
 20
222.9579848470343961
 30
0.0
 40
1.2644406860626769
 50
94.1548159936306632
 51
132.677845997261187
  0
ARC
  5
8F99
  8
0
 10
3893.284497890061175
 20
224.7229349394606004
 30
0.0
 40
0.8581394575896808
 50
324.0469668908374956
 51
35.9530331091624475
  0
LINE
  5
8FAD
  8
0
 10
3893.9791605568029809
 20
227.1913343124755897
 30
0.0
 11
3893.9791605568029809
 21
227.157869704316397
 31
0.0
  0
LINE
  5
8FAE
  8
0
 10
3893.9791605568211708
 20
226.9059012432506108
 30
0.0
 11
3893.9791605568211708
 21
226.949160440517403
 31
0.0
  0
LINE
  5
8FAF
  8
0
 10
3893.8512078008989192
 20
216.1434083223371942
 30
0.0
 11
3895.7409715805079031
 21
216.1434083223371942
 31
0.0
  0
LINE
  5
8FB0
  8
0
 10
3893.9716479129219806
 20
216.1795232982371999
 30
0.0
 11
3895.6205314684848418
 21
216.1795232982371999
 31
0.0
  0
LINE
  5
8FB1
  8
0
 10
3893.9988459222390702
 20
227.2110193611717079
 30
0.0
 11
3895.5933334591691164
 21
227.2110193611717079
 31
0.0
  0
LINE
  5
8FB2
  8
0
 10
3893.9889896044619491
 20
226.8960587312371899
 30
0.0
 11
3895.6031897769448733
 21
226.8960587312371899
 31
0.0
  0
LINE
  5
8FB3
  8
0
 10
3893.9988455962038643
 20
226.8212555816371889
 30
0.0
 11
3895.5933337852038676
 21
226.8212555816371889
 31
0.0
  0
LINE
  5
8FB6
  8
0
 10
3889.3236537656939618
 20
225.2267673927372016
 30
0.0
 11
3893.9791605331452047
 21
225.2267673927372016
 31
0.0
  0
LINE
  5
8FB7
  8
0
 10
3889.3236548353538637
 20
224.2191024861839139
 30
0.0
 11
3893.9791605331452047
 21
224.2191024861839139
 31
0.0
  0
LINE
  5
8FB8
  8
0
 10
3891.2227491954231482
 20
227.1519642431372006
 30
0.0
 11
3893.9798901208191637
 21
227.1519642431372006
 31
0.0
  0
LINE
  5
8FB9
  8
0
 10
3891.2227508481469158
 20
226.9551138493372946
 30
0.0
 11
3893.9798958678538838
 21
226.9551138493372946
 31
0.0
  0
ENDSEC
  0
EOF
