  0
SECTION
  2
HEADER
  9
$ACADVER
  1
AC1009
  9
$INSBASE
 10
3867.2817418249292132
 20
212.6307665356926009
 30
0.0
  9
$EXTMIN
 10
3866.336859933877804
 20
212.6256684433423061
 30
0.0
  9
$EXTMAX
 10
3868.2266237159801676
 20
223.8473019593953097
 30
0.0
  9
$LIMMIN
 10
0.0
 20
0.0
  9
$LIMMAX
 10
11.6929133858000007
 20
8.2677165353999982
  9
$ORTHOMODE
 70
     0
  9
$REGENMODE
 70
     1
  9
$FILLMODE
 70
     1
  9
$QTEXTMODE
 70
     0
  9
$MIRRTEXT
 70
     0
  9
$DRAGMODE
 70
     2
  9
$LTSCALE
 40
0.6431102362
  9
$OSMODE
 70
  3839
  9
$ATTMODE
 70
     1
  9
$TEXTSIZE
 40
0.2
  9
$TRACEWID
 40
0.05
  9
$TEXTSTYLE
  7
STANDARD
  9
$CLAYER
  8
0
  9
$CELTYPE
  6
BYLAYER
  9
$CECOLOR
 62
   256
  9
$DIMSCALE
 40
1.0
  9
$DIMASZ
 40
0.1875
  9
$DIMEXO
 40
0.0625
  9
$DIMDLI
 40
0.4443307087
  9
$DIMRND
 40
0.0
  9
$DIMDLE
 40
0.0
  9
$DIMEXE
 40
0.125
  9
$DIMTP
 40
0.01
  9
$DIMTM
 40
0.01
  9
$DIMTXT
 40
2.0
  9
$DIMCEN
 40
0.1052362205
  9
$DIMTSZ
 40
0.0
  9
$DIMTOL
 70
     1
  9
$DIMLIM
 70
     0
  9
$DIMTIH
 70
     1
  9
$DIMTOH
 70
     1
  9
$DIMSE1
 70
     0
  9
$DIMSE2
 70
     0
  9
$DIMTAD
 70
     0
  9
$DIMZIN
 70
     0
  9
$DIMBLK
  1

  9
$DIMASO
 70
     1
  9
$DIMSHO
 70
     1
  9
$DIMPOST
  1
\X
  9
$DIMAPOST
  1

  9
$DIMALT
 70
     1
  9
$DIMALTD
 70
     2
  9
$DIMALTF
 40
25.3999999999999986
  9
$DIMLFAC
 40
1.0
  9
$DIMTOFL
 70
     0
  9
$DIMTVP
 40
0.0
  9
$DIMTIX
 70
     0
  9
$DIMSOXD
 70
     0
  9
$DIMSAH
 70
     0
  9
$DIMBLK1
  1

  9
$DIMBLK2
  1

  9
$DIMSTYLE
  2
STANDARD
  9
$DIMCLRD
 70
     0
  9
$DIMCLRE
 70
     0
  9
$DIMCLRT
 70
     0
  9
$DIMTFAC
 40
1.0
  9
$DIMGAP
 40
0.09
  9
$LUNITS
 70
     2
  9
$LUPREC
 70
     4
  9
$SKETCHINC
 40
0.1
  9
$FILLETRAD
 40
0.0
  9
$AUNITS
 70
     0
  9
$AUPREC
 70
     0
  9
$MENU
  1
.
  9
$ELEVATION
 40
0.0
  9
$PELEVATION
 40
0.0
  9
$THICKNESS
 40
0.0
  9
$LIMCHECK
 70
     0
  9
$BLIPMODE
 70
     0
  9
$CHAMFERA
 40
0.0
  9
$CHAMFERB
 40
0.0
  9
$SKPOLY
 70
     0
  9
$TDCREATE
 40
2458060.468368056230247
  9
$TDUPDATE
 40
2459016.703425926156342
  9
$TDINDWG
 40
0.5337917824
  9
$TDUSRTIMER
 40
0.5337917824
  9
$USRTIMER
 70
     1
  9
$ANGBASE
 50
0.0
  9
$ANGDIR
 70
     0
  9
$PDMODE
 70
     0
  9
$PDSIZE
 40
0.3125
  9
$PLINEWID
 40
0.0
  9
$COORDS
 70
     1
  9
$SPLFRAME
 70
     0
  9
$SPLINETYPE
 70
     6
  9
$SPLINESEGS
 70
     8
  9
$ATTDIA
 70
     1
  9
$ATTREQ
 70
     1
  9
$HANDLING
 70
     1
  9
$HANDSEED
  5
9614
  9
$SURFTAB1
 70
     6
  9
$SURFTAB2
 70
     6
  9
$SURFTYPE
 70
     6
  9
$SURFU
 70
     6
  9
$SURFV
 70
     6
  9
$UCSNAME
  2

  9
$UCSORG
 10
0.0
 20
0.0
 30
0.0
  9
$UCSXDIR
 10
1.0
 20
0.0
 30
0.0
  9
$UCSYDIR
 10
0.0
 20
1.0
 30
0.0
  9
$PUCSNAME
  2

  9
$PUCSORG
 10
0.0
 20
0.0
 30
0.0
  9
$PUCSXDIR
 10
1.0
 20
0.0
 30
0.0
  9
$PUCSYDIR
 10
0.0
 20
1.0
 30
0.0
  9
$USERI1
 70
     0
  9
$USERI2
 70
     0
  9
$USERI3
 70
     0
  9
$USERI4
 70
     0
  9
$USERI5
 70
     0
  9
$USERR1
 40
0.0
  9
$USERR2
 40
0.0
  9
$USERR3
 40
0.0
  9
$USERR4
 40
0.0
  9
$USERR5
 40
0.0
  9
$WORLDVIEW
 70
     1
  9
$SHADEDGE
 70
     3
  9
$SHADEDIF
 70
    70
  9
$TILEMODE
 70
     1
  9
$MAXACTVP
 70
    64
  9
$PLIMCHECK
 70
     0
  9
$PEXTMIN
 10
1.0000000000000000E+20
 20
1.0000000000000000E+20
 30
1.0000000000000000E+20
  9
$PEXTMAX
 10
-1.0000000000000000E+20
 20
-1.0000000000000000E+20
 30
-1.0000000000000000E+20
  9
$PLIMMIN
 10
0.0
 20
0.0
  9
$PLIMMAX
 10
12.0
 20
9.0
  9
$UNITMODE
 70
     0
  9
$VISRETAIN
 70
     1
  9
$PLINEGEN
 70
     0
  9
$PSLTSCALE
 70
     1
  0
ENDSEC
  0
SECTION
  2
TABLES
  0
TABLE
  2
VPORT
 70
     1
  0
VPORT
  2
*ACTIVE
 70
     0
 10
0.0
 20
0.0
 11
1.0
 21
1.0
 12
0.0
 22
0.0
 13
0.0
 23
0.0
 14
1.0
 24
1.0
 15
0.0
 25
0.0
 16
0.0
 26
0.0
 36
35.0982855024326099
 17
3867.2817382812509095
 27
218.2364868705969911
 37
0.0
 40
11.37962674747404
 41
2.3528591352859132
 42
50.0
 43
0.0
 44
0.0
 50
0.0
 51
0.0
 71
     0
 72
   100
 73
     1
 74
     1
 75
     0
 76
     0
 77
     0
 78
     0
  0
ENDTAB
  0
TABLE
  2
LTYPE
 70
     2
  0
LTYPE
  2
CONTINUOUS
 70
     0
  3
Solid line
 72
    65
 73
     0
 40
0.0
  0
LTYPE
  2
PHANTOM2
 70
     0
  3
___ _ _ ___ _ _ ___ _ _ ___ _ _
 72
    65
 73
     6
 40
1.25
 49
0.625
 49
-0.125
 49
0.125
 49
-0.125
 49
0.125
 49
-0.125
  0
ENDTAB
  0
TABLE
  2
LAYER
 70
     2
  0
LAYER
  2
0
 70
     0
 62
   255
  6
CONTINUOUS
  0
LAYER
  2
DEFPOINTS
 70
     0
 62
     7
  6
CONTINUOUS
  0
ENDTAB
  0
TABLE
  2
STYLE
 70
     1
  0
STYLE
  2
STANDARD
 70
     0
 40
0.0
 41
0.8
 50
0.0
 71
     0
 42
0.2
  3
txt
  4

  0
ENDTAB
  0
TABLE
  2
VIEW
 70
     0
  0
ENDTAB
  0
TABLE
  2
UCS
 70
     0
  0
ENDTAB
  0
TABLE
  2
APPID
 70
     9
  0
APPID
  2
ACAD
 70
     0
  0
APPID
  2
ACAD_MLEADERVER
 70
     0
  0
APPID
  2
ACAD_EXEMPT_FROM_CAD_STANDARDS
 70
     0
  0
APPID
  2
ACAD_NAV_VCDISPLAY
 70
     0
  0
APPID
  2
ACAECLAYERSTANDARD
 70
     0
  0
APPID
  2
ACCMTRANSPARENCY
 70
     0
  0
APPID
  2
ACAD_DSTYLE_DIMJAG
 70
     0
  0
APPID
  2
ACAD_DSTYLE_DIMTALN
 70
     0
  0
APPID
  2
ACDBATTR
 70
     0
  0
ENDTAB
  0
TABLE
  2
DIMSTYLE
 70
     1
  0
DIMSTYLE
  2
STANDARD
 70
     0
  3

  4

  5

  6

  7

 40
1.0
 41
0.1875
 42
0.0625
 43
0.38
 44
0.125
 45
0.0
 46
0.0
 47
0.01
 48
0.01
140
0.15625
141
0.09
142
0.0
143
25.3999999999999986
144
1.0
145
0.0
146
1.0
147
0.09
 71
     1
 72
     0
 73
     1
 74
     1
 75
     0
 76
     0
 77
     0
 78
     4
170
     0
171
     2
172
     0
173
     0
174
     0
175
     0
176
     0
177
     0
178
     0
  0
ENDTAB
  0
ENDSEC
  0
SECTION
  2
BLOCKS
  0
BLOCK
  8
0
  2
$MODEL_SPACE
 70
     0
 10
0.0
 20
0.0
 30
0.0
  3
$MODEL_SPACE
  1

  0
ENDBLK
  5
21
  8
0
  0
BLOCK
 67
     1
  8
0
  2
$PAPER_SPACE
 70
     0
 10
0.0
 20
0.0
 30
0.0
  3
$PAPER_SPACE
  1

  0
ENDBLK
  5
1D
 67
     1
  8
0
  0
BLOCK
  8
0
  2
_FILLED
 70
     0
 10
0.0
 20
0.0
 30
0.0
  3
_FILLED
  1

  0
SOLID
  5
6F59
  8
0
  6
BYBLOCK
 62
     0
 10
0.0
 20
0.0
 30
0.0
 11
-1.0
 21
0.1666666667
 31
0.0
 12
-1.0
 22
-0.1666666667
 32
0.0
 13
-1.0
 23
-0.1666666667
 33
0.0
  0
ENDBLK
  5
6F5A
  8
0
  6
BYBLOCK
 62
     0
  0
ENDSEC
  0
SECTION
  2
ENTITIES
  0
ATTDEF
  5
3930
  8
DEFPOINTS
 10
3867.2825002791669249
 20
212.629001776675608
 30
0.0
 40
0.001
  1
K-77959T-4AND
  3

  2
MODELNUMBER
 70
     0
1001
ACDBATTR
1070
     0
1070
     1
  0
ATTDEF
  5
3931
  8
DEFPOINTS
 10
3867.2825002791669249
 20
212.6273351100089997
 30
0.0
 40
0.001
  1
COMPONENTS
  3

  2
TRADENAME
 70
     0
1001
ACDBATTR
1070
     0
1070
     1
  0
ATTDEF
  5
3932
  8
DEFPOINTS
 10
3867.2825002791669249
 20
212.6256684433423061
 30
0.0
 40
0.001
  1
BATHROOM SINK FAUCET
  3

  2
PRODUCT
 70
     0
1001
ACDBATTR
1070
     0
1070
     1
  0
ARC
  5
9288
  8
0
 10
3866.4844977303259839
 20
223.8276169200736945
 30
0.0
 40
0.0196850392970515
 50
89.9985901571526199
 51
180.0000001262386036
  0
LINE
  5
9289
  8
0
 10
3866.4648126910287829
 20
223.8276169200302945
 30
0.0
 11
3866.4648126910469728
 21
223.5421838491303106
 31
0.0
  0
ARC
  5
928A
  8
0
 10
3866.4746520631078965
 20
223.5421806968778924
 30
0.0
 40
0.0098393725662335
 50
179.9816440775105093
 51
270.0584426414063159
  0
LINE
  5
928B
  8
0
 10
3866.4746586550791108
 20
223.5323413294302952
 30
0.0
 11
3868.0888249947788609
 21
223.5323413294302952
 31
0.0
  0
ARC
  5
928C
  8
0
 10
3868.0889256959640079
 20
223.5420865921965969
 30
0.0
 40
0.0097457480614675
 50
269.4282123227649777
 51
0.5717882594311537
  0
LINE
  5
928D
  8
0
 10
3868.0986709587291443
 20
223.5421838491303106
 30
0.0
 11
3868.0986709587291443
 21
223.8276169200302945
 31
0.0
  0
ARC
  5
928E
  8
0
 10
3868.0789865313831797
 20
223.8276175320399091
 30
0.0
 40
0.0196844273553366
 50
359.9982186136514883
 51
90.0031908119392057
  0
CIRCLE
  5
928F
  8
0
 10
3867.2817418249292132
 20
223.6898216444303102
 30
0.0
 40
0.0984251969000001
  0
ARC
  5
9290
  8
0
 10
3867.5802095689000453
 20
220.9219555734096048
 30
0.0
 40
2.7839644900644429
 50
110.3393369770527954
 51
113.0721352005533049
  0
ARC
  5
9291
  8
0
 10
3866.492234724399168
 20
223.4761182499767074
 30
0.0
 40
0.0077375107564915
 50
113.0721352005552944
 51
180.6622089812512968
  0
LINE
  5
9292
  8
0
 10
3866.4844977304292115
 20
223.4760288239303065
 30
0.0
 11
3866.4844977304292115
 21
223.4575381798302942
 31
0.0
  0
LINE
  5
9293
  8
0
 10
3868.0789859194292148
 20
223.4575381798302942
 30
0.0
 11
3866.4844977304292115
 21
223.4575381798302942
 31
0.0
  0
ARC
  5
9294
  8
0
 10
3866.484497747297155
 20
223.4378531000020871
 30
0.0
 40
0.0196850799269125
 50
89.9942610395324465
 51
179.9998879155886868
  0
LINE
  5
9295
  8
0
 10
3866.4648126673700972
 20
223.4378531385108886
 30
0.0
 11
3866.4648126673700972
 21
212.8354909357302915
 31
0.0
  0
ARC
  5
9296
  8
0
 10
3866.4844977067268701
 20
212.8354909356862947
 30
0.0
 40
0.019685039356089
 50
179.9999998721492034
 51
270.0000689885999918
  0
LINE
  5
9297
  8
0
 10
3868.1061829531290641
 20
212.8158058964303052
 30
0.0
 11
3866.4573006967289075
 21
212.8158058964303052
 31
0.0
  0
ARC
  5
9298
  8
0
 10
3866.4573006967289075
 20
212.7961153899886142
 30
0.0
 40
0.0196905064416786
 50
90.0
 51
103.4981182010511986
  0
LINE
  5
9299
  8
0
 10
3866.4527046681291722
 20
212.8152619971303068
 30
0.0
 11
3866.3444039103460454
 21
212.7892650475668859
 31
0.0
  0
ARC
  5
929A
  8
0
 10
3866.3467009312807932
 20
212.7796958822584088
 30
0.0
 40
0.0098409974025514
 50
103.4981182010515965
 51
180.0288879345062014
  0
LINE
  5
929B
  8
0
 10
3866.336859935128814
 20
212.7796909205302995
 30
0.0
 11
3866.336859935128814
 21
212.6307665356926009
 31
0.0
  0
LINE
  5
929C
  8
0
 10
3866.336859935128814
 20
212.6307665356926009
 30
0.0
 11
3868.2266237147291577
 21
212.6307665356926009
 31
0.0
  0
LINE
  5
929D
  8
0
 10
3866.336859935128814
 20
212.7796909205302995
 30
0.0
 11
3868.2266237147291577
 21
212.7796909205302995
 31
0.0
  0
ARC
  5
929E
  8
0
 10
3867.2817418249292132
 20
221.3709240066303039
 30
0.0
 40
0.4921259842999995
 50
0.0
 51
180.0
  0
LINE
  5
929F
  8
0
 10
3866.7896158406288123
 20
221.3709240066303039
 30
0.0
 11
3866.7896158406288123
 21
220.5061024398303005
 31
0.0
  0
ARC
  5
92A0
  8
0
 10
3867.1183781179920516
 20
220.5285974586055033
 30
0.0
 40
0.3295309710579898
 50
183.9142686518489995
 51
235.7923383048720041
  0
ARC
  5
92A1
  8
0
 10
3867.2867618318741734
 20
220.7878965801330082
 30
0.0
 40
0.6386703580139989
 50
236.377458350366112
 51
269.5496453386525104
  0
ARC
  5
92A2
  8
0
 10
3867.1160943549698459
 20
220.4801695870947071
 30
0.0
 40
0.3275068444741812
 50
123.5870359014198954
 51
175.4584152570359947
  0
ARC
  5
92A3
  8
0
 10
3867.2764302735049569
 20
220.234767191631704
 30
0.0
 40
0.6206406217563503
 50
89.5096466719817982
 51
123.3848521978992068
  0
ARC
  5
92A4
  8
0
 10
3867.2840429678240071
 20
220.2245207062821066
 30
0.0
 40
0.5779903248165568
 50
90.2281112997274022
 51
118.0785558907183059
  0
ARC
  5
92A5
  8
0
 10
3867.124661088610992
 20
220.4819519647822972
 30
0.0
 40
0.276525023195764
 50
114.0441730848323942
 51
176.435701834761602
  0
ARC
  5
92A6
  8
0
 10
3867.1432656558299641
 20
220.5232155664612037
 30
0.0
 40
0.29557658408199
 50
184.6714711000599038
 51
246.876640601146903
  0
ARC
  5
92A7
  8
0
 10
3867.2788973167898803
 20
220.7636986052376926
 30
0.0
 40
0.5708082443686116
 50
243.8343414247391934
 51
270.2855231809849101
  0
ARC
  5
92A8
  8
0
 10
3867.1906795030758985
 20
220.7767232853736061
 30
0.0
 40
0.3595815404918153
 50
208.9231373738134039
 51
247.5226167891563023
  0
ARC
  5
92A9
  8
0
 10
3867.2897848852298921
 20
221.0162522300967112
 30
0.0
 40
0.6188034379692146
 50
247.5226167891563023
 51
269.2552620784869077
  0
ARC
  5
92AA
  8
0
 10
3867.154140725715024
 20
220.7704875302376024
 30
0.0
 40
0.1979149621481823
 50
198.2376160705570101
 51
225.6047724410520061
  0
ARC
  5
92AB
  8
0
 10
3867.0040933176278486
 20
220.630845498674006
 30
0.0
 40
0.0117204285614226
 50
295.9860198390574055
 51
351.2926123962582778
  0
LINE
  5
92AC
  8
0
 10
3867.0092286448289087
 20
220.6203099939303058
 30
0.0
 11
3866.9818160764289132
 21
220.6067366287302889
 31
0.0
  0
LINE
  5
92AD
  8
0
 10
3866.9818160764289132
 20
220.6067366287302889
 30
0.0
 11
3866.9818160764289132
 21
220.5816831655303076
 31
0.0
  0
ARC
  5
92AE
  8
0
 10
3866.9834041617627918
 20
220.581635238434302
 30
0.0
 40
0.0015888083692449
 50
178.2713856441644964
 51
284.3295644868887848
  0
ARC
  5
92AF
  8
0
 10
3866.9811626368391444
 20
220.5904101709851091
 30
0.0
 40
0.0106455117020579
 50
284.3295644868887848
 51
291.3661724447513279
  0
LINE
  5
92B0
  8
0
 10
3866.9850410844292128
 20
220.5804963138303094
 30
0.0
 11
3867.0124536528292083
 21
220.5940696791303139
 31
0.0
  0
ARC
  5
92B1
  8
0
 10
3867.0095198363128475
 20
220.5996069951702054
 30
0.0
 40
0.0062665100555931
 50
297.9158262448437995
 51
349.36280451769818
  0
LINE
  5
92B2
  8
0
 10
3867.0156786609290975
 20
220.5984502637303137
 30
0.0
 11
3867.0156786609290975
 21
220.629071163230094
 31
0.0
  0
ARC
  5
92B3
  8
0
 10
3867.2418273312641759
 20
220.851773151185597
 30
0.0
 40
0.3754080223258249
 50
226.3096858331616943
 51
243.1450067955319128
  0
ARC
  5
92B4
  8
0
 10
3867.0725226064359958
 20
220.518617154930098
 30
0.0
 40
0.0017873120321981
 50
260.9914474027470987
 51
325.1704392115963742
  0
LINE
  5
92B5
  8
0
 10
3867.0739897298290089
 20
220.5175963546303137
 30
0.0
 11
3867.0931842169288757
 21
220.5369811291303108
 31
0.0
  0
ARC
  5
92B6
  8
0
 10
3867.0870609693201914
 20
220.5427471031730988
 30
0.0
 40
0.0084107441966158
 50
316.7212320323120025
 51
355.2143475891979847
  0
LINE
  5
92B7
  8
0
 10
3867.095442391828783
 20
220.542045409030294
 30
0.0
 11
3867.095442391828783
 21
220.5726663085303016
 31
0.0
  0
ARC
  5
92B8
  8
0
 10
3867.2877576366990979
 20
220.9884716290497124
 30
0.0
 40
0.4581257665553575
 50
245.1788588473743005
 51
262.1693889963767106
  0
LINE
  5
92B9
  8
0
 10
3867.2253403499289561
 20
220.5346177976302897
 30
0.0
 11
3867.2253403499289561
 21
220.5039968981303105
 31
0.0
  0
ARC
  5
92BA
  8
0
 10
3867.1979069830849767
 20
220.5045861356788066
 30
0.0
 40
0.027439694190281
 50
347.12399808525862
 51
358.7695409559951258
  0
LINE
  5
92BB
  8
0
 10
3867.2246566956291645
 20
220.4984714242303028
 30
0.0
 11
3867.2188456346289058
 21
220.4751665000302978
 31
0.0
  0
ARC
  5
92BC
  8
0
 10
3867.217147773340912
 20
220.4752358879017038
 30
0.0
 40
0.0016992785619311
 50
315.438967288110689
 51
357.6597493051385186
  0
LINE
  5
92BD
  8
0
 10
3867.2183585151287843
 20
220.4740435574302921
 30
0.0
 11
3867.2181619803291142
 21
220.5002619257303138
 31
0.0
  0
LINE
  5
92BE
  8
0
 10
3867.2181619803291142
 20
220.5002619257303138
 30
0.0
 11
3867.2239730414289625
 21
220.5235668498303028
 31
0.0
  0
ARC
  5
92BF
  8
0
 10
3867.1698425427989605
 20
220.5358743535173005
 30
0.0
 40
0.0555120304890485
 50
347.1905832071445843
 51
358.7029568553937224
  0
ARC
  5
92C0
  8
0
 10
3867.2806075448020238
 20
220.9830779865067996
 30
0.0
 40
0.4868375468943599
 50
247.0702140794734873
 51
262.6304954204675255
  0
ARC
  5
92C1
  8
0
 10
3867.281741384570978
 20
221.0487150417550879
 30
0.0
 40
0.5781563929251704
 50
263.7060472483316858
 51
276.2940334789869894
  0
ARC
  5
92C2
  8
0
 10
3867.28177735595591
 20
220.9603804793920006
 30
0.0
 40
0.4626349865581573
 50
262.9680265950740932
 51
277.0232058239848243
  0
ARC
  5
92C3
  8
0
 10
3867.2008943357150201
 20
220.7887793839485937
 30
0.0
 40
0.2206101146256812
 50
197.1968305812507936
 51
241.7433753665740142
  0
ARC
  5
92C4
  8
0
 10
3867.2801041276438809
 20
220.9361551045454064
 30
0.0
 40
0.3879235754072832
 50
241.7433753665740142
 51
270.2418863592209277
  0
ARC
  5
92C5
  8
0
 10
3867.2382863766670198
 20
220.8229807059514087
 30
0.0
 40
0.3185740953109521
 50
225.4341970486023001
 51
243.1535531593123096
  0
ARC
  5
92C6
  8
0
 10
3867.1673354904410189
 20
220.7873745696043102
 30
0.0
 40
0.2589353561384097
 50
204.49308249253491
 51
224.2361993094176
  0
ARC
  5
92C7
  8
0
 10
3866.9832740809579263
 20
220.9219555734096048
 30
0.0
 40
2.7839644900644429
 50
66.9278647994466525
 51
69.6606630229471619
  0
ARC
  5
92C8
  8
0
 10
3868.0712489254588036
 20
223.4761182499767074
 30
0.0
 40
0.0077375107564915
 50
359.3377910187485895
 51
66.927864799444734
  0
LINE
  5
92C9
  8
0
 10
3868.0789859194292148
 20
223.4760288239303065
 30
0.0
 11
3868.0789859194292148
 21
223.4575381798302942
 31
0.0
  0
ARC
  5
92CA
  8
0
 10
3868.0789859027267994
 20
223.4378531000699013
 30
0.0
 40
0.0196850797604023
 50
0.0001174737661937
 51
89.9999513869863108
  0
LINE
  5
92CB
  8
0
 10
3868.0986709824869649
 20
223.4378531404302919
 30
0.0
 11
3868.0986709824869649
 21
212.8354909357302915
 31
0.0
  0
ARC
  5
92CC
  8
0
 10
3868.078985943132011
 20
212.8354909356862947
 30
0.0
 40
0.019685039356089
 50
269.9999310113998945
 51
0.0000001278507666
  0
ARC
  5
92CD
  8
0
 10
3868.1061829531290641
 20
212.7961153899886142
 30
0.0
 40
0.0196905064416786
 50
76.5018817989488014
 51
90.0
  0
LINE
  5
92CE
  8
0
 10
3868.1107789817287994
 20
212.8152619971303068
 30
0.0
 11
3868.2190797395119262
 21
212.7892650475668859
 31
0.0
  0
ARC
  5
92CF
  8
0
 10
3868.2167827185771785
 20
212.7796958822584088
 30
0.0
 40
0.0098409974025514
 50
359.9711120654937986
 51
76.5018817989484177
  0
LINE
  5
92D0
  8
0
 10
3868.2266237147291577
 20
212.7796909205302995
 30
0.0
 11
3868.2266237147291577
 21
212.6307665356926009
 31
0.0
  0
LINE
  5
92D1
  8
0
 10
3867.7738678092291593
 20
221.3709240066303039
 30
0.0
 11
3867.7738678092291593
 21
220.5061024398303005
 31
0.0
  0
ARC
  5
92D2
  8
0
 10
3867.4451055318659201
 20
220.5285974586055033
 30
0.0
 40
0.3295309710579898
 50
304.2076616951280243
 51
356.0857313481510005
  0
ARC
  5
92D3
  8
0
 10
3867.2767218179828888
 20
220.7878965801330082
 30
0.0
 40
0.6386703580139726
 50
270.4503546613474896
 51
303.6225416496340017
  0
ARC
  5
92D4
  8
0
 10
3867.4473892948881257
 20
220.4801695870947071
 30
0.0
 40
0.3275068444741812
 50
4.5415847429639831
 51
56.4129640985801117
  0
ARC
  5
92D5
  8
0
 10
3867.2870533763539242
 20
220.234767191631704
 30
0.0
 40
0.6206406217563522
 50
56.6151478021007932
 51
90.490353328018216
  0
ARC
  5
92D6
  8
0
 10
3867.279440682034874
 20
220.2245207062821066
 30
0.0
 40
0.5779903248165568
 50
61.9214441092816514
 51
89.7718887002725978
  0
ARC
  5
92D7
  8
0
 10
3867.4388225612469796
 20
220.4819519647822972
 30
0.0
 40
0.276525023195764
 50
3.5642981652383439
 51
65.9558269151675631
  0
ARC
  5
92D8
  8
0
 10
3867.4202179940280075
 20
220.5232155664612037
 30
0.0
 40
0.29557658408199
 50
293.123359398853097
 51
355.3285288999401246
  0
ARC
  5
92D9
  8
0
 10
3867.2845863330671818
 20
220.7636986052376926
 30
0.0
 40
0.5708082443686116
 50
269.7144768190150899
 51
296.1656585752608066
  0
ARC
  5
92DA
  8
0
 10
3867.3728041467820731
 20
220.7767232853736061
 30
0.0
 40
0.3595815404918153
 50
292.4773832108438114
 51
331.0768626261867098
  0
ARC
  5
92DB
  8
0
 10
3867.273698764628989
 20
221.0162522300967112
 30
0.0
 40
0.6188034379692146
 50
270.7447379215130923
 51
292.4773832108438114
  0
ARC
  5
92DC
  8
0
 10
3867.4093429241438571
 20
220.7704875302376024
 30
0.0
 40
0.1979149621481823
 50
314.3952275589480791
 51
341.7623839294429899
  0
ARC
  5
92DD
  8
0
 10
3867.559390332230123
 20
220.630845498674006
 30
0.0
 40
0.0117204285614226
 50
188.7073876037401021
 51
244.0139801609425945
  0
LINE
  5
92DE
  8
0
 10
3867.5542550050290629
 20
220.6203099939303058
 30
0.0
 11
3867.5816675734290584
 21
220.6067366287302889
 31
0.0
  0
LINE
  5
92DF
  8
0
 10
3867.5816675734290584
 20
220.6067366287302889
 30
0.0
 11
3867.5816675734290584
 21
220.5816831655303076
 31
0.0
  0
ARC
  5
92E0
  8
0
 10
3867.5800794880951798
 20
220.581635238434302
 30
0.0
 40
0.0015888083692449
 50
255.6704355131111868
 51
1.7286143558354861
  0
ARC
  5
92E1
  8
0
 10
3867.5823210130201915
 20
220.5904101709851091
 30
0.0
 40
0.0106455117020579
 50
248.6338275552487005
 51
255.6704355131111868
  0
LINE
  5
92E2
  8
0
 10
3867.5784425654292136
 20
220.5804963138303094
 30
0.0
 11
3867.5510299970292181
 21
220.5940696791303139
 31
0.0
  0
ARC
  5
92E3
  8
0
 10
3867.5539638135451241
 20
220.5996069951702054
 30
0.0
 40
0.0062665100555931
 50
190.6371954823002
 51
242.0841737551560868
  0
LINE
  5
92E4
  8
0
 10
3867.5478049889288741
 20
220.5984502637303137
 30
0.0
 11
3867.5478049889288741
 21
220.629071163230094
 31
0.0
  0
ARC
  5
92E5
  8
0
 10
3867.3216563185937957
 20
220.851773151185597
 30
0.0
 40
0.3754080223258249
 50
296.8549932044680872
 51
313.6903141668382773
  0
ARC
  5
92E6
  8
0
 10
3867.4909610434210663
 20
220.518617154930098
 30
0.0
 40
0.0017873120321981
 50
214.8295607884035974
 51
279.0085525972529013
  0
LINE
  5
92E7
  8
0
 10
3867.4894939200289627
 20
220.5175963546303137
 30
0.0
 11
3867.4702994329290959
 21
220.5369811291303108
 31
0.0
  0
ARC
  5
92E8
  8
0
 10
3867.4764226805377803
 20
220.5427471031730988
 30
0.0
 40
0.0084107441966158
 50
184.7856524108019016
 51
223.2787679676879975
  0
LINE
  5
92E9
  8
0
 10
3867.4680412580291886
 20
220.542045409030294
 30
0.0
 11
3867.4680412580291886
 21
220.5726663085303016
 31
0.0
  0
ARC
  5
92EA
  8
0
 10
3867.2757260131579642
 20
220.9884716290497124
 30
0.0
 40
0.4581257665553575
 50
277.8306110036232894
 51
294.821141152625728
  0
LINE
  5
92EB
  8
0
 10
3867.3381432999290155
 20
220.5346177976302897
 30
0.0
 11
3867.3381432999290155
 21
220.5039968981303105
 31
0.0
  0
ARC
  5
92EC
  8
0
 10
3867.3655251801510531
 20
220.5045797653563966
 30
0.0
 40
0.0273880831509795
 50
181.2194483750382972
 51
192.8870125837023011
  0
LINE
  5
92ED
  8
0
 10
3867.3388269542288072
 20
220.4984714242303028
 30
0.0
 11
3867.3446380152290658
 21
220.4751665000302978
 31
0.0
  0
ARC
  5
92EE
  8
0
 10
3867.3463358765170597
 20
220.4752358879017038
 30
0.0
 40
0.0016992785619311
 50
182.3402506948615098
 51
224.5610327118891973
  0
LINE
  5
92EF
  8
0
 10
3867.3451251347291873
 20
220.4740435574302921
 30
0.0
 11
3867.345321669527948
 21
220.5002619257303138
 31
0.0
  0
LINE
  5
92F0
  8
0
 10
3867.345321669527948
 20
220.5002619257303138
 30
0.0
 11
3867.3395106084290092
 21
220.5235668498303028
 31
0.0
  0
ARC
  5
92F1
  8
0
 10
3867.3936411070590111
 20
220.5358743535173005
 30
0.0
 40
0.0555120304890485
 50
181.2970431446046859
 51
192.8094167928553873
  0
ARC
  5
92F2
  8
0
 10
3867.2828761050559478
 20
220.9830779865067996
 30
0.0
 40
0.4868375468943599
 50
277.3695045795324745
 51
292.9297859205265127
  0
ARC
  5
92F3
  8
0
 10
3867.3625893141429515
 20
220.7887793839485937
 30
0.0
 40
0.2206101146256812
 50
298.2566246334258722
 51
342.803169418749178
  0
ARC
  5
92F4
  8
0
 10
3867.2833795222140907
 20
220.9361551045454064
 30
0.0
 40
0.3879235754072832
 50
269.7581136407790723
 51
298.2566246334258722
  0
ARC
  5
92F5
  8
0
 10
3867.3251972731909518
 20
220.8229807059514087
 30
0.0
 40
0.3185740953109521
 50
296.8464468406875767
 51
314.5658029513976999
  0
ARC
  5
92F6
  8
0
 10
3867.3961481594169527
 20
220.7873745696043102
 30
0.0
 40
0.2589353561384097
 50
315.7638006905822863
 51
335.5069175074650047
  0
LINE
  5
92FC
  8
0
 10
3868.0392007503851346
 20
223.5323413294302952
 30
0.0
 11
3868.0890229527981319
 21
223.5323413294302952
 31
0.0
  0
LINE
  5
92FD
  8
0
 10
3867.7345911531851925
 20
223.4575381798302942
 30
0.0
 11
3868.0789859194292148
 21
223.4575381798302942
 31
0.0
  0
LINE
  5
92FF
  8
0
 10
3866.4844982147042174
 20
223.8473019593646995
 30
0.0
 11
3868.078985435154209
 21
223.8473019593646995
 31
0.0
  0
ARC
  5
9300
  8
0
 10
3867.2778815278888942
 20
220.9217994464711126
 30
0.0
 40
0.3541624234839774
 50
240.0719986741679008
 51
270.6245244926240048
  0
ARC
  5
9301
  8
0
 10
3867.1962028037660275
 20
220.7799162961597972
 30
0.0
 40
0.190448519625535
 50
193.8939634791628919
 51
240.0719986741679008
  0
LINE
  5
9302
  8
0
 10
3867.2768205651291282
 20
220.6032043333308934
 30
0.0
 11
3867.2563481241290901
 21
220.5948459934309085
 31
0.0
  0
LINE
  5
9303
  8
0
 10
3867.2563481241290901
 20
220.5948459934309085
 30
0.0
 11
3867.2358756832290965
 21
220.6032043333308934
 31
0.0
  0
LINE
  5
9304
  8
0
 10
3867.2358756832290965
 20
220.6032043333308934
 30
0.0
 11
3867.2358756832290965
 21
220.6186238319309894
 31
0.0
  0
LINE
  5
9305
  8
0
 10
3867.2358756832290965
 20
220.6186238319309894
 30
0.0
 11
3867.2563486655321867
 21
220.6269819506906913
 31
0.0
  0
LINE
  5
9306
  8
0
 10
3867.2563486655321867
 20
220.6269819506906913
 30
0.0
 11
3867.2767891946091368
 21
220.618636639684695
 31
0.0
  0
LINE
  5
9307
  8
0
 10
3867.2767891946091368
 20
220.618636639684695
 30
0.0
 11
3867.2768205651291282
 21
220.6032043333308934
 31
0.0
  0
LINE
  5
9308
  8
0
 10
3867.2768205651291282
 20
220.6654096702310142
 30
0.0
 11
3867.2563481241290901
 21
220.6570513303308871
 31
0.0
  0
LINE
  5
9309
  8
0
 10
3867.2563481241290901
 20
220.6570513303308871
 30
0.0
 11
3867.2358756832290965
 21
220.6654096702310142
 31
0.0
  0
LINE
  5
930A
  8
0
 10
3867.2358756832290965
 20
220.6654096702310142
 30
0.0
 11
3867.2358756832290965
 21
220.6808291688309964
 31
0.0
  0
LINE
  5
930B
  8
0
 10
3867.2358756832290965
 20
220.6808291688309964
 30
0.0
 11
3867.2563486655321867
 21
220.689187287590812
 31
0.0
  0
LINE
  5
930C
  8
0
 10
3867.2563486655321867
 20
220.689187287590812
 30
0.0
 11
3867.2767891946091368
 21
220.680841976584702
 31
0.0
  0
LINE
  5
930D
  8
0
 10
3867.2767891946091368
 20
220.680841976584702
 30
0.0
 11
3867.2768205651291282
 21
220.6654096702310142
 31
0.0
  0
LINE
  5
930E
  8
0
 10
3867.2768205651291282
 20
220.7276150071309075
 30
0.0
 11
3867.2563481241290901
 21
220.7192566672310079
 31
0.0
  0
LINE
  5
930F
  8
0
 10
3867.2563481241290901
 20
220.7192566672310079
 30
0.0
 11
3867.2358756832290965
 21
220.7276150071309075
 31
0.0
  0
LINE
  5
9310
  8
0
 10
3867.2358756832290965
 20
220.7276150071309075
 30
0.0
 11
3867.2358756832290965
 21
220.7430345057308898
 31
0.0
  0
LINE
  5
9311
  8
0
 10
3867.2358756832290965
 20
220.7430345057308898
 30
0.0
 11
3867.2563486655321867
 21
220.7513926244907054
 31
0.0
  0
LINE
  5
9312
  8
0
 10
3867.2563486655321867
 20
220.7513926244907054
 30
0.0
 11
3867.2767891946091368
 21
220.7430473134847091
 31
0.0
  0
LINE
  5
9313
  8
0
 10
3867.2767891946091368
 20
220.7430473134847091
 30
0.0
 11
3867.2768205651291282
 21
220.7276150071309075
 31
0.0
  0
LINE
  5
9314
  8
0
 10
3867.251426864325822
 20
220.7587176755712051
 30
0.0
 11
3867.2309544233257839
 21
220.7503593356711065
 31
0.0
  0
LINE
  5
9315
  8
0
 10
3867.2309544233257839
 20
220.7503593356711065
 30
0.0
 11
3867.2104819824248807
 21
220.7587176755712051
 31
0.0
  0
LINE
  5
9316
  8
0
 10
3867.2104819824248807
 20
220.7587176755712051
 30
0.0
 11
3867.2104819824248807
 21
220.7741371741711873
 31
0.0
  0
LINE
  5
9317
  8
0
 10
3867.2104819824248807
 20
220.7741371741711873
 30
0.0
 11
3867.2309549647288804
 21
220.782495292931003
 31
0.0
  0
LINE
  5
9318
  8
0
 10
3867.2309549647288804
 20
220.782495292931003
 30
0.0
 11
3867.2513954938058305
 21
220.7741499819248929
 31
0.0
  0
LINE
  5
9319
  8
0
 10
3867.2513954938058305
 20
220.7741499819248929
 30
0.0
 11
3867.251426864325822
 21
220.7587176755712051
 31
0.0
  0
LINE
  5
931A
  8
0
 10
3867.251426864325822
 20
220.6965123386711127
 30
0.0
 11
3867.2309544233257839
 21
220.6881539987710994
 31
0.0
  0
LINE
  5
931B
  8
0
 10
3867.2309544233257839
 20
220.6881539987710994
 30
0.0
 11
3867.2104819824248807
 21
220.6965123386711127
 31
0.0
  0
LINE
  5
931C
  8
0
 10
3867.2104819824248807
 20
220.6965123386711127
 30
0.0
 11
3867.2104819824248807
 21
220.711931837271095
 31
0.0
  0
LINE
  5
931D
  8
0
 10
3867.2104819824248807
 20
220.711931837271095
 30
0.0
 11
3867.2309549647288804
 21
220.7202899560309106
 31
0.0
  0
LINE
  5
931E
  8
0
 10
3867.2309549647288804
 20
220.7202899560309106
 30
0.0
 11
3867.2513954938058305
 21
220.7119446450248859
 31
0.0
  0
LINE
  5
931F
  8
0
 10
3867.2513954938058305
 20
220.7119446450248859
 30
0.0
 11
3867.251426864325822
 21
220.6965123386711127
 31
0.0
  0
LINE
  5
9320
  8
0
 10
3867.251426864325822
 20
220.6343070018712069
 30
0.0
 11
3867.2309544233257839
 21
220.6259486619711083
 31
0.0
  0
LINE
  5
9321
  8
0
 10
3867.2309544233257839
 20
220.6259486619711083
 30
0.0
 11
3867.2104819824248807
 21
220.6343070018712069
 31
0.0
  0
LINE
  5
9322
  8
0
 10
3867.2104819824248807
 20
220.6343070018712069
 30
0.0
 11
3867.2104819824248807
 21
220.6497265004711892
 31
0.0
  0
LINE
  5
9323
  8
0
 10
3867.2104819824248807
 20
220.6497265004711892
 30
0.0
 11
3867.2309549647288804
 21
220.6580846192308911
 31
0.0
  0
LINE
  5
9324
  8
0
 10
3867.2309549647288804
 20
220.6580846192308911
 30
0.0
 11
3867.2513954938058305
 21
220.6497393082248948
 31
0.0
  0
LINE
  5
9325
  8
0
 10
3867.2513954938058305
 20
220.6497393082248948
 30
0.0
 11
3867.251426864325822
 21
220.6343070018712069
 31
0.0
  0
LINE
  5
9326
  8
0
 10
3867.22603262222583
 20
220.6032043333308934
 30
0.0
 11
3867.2055601812257919
 21
220.5948459934309085
 31
0.0
  0
LINE
  5
9327
  8
0
 10
3867.2055601812257919
 20
220.5948459934309085
 30
0.0
 11
3867.1850877403257982
 21
220.6032043333308934
 31
0.0
  0
LINE
  5
9328
  8
0
 10
3867.1850877403257982
 20
220.6032043333308934
 30
0.0
 11
3867.1850877403257982
 21
220.6186238319309894
 31
0.0
  0
LINE
  5
9329
  8
0
 10
3867.1850877403257982
 20
220.6186238319309894
 30
0.0
 11
3867.2055607226288885
 21
220.6269819506906913
 31
0.0
  0
LINE
  5
932A
  8
0
 10
3867.2055607226288885
 20
220.6269819506906913
 30
0.0
 11
3867.2260012517058385
 21
220.618636639684695
 31
0.0
  0
LINE
  5
932B
  8
0
 10
3867.2260012517058385
 20
220.618636639684695
 30
0.0
 11
3867.22603262222583
 21
220.6032043333308934
 31
0.0
  0
LINE
  5
932C
  8
0
 10
3867.2260331635261537
 20
220.6654096702710888
 30
0.0
 11
3867.2055607225261156
 21
220.6570513303711891
 31
0.0
  0
LINE
  5
932D
  8
0
 10
3867.2055607225261156
 20
220.6570513303711891
 30
0.0
 11
3867.1850882816261219
 21
220.6654096702710888
 31
0.0
  0
LINE
  5
932E
  8
0
 10
3867.1850882816261219
 20
220.6654096702710888
 30
0.0
 11
3867.1850882816261219
 21
220.6808291688710995
 31
0.0
  0
LINE
  5
932F
  8
0
 10
3867.1850882816261219
 20
220.6808291688710995
 30
0.0
 11
3867.2055612639292121
 21
220.6891872876310003
 31
0.0
  0
LINE
  5
9330
  8
0
 10
3867.2055612639292121
 20
220.6891872876310003
 30
0.0
 11
3867.2260017930061622
 21
220.6808419766248903
 31
0.0
  0
LINE
  5
9331
  8
0
 10
3867.2260017930061622
 20
220.6808419766248903
 30
0.0
 11
3867.2260331635261537
 21
220.6654096702710888
 31
0.0
  0
LINE
  5
9332
  8
0
 10
3867.2260331635261537
 20
220.7276150071712095
 30
0.0
 11
3867.2055607225261156
 21
220.7192566672711109
 31
0.0
  0
LINE
  5
9333
  8
0
 10
3867.2055607225261156
 20
220.7192566672711109
 30
0.0
 11
3867.1850882816261219
 21
220.7276150071712095
 31
0.0
  0
LINE
  5
9334
  8
0
 10
3867.1850882816261219
 20
220.7276150071712095
 30
0.0
 11
3867.1850882816261219
 21
220.7430345057711918
 31
0.0
  0
LINE
  5
9335
  8
0
 10
3867.1850882816261219
 20
220.7430345057711918
 30
0.0
 11
3867.2055612639292121
 21
220.7513926245308937
 31
0.0
  0
LINE
  5
9336
  8
0
 10
3867.2055612639292121
 20
220.7513926245308937
 30
0.0
 11
3867.2260017930061622
 21
220.7430473135248974
 31
0.0
  0
LINE
  5
9337
  8
0
 10
3867.2260017930061622
 20
220.7430473135248974
 30
0.0
 11
3867.2260331635261537
 21
220.7276150071712095
 31
0.0
  0
LINE
  5
9338
  8
0
 10
3867.2006394627251211
 20
220.7587176755712051
 30
0.0
 11
3867.180167021725083
 21
220.7503593356711065
 31
0.0
  0
LINE
  5
9339
  8
0
 10
3867.180167021725083
 20
220.7503593356711065
 30
0.0
 11
3867.1596945808259989
 21
220.7587176755712051
 31
0.0
  0
LINE
  5
933A
  8
0
 10
3867.1596945808259989
 20
220.7587176755712051
 30
0.0
 11
3867.1596945808259989
 21
220.7741371741711873
 31
0.0
  0
LINE
  5
933B
  8
0
 10
3867.1596945808259989
 20
220.7741371741711873
 30
0.0
 11
3867.1801675631290891
 21
220.782495292931003
 31
0.0
  0
LINE
  5
933C
  8
0
 10
3867.1801675631290891
 20
220.782495292931003
 30
0.0
 11
3867.2006080922060391
 21
220.7741499819248929
 31
0.0
  0
LINE
  5
933D
  8
0
 10
3867.2006080922060391
 20
220.7741499819248929
 30
0.0
 11
3867.2006394627251211
 21
220.7587176755712051
 31
0.0
  0
LINE
  5
933E
  8
0
 10
3867.2006394627251211
 20
220.6965123386711127
 30
0.0
 11
3867.180167021725083
 21
220.6881539987710994
 31
0.0
  0
LINE
  5
933F
  8
0
 10
3867.180167021725083
 20
220.6881539987710994
 30
0.0
 11
3867.1596945808259989
 21
220.6965123386711127
 31
0.0
  0
LINE
  5
9340
  8
0
 10
3867.1596945808259989
 20
220.6965123386711127
 30
0.0
 11
3867.1596945808259989
 21
220.711931837271095
 31
0.0
  0
LINE
  5
9341
  8
0
 10
3867.1596945808259989
 20
220.711931837271095
 30
0.0
 11
3867.1801675631290891
 21
220.7202899560309106
 31
0.0
  0
LINE
  5
9342
  8
0
 10
3867.1801675631290891
 20
220.7202899560309106
 30
0.0
 11
3867.2006080922060391
 21
220.7119446450248859
 31
0.0
  0
LINE
  5
9343
  8
0
 10
3867.2006080922060391
 20
220.7119446450248859
 30
0.0
 11
3867.2006394627251211
 21
220.6965123386711127
 31
0.0
  0
LINE
  5
9344
  8
0
 10
3867.2006394627251211
 20
220.6343070018712069
 30
0.0
 11
3867.180167021725083
 21
220.6259486619711083
 31
0.0
  0
LINE
  5
9345
  8
0
 10
3867.180167021725083
 20
220.6259486619711083
 30
0.0
 11
3867.1596945808259989
 21
220.6343070018712069
 31
0.0
  0
LINE
  5
9346
  8
0
 10
3867.1596945808259989
 20
220.6343070018712069
 30
0.0
 11
3867.1596945808259989
 21
220.6497265004711892
 31
0.0
  0
LINE
  5
9347
  8
0
 10
3867.1596945808259989
 20
220.6497265004711892
 30
0.0
 11
3867.1801675631290891
 21
220.6580846192308911
 31
0.0
  0
LINE
  5
9348
  8
0
 10
3867.1801675631290891
 20
220.6580846192308911
 30
0.0
 11
3867.2006080922060391
 21
220.6497393082248948
 31
0.0
  0
LINE
  5
9349
  8
0
 10
3867.2006080922060391
 20
220.6497393082248948
 30
0.0
 11
3867.2006394627251211
 21
220.6343070018712069
 31
0.0
  0
LINE
  5
934A
  8
0
 10
3867.1752451982260936
 20
220.6032022622711111
 30
0.0
 11
3867.1547727572260555
 21
220.5948439223710977
 31
0.0
  0
LINE
  5
934B
  8
0
 10
3867.1547727572260555
 20
220.5948439223710977
 30
0.0
 11
3867.1343003163260619
 21
220.6032022622711111
 31
0.0
  0
LINE
  5
934C
  8
0
 10
3867.1343003163260619
 20
220.6032022622711111
 30
0.0
 11
3867.1343003163260619
 21
220.618621760871207
 31
0.0
  0
LINE
  5
934D
  8
0
 10
3867.1343003163260619
 20
220.618621760871207
 30
0.0
 11
3867.1547732986291521
 21
220.626979879630909
 31
0.0
  0
LINE
  5
934E
  8
0
 10
3867.1547732986291521
 20
220.626979879630909
 30
0.0
 11
3867.1752138277061022
 21
220.6186345686249126
 31
0.0
  0
LINE
  5
934F
  8
0
 10
3867.1752138277061022
 20
220.6186345686249126
 30
0.0
 11
3867.1752451982260936
 21
220.6032022622711111
 31
0.0
  0
LINE
  5
9350
  8
0
 10
3867.1752457619259076
 20
220.6654096702710888
 30
0.0
 11
3867.15477332092496
 21
220.6570513303711891
 31
0.0
  0
LINE
  5
9351
  8
0
 10
3867.15477332092496
 20
220.6570513303711891
 30
0.0
 11
3867.1343008800258758
 21
220.6654096702710888
 31
0.0
  0
LINE
  5
9352
  8
0
 10
3867.1343008800258758
 20
220.6654096702710888
 30
0.0
 11
3867.1343008800258758
 21
220.6808291688710995
 31
0.0
  0
LINE
  5
9353
  8
0
 10
3867.1343008800258758
 20
220.6808291688710995
 30
0.0
 11
3867.1547738623289661
 21
220.6891872876310003
 31
0.0
  0
LINE
  5
9354
  8
0
 10
3867.1547738623289661
 20
220.6891872876310003
 30
0.0
 11
3867.1752143914050066
 21
220.6808419766248903
 31
0.0
  0
LINE
  5
9355
  8
0
 10
3867.1752143914050066
 20
220.6808419766248903
 30
0.0
 11
3867.1752457619259076
 21
220.6654096702710888
 31
0.0
  0
LINE
  5
9356
  8
0
 10
3867.1752452206251291
 20
220.7276152281710893
 30
0.0
 11
3867.1547727796260006
 21
220.7192568882711896
 31
0.0
  0
LINE
  5
9357
  8
0
 10
3867.1547727796260006
 20
220.7192568882711896
 30
0.0
 11
3867.1343003387260069
 21
220.7276152281710893
 31
0.0
  0
LINE
  5
9358
  8
0
 10
3867.1343003387260069
 20
220.7276152281710893
 30
0.0
 11
3867.1343003387260069
 21
220.7430347267710999
 31
0.0
  0
LINE
  5
9359
  8
0
 10
3867.1343003387260069
 20
220.7430347267710999
 30
0.0
 11
3867.1547733210290971
 21
220.7513928455310008
 31
0.0
  0
LINE
  5
935A
  8
0
 10
3867.1547733210290971
 20
220.7513928455310008
 30
0.0
 11
3867.1752138501060472
 21
220.7430475345248908
 31
0.0
  0
LINE
  5
935B
  8
0
 10
3867.1752138501060472
 20
220.7430475345248908
 30
0.0
 11
3867.1752452206251291
 21
220.7276152281710893
 31
0.0
  0
LINE
  5
935C
  8
0
 10
3867.1498520611257845
 20
220.7587176755712051
 30
0.0
 11
3867.1293796201262012
 21
220.7503593356711065
 31
0.0
  0
LINE
  5
935D
  8
0
 10
3867.1293796201262012
 20
220.7503593356711065
 30
0.0
 11
3867.1089071792262075
 21
220.7587176755712051
 31
0.0
  0
LINE
  5
935E
  8
0
 10
3867.1089071792262075
 20
220.7587176755712051
 30
0.0
 11
3867.1089071792262075
 21
220.7741371741711873
 31
0.0
  0
LINE
  5
935F
  8
0
 10
3867.1089071792262075
 20
220.7741371741711873
 30
0.0
 11
3867.1206862440440091
 21
220.7789459910389098
 31
0.0
  0
LINE
  5
9360
  8
0
 10
3867.1309308939980838
 20
220.7818621711222988
 30
0.0
 11
3867.1498206906057931
 21
220.7741499819248929
 31
0.0
  0
LINE
  5
9361
  8
0
 10
3867.1498206906057931
 20
220.7741499819248929
 30
0.0
 11
3867.1498520611257845
 21
220.7587176755712051
 31
0.0
  0
LINE
  5
9362
  8
0
 10
3867.1498520611257845
 20
220.6965123386711127
 30
0.0
 11
3867.1293796201262012
 21
220.6881539987710994
 31
0.0
  0
LINE
  5
9363
  8
0
 10
3867.1293796201262012
 20
220.6881539987710994
 30
0.0
 11
3867.1089071792262075
 21
220.6965123386711127
 31
0.0
  0
LINE
  5
9364
  8
0
 10
3867.1089071792262075
 20
220.6965123386711127
 30
0.0
 11
3867.1089071792262075
 21
220.711931837271095
 31
0.0
  0
LINE
  5
9365
  8
0
 10
3867.1089071792262075
 20
220.711931837271095
 30
0.0
 11
3867.129380161528843
 21
220.7202899560309106
 31
0.0
  0
LINE
  5
9366
  8
0
 10
3867.129380161528843
 20
220.7202899560309106
 30
0.0
 11
3867.1498206906057931
 21
220.7119446450248859
 31
0.0
  0
LINE
  5
9367
  8
0
 10
3867.1498206906057931
 20
220.7119446450248859
 30
0.0
 11
3867.1498520611257845
 21
220.6965123386711127
 31
0.0
  0
LINE
  5
9368
  8
0
 10
3867.1498520611257845
 20
220.6343070018712069
 30
0.0
 11
3867.1293796201262012
 21
220.6259486619711083
 31
0.0
  0
LINE
  5
9369
  8
0
 10
3867.1293796201262012
 20
220.6259486619711083
 30
0.0
 11
3867.1089071792262075
 21
220.6343070018712069
 31
0.0
  0
LINE
  5
936A
  8
0
 10
3867.1089071792262075
 20
220.6343070018712069
 30
0.0
 11
3867.1089071792262075
 21
220.6497265004711892
 31
0.0
  0
LINE
  5
936B
  8
0
 10
3867.1089071792262075
 20
220.6497265004711892
 30
0.0
 11
3867.129380161528843
 21
220.6580846192308911
 31
0.0
  0
LINE
  5
936C
  8
0
 10
3867.129380161528843
 20
220.6580846192308911
 30
0.0
 11
3867.1498206906057931
 21
220.6497393082248948
 31
0.0
  0
LINE
  5
936D
  8
0
 10
3867.1498206906057931
 20
220.6497393082248948
 30
0.0
 11
3867.1498520611257845
 21
220.6343070018712069
 31
0.0
  0
LINE
  5
936E
  8
0
 10
3867.1244583604288891
 20
220.6654096702310142
 30
0.0
 11
3867.103985919428851
 21
220.6570513303308871
 31
0.0
  0
LINE
  5
936F
  8
0
 10
3867.103985919428851
 20
220.6570513303308871
 30
0.0
 11
3867.0835134785288574
 21
220.6654096702310142
 31
0.0
  0
LINE
  5
9370
  8
0
 10
3867.0835134785288574
 20
220.6654096702310142
 30
0.0
 11
3867.0835134785288574
 21
220.6808291688309964
 31
0.0
  0
LINE
  5
9371
  8
0
 10
3867.0835134785288574
 20
220.6808291688309964
 30
0.0
 11
3867.1039864608319476
 21
220.689187287590812
 31
0.0
  0
LINE
  5
9372
  8
0
 10
3867.1039864608319476
 20
220.689187287590812
 30
0.0
 11
3867.1244269899088977
 21
220.680841976584702
 31
0.0
  0
LINE
  5
9373
  8
0
 10
3867.1244269899088977
 20
220.680841976584702
 30
0.0
 11
3867.1244583604288891
 21
220.6654096702310142
 31
0.0
  0
LINE
  5
9374
  8
0
 10
3867.1244578190257926
 20
220.7276152281710893
 30
0.0
 11
3867.1039853780262092
 21
220.7192568882711896
 31
0.0
  0
LINE
  5
9375
  8
0
 10
3867.1039853780262092
 20
220.7192568882711896
 30
0.0
 11
3867.0835129371262155
 21
220.7276152281710893
 31
0.0
  0
LINE
  5
9376
  8
0
 10
3867.0835129371262155
 20
220.7276152281710893
 30
0.0
 11
3867.0835129371262155
 21
220.7430347267710999
 31
0.0
  0
LINE
  5
9377
  8
0
 10
3867.0835129371262155
 20
220.7430347267710999
 30
0.0
 11
3867.103985919428851
 21
220.7513928455310008
 31
0.0
  0
LINE
  5
9378
  8
0
 10
3867.103985919428851
 20
220.7513928455310008
 30
0.0
 11
3867.1244264485058011
 21
220.7430475345248908
 31
0.0
  0
LINE
  5
9379
  8
0
 10
3867.1244264485058011
 20
220.7430475345248908
 30
0.0
 11
3867.1244578190257926
 21
220.7276152281710893
 31
0.0
  0
LINE
  5
937A
  8
0
 10
3867.0990646596292208
 20
220.696512338630896
 30
0.0
 11
3867.0785922186291828
 21
220.6881539987309964
 31
0.0
  0
LINE
  5
937B
  8
0
 10
3867.0785922186291828
 20
220.6881539987309964
 30
0.0
 11
3867.0581197777291891
 21
220.696512338630896
 31
0.0
  0
LINE
  5
937C
  8
0
 10
3867.0581197777291891
 20
220.696512338630896
 30
0.0
 11
3867.0581197777291891
 21
220.711931837230992
 31
0.0
  0
LINE
  5
937D
  8
0
 10
3867.0581197777291891
 20
220.711931837230992
 30
0.0
 11
3867.0785927600318246
 21
220.7202899559908076
 31
0.0
  0
LINE
  5
937E
  8
0
 10
3867.0785927600318246
 20
220.7202899559908076
 30
0.0
 11
3867.0990332891087746
 21
220.7119446449846976
 31
0.0
  0
LINE
  5
937F
  8
0
 10
3867.0990332891087746
 20
220.7119446449846976
 30
0.0
 11
3867.0990646596292208
 21
220.696512338630896
 31
0.0
  0
LINE
  5
9380
  8
0
 10
3867.0990640959262237
 20
220.6343049309712114
 30
0.0
 11
3867.0821466461511591
 21
220.627397997134608
 31
0.0
  0
LINE
  5
9381
  8
0
 10
3867.0581192140261919
 20
220.6487539506792928
 30
0.0
 11
3867.0581192140261919
 21
220.6497244295711084
 31
0.0
  0
LINE
  5
9382
  8
0
 10
3867.0581192140261919
 20
220.6497244295711084
 30
0.0
 11
3867.0785921963288274
 21
220.6580825483308956
 31
0.0
  0
LINE
  5
9383
  8
0
 10
3867.0785921963288274
 20
220.6580825483308956
 30
0.0
 11
3867.0990327254057775
 21
220.6497372373248993
 31
0.0
  0
LINE
  5
9384
  8
0
 10
3867.0990327254057775
 20
220.6497372373248993
 30
0.0
 11
3867.0990640959262237
 21
220.6343049309712114
 31
0.0
  0
LINE
  5
9385
  8
0
 10
3867.072731503526029
 20
220.6650265582711938
 30
0.0
 11
3867.0522590625250814
 21
220.6566682183712089
 31
0.0
  0
LINE
  5
9386
  8
0
 10
3867.0522590625250814
 20
220.6566682183712089
 30
0.0
 11
3867.0503550825401362
 21
220.6574455615302099
 31
0.0
  0
LINE
  5
9387
  8
0
 10
3867.0333946879991345
 20
220.6811025518323959
 30
0.0
 11
3867.0522596039290875
 21
220.6888041756309917
 31
0.0
  0
LINE
  5
9388
  8
0
 10
3867.0522596039290875
 20
220.6888041756309917
 30
0.0
 11
3867.0727001330060375
 21
220.6804588646249101
 31
0.0
  0
LINE
  5
9389
  8
0
 10
3867.0727001330060375
 20
220.6804588646249101
 30
0.0
 11
3867.072731503526029
 21
220.6650265582711938
 31
0.0
  0
LINE
  5
938A
  8
0
 10
3867.0482766943259776
 20
220.6965102675711137
 30
0.0
 11
3867.0290427491700029
 21
220.6886575717823007
 31
0.0
  0
LINE
  5
938B
  8
0
 10
3867.016863847606146
 20
220.7158212305843108
 30
0.0
 11
3867.0278047947290361
 21
220.7202878849309116
 31
0.0
  0
LINE
  5
938C
  8
0
 10
3867.0278047947290361
 20
220.7202878849309116
 30
0.0
 11
3867.0482453238059861
 21
220.7119425739248868
 31
0.0
  0
LINE
  5
938D
  8
0
 10
3867.0482453238059861
 20
220.7119425739248868
 30
0.0
 11
3867.0482766943259776
 21
220.6965102675711137
 31
0.0
  0
LINE
  5
938E
  8
0
 10
3867.0736709588290978
 20
220.7276150071309075
 30
0.0
 11
3867.0531985178290597
 21
220.7192566672310079
 31
0.0
  0
LINE
  5
938F
  8
0
 10
3867.0531985178290597
 20
220.7192566672310079
 30
0.0
 11
3867.0327260769281565
 21
220.7276150071309075
 31
0.0
  0
LINE
  5
9390
  8
0
 10
3867.0327260769281565
 20
220.7276150071309075
 30
0.0
 11
3867.0327260769281565
 21
220.7430345057308898
 31
0.0
  0
LINE
  5
9391
  8
0
 10
3867.0327260769281565
 20
220.7430345057308898
 30
0.0
 11
3867.0531990592330658
 21
220.7513926244907054
 31
0.0
  0
LINE
  5
9392
  8
0
 10
3867.0531990592330658
 20
220.7513926244907054
 30
0.0
 11
3867.0736395883091063
 21
220.7430473134847091
 31
0.0
  0
LINE
  5
9393
  8
0
 10
3867.0736395883091063
 20
220.7430473134847091
 30
0.0
 11
3867.0736709588290978
 21
220.7276150071309075
 31
0.0
  0
LINE
  5
9394
  8
0
 10
3867.124455844475051
 20
220.6033608030211894
 30
0.0
 11
3867.1235957736639648
 21
220.6030096595407031
 31
0.0
  0
LINE
  5
9395
  8
0
 10
3867.0903704821789688
 20
220.621580708451404
 30
0.0
 11
3867.103983944879019
 21
220.6271384203809873
 31
0.0
  0
LINE
  5
9396
  8
0
 10
3867.103983944879019
 20
220.6271384203809873
 30
0.0
 11
3867.1244244739550595
 21
220.6187931093749057
 31
0.0
  0
LINE
  5
9397
  8
0
 10
3867.1244244739550595
 20
220.6187931093749057
 30
0.0
 11
3867.124455844475051
 21
220.6033608030211894
 31
0.0
  0
LINE
  5
9398
  8
0
 10
3867.1602456899431672
 20
220.5877443135383089
 30
0.0
 11
3867.1801669994288204
 21
220.5958772112309134
 31
0.0
  0
LINE
  5
9399
  8
0
 10
3867.1801669994288204
 20
220.5958772112309134
 30
0.0
 11
3867.2006075285062252
 21
220.5875319002248887
 31
0.0
  0
LINE
  5
939A
  8
0
 10
3867.2006075285062252
 20
220.5875319002248887
 30
0.0
 11
3867.200630635385096
 21
220.5761647812313981
 31
0.0
  0
LINE
  5
939B
  8
0
 10
3867.2514263007360569
 20
220.5721086158077071
 30
0.0
 11
3867.2443666816939185
 21
220.5692263656883938
 31
0.0
  0
LINE
  5
939C
  8
0
 10
3867.2104814188360251
 20
220.5741095738723914
 30
0.0
 11
3867.2104814188360251
 21
220.5875281144076894
 31
0.0
  0
LINE
  5
939D
  8
0
 10
3867.2104814188360251
 20
220.5875281144076894
 30
0.0
 11
3867.2309544011391154
 21
220.595886233167505
 31
0.0
  0
LINE
  5
939E
  8
0
 10
3867.2309544011391154
 20
220.595886233167505
 30
0.0
 11
3867.2513949302160654
 21
220.5875409221615087
 31
0.0
  0
LINE
  5
939F
  8
0
 10
3867.2513949302160654
 20
220.5875409221615087
 30
0.0
 11
3867.2514263007360569
 21
220.5721086158077071
 31
0.0
  0
LINE
  5
93A0
  8
0
 10
3867.2720829094610053
 20
220.5676844958796039
 30
0.0
 11
3867.2612688203262223
 21
220.5720995938710871
 31
0.0
  0
LINE
  5
93A1
  8
0
 10
3867.2612688203262223
 20
220.5720995938710871
 30
0.0
 11
3867.2612688203262223
 21
220.5875190924710978
 31
0.0
  0
LINE
  5
93A2
  8
0
 10
3867.2612688203262223
 20
220.5875190924710978
 30
0.0
 11
3867.2817418026288578
 21
220.5958772112309134
 31
0.0
  0
LINE
  5
93A3
  8
0
 10
3867.2817418249292132
 20
220.6259486619308916
 30
0.0
 11
3867.2612693840292195
 21
220.6343070018309902
 31
0.0
  0
LINE
  5
93A4
  8
0
 10
3867.2612693840292195
 20
220.6343070018309902
 30
0.0
 11
3867.2612693840292195
 21
220.6497265004308872
 31
0.0
  0
LINE
  5
93A5
  8
0
 10
3867.2612693840292195
 20
220.6497265004308872
 30
0.0
 11
3867.2817423663332193
 21
220.6580846191907881
 31
0.0
  0
LINE
  5
93A6
  8
0
 10
3867.2817418249292132
 20
220.6881544408113882
 30
0.0
 11
3867.2817412835261166
 21
220.6881542197712065
 31
0.0
  0
LINE
  5
93A7
  8
0
 10
3867.2817412835261166
 20
220.6881542197712065
 30
0.0
 11
3867.2612688426252134
 21
220.6965125596711061
 31
0.0
  0
LINE
  5
93A8
  8
0
 10
3867.2612688426252134
 20
220.6965125596711061
 30
0.0
 11
3867.2612688426252134
 21
220.7119320582710884
 31
0.0
  0
LINE
  5
93A9
  8
0
 10
3867.2612688426252134
 20
220.7119320582710884
 30
0.0
 11
3867.2817418249292132
 21
220.7202901770309893
 31
0.0
  0
LINE
  5
93AA
  8
0
 10
3867.2817418249292132
 20
220.7521957437112974
 30
0.0
 11
3867.2817412835261166
 21
220.7521955226710872
 31
0.0
  0
LINE
  5
93AB
  8
0
 10
3867.2817412835261166
 20
220.7521955226710872
 30
0.0
 11
3867.2612688426252134
 21
220.7605538625711858
 31
0.0
  0
LINE
  5
93AC
  8
0
 10
3867.2612688426252134
 20
220.7605538625711858
 30
0.0
 11
3867.2612688426252134
 21
220.7759733611711965
 31
0.0
  0
LINE
  5
93AD
  8
0
 10
3867.2612688426252134
 20
220.7759733611711965
 30
0.0
 11
3867.2817418249292132
 21
220.7843314799310122
 31
0.0
  0
LINE
  5
93AE
  8
0
 10
3867.2768205651291282
 20
220.7899690820123908
 30
0.0
 11
3867.2563481241290901
 21
220.7816107421124059
 31
0.0
  0
LINE
  5
93AF
  8
0
 10
3867.2563481241290901
 20
220.7816107421124059
 30
0.0
 11
3867.2358756832290965
 21
220.7899690820123908
 31
0.0
  0
LINE
  5
93B0
  8
0
 10
3867.2358756832290965
 20
220.7899690820123908
 30
0.0
 11
3867.2358756832290965
 21
220.8005005047787961
 31
0.0
  0
LINE
  5
93B1
  8
0
 10
3867.2767951624550733
 20
220.802465586784507
 30
0.0
 11
3867.2768205651291282
 21
220.7899690820123908
 31
0.0
  0
LINE
  5
93B2
  8
0
 10
3867.2261063394121265
 20
220.7897368302658094
 30
0.0
 11
3867.205633898412998
 21
220.7813784903657961
 31
0.0
  0
LINE
  5
93B3
  8
0
 10
3867.205633898412998
 20
220.7813784903657961
 30
0.0
 11
3867.1851614575130043
 21
220.7897368302658094
 31
0.0
  0
LINE
  5
93B4
  8
0
 10
3867.1851614575130043
 20
220.7897368302658094
 30
0.0
 11
3867.1851614575130043
 21
220.7939899877189873
 31
0.0
  0
LINE
  5
93B5
  8
0
 10
3867.2260862938969694
 20
220.7995979528575958
 30
0.0
 11
3867.2261063394121265
 21
220.7897368302658094
 31
0.0
  0
LINE
  5
93B6
  8
0
 10
3867.1749123988570318
 20
220.7901356216601982
 30
0.0
 11
3867.1544399578569937
 21
220.7817772817602986
 31
0.0
  0
LINE
  5
93B7
  8
0
 10
3867.1544399578569937
 20
220.7817772817602986
 30
0.0
 11
3867.1451430479169176
 21
220.7855729568181005
 31
0.0
  0
LINE
  5
93B8
  8
0
 10
3867.1749083766899275
 20
220.7921142726652874
 30
0.0
 11
3867.1749123988570318
 21
220.7901356216601982
 31
0.0
  0
LINE
  5
93B9
  8
0
 10
3867.0989280057251563
 20
220.7588555237200865
 30
0.0
 11
3867.0784555647251182
 21
220.7504971838201016
 31
0.0
  0
LINE
  5
93BA
  8
0
 10
3867.0784555647251182
 20
220.7504971838201016
 30
0.0
 11
3867.0608573825438725
 21
220.7576820421876107
 31
0.0
  0
LINE
  5
93BB
  8
0
 10
3867.0989011712272259
 20
220.7720563952873931
 30
0.0
 11
3867.0989280057251563
 21
220.7588555237200865
 31
0.0
  0
LINE
  5
93BC
  8
0
 10
3867.0227294224650905
 20
220.7275857178383092
 30
0.0
 11
3867.0141254583099908
 21
220.7240729536837023
 31
0.0
  0
LINE
  5
93BD
  8
0
 10
3867.0227040767231301
 20
220.7400542159394092
 30
0.0
 11
3867.0227294224650905
 21
220.7275857178383092
 31
0.0
  0
ARC
  5
93BE
  8
0
 10
3867.2856021219690774
 20
220.9217994464711126
 30
0.0
 40
0.3541624234839774
 50
269.3754755073761089
 51
299.9280013258320992
  0
ARC
  5
93BF
  8
0
 10
3867.3672808460910346
 20
220.7799162961597972
 30
0.0
 40
0.190448519625535
 50
299.9280013258320992
 51
346.1060365208369944
  0
LINE
  5
93C0
  8
0
 10
3867.2866630847288434
 20
220.6032043333308934
 30
0.0
 11
3867.3071355257288815
 21
220.5948459934309085
 31
0.0
  0
LINE
  5
93C1
  8
0
 10
3867.3071355257288815
 20
220.5948459934309085
 30
0.0
 11
3867.3276079666288751
 21
220.6032043333308934
 31
0.0
  0
LINE
  5
93C2
  8
0
 10
3867.3276079666288751
 20
220.6032043333308934
 30
0.0
 11
3867.3276079666288751
 21
220.6186238319309894
 31
0.0
  0
LINE
  5
93C3
  8
0
 10
3867.3276079666288751
 20
220.6186238319309894
 30
0.0
 11
3867.3071349843257849
 21
220.6269819506906913
 31
0.0
  0
LINE
  5
93C4
  8
0
 10
3867.3071349843257849
 20
220.6269819506906913
 30
0.0
 11
3867.2866944552488349
 21
220.618636639684695
 31
0.0
  0
LINE
  5
93C5
  8
0
 10
3867.2866944552488349
 20
220.618636639684695
 30
0.0
 11
3867.2866630847288434
 21
220.6032043333308934
 31
0.0
  0
LINE
  5
93C6
  8
0
 10
3867.2866630847288434
 20
220.6654096702310142
 30
0.0
 11
3867.3071355257288815
 21
220.6570513303308871
 31
0.0
  0
LINE
  5
93C7
  8
0
 10
3867.3071355257288815
 20
220.6570513303308871
 30
0.0
 11
3867.3276079666288751
 21
220.6654096702310142
 31
0.0
  0
LINE
  5
93C8
  8
0
 10
3867.3276079666288751
 20
220.6654096702310142
 30
0.0
 11
3867.3276079666288751
 21
220.6808291688309964
 31
0.0
  0
LINE
  5
93C9
  8
0
 10
3867.3276079666288751
 20
220.6808291688309964
 30
0.0
 11
3867.3071349843257849
 21
220.689187287590812
 31
0.0
  0
LINE
  5
93CA
  8
0
 10
3867.3071349843257849
 20
220.689187287590812
 30
0.0
 11
3867.2866944552488349
 21
220.680841976584702
 31
0.0
  0
LINE
  5
93CB
  8
0
 10
3867.2866944552488349
 20
220.680841976584702
 30
0.0
 11
3867.2866630847288434
 21
220.6654096702310142
 31
0.0
  0
LINE
  5
93CC
  8
0
 10
3867.2866630847288434
 20
220.7276150071309075
 30
0.0
 11
3867.3071355257288815
 21
220.7192566672310079
 31
0.0
  0
LINE
  5
93CD
  8
0
 10
3867.3071355257288815
 20
220.7192566672310079
 30
0.0
 11
3867.3276079666288751
 21
220.7276150071309075
 31
0.0
  0
LINE
  5
93CE
  8
0
 10
3867.3276079666288751
 20
220.7276150071309075
 30
0.0
 11
3867.3276079666288751
 21
220.7430345057308898
 31
0.0
  0
LINE
  5
93CF
  8
0
 10
3867.3276079666288751
 20
220.7430345057308898
 30
0.0
 11
3867.3071349843257849
 21
220.7513926244907054
 31
0.0
  0
LINE
  5
93D0
  8
0
 10
3867.3071349843257849
 20
220.7513926244907054
 30
0.0
 11
3867.2866944552488349
 21
220.7430473134847091
 31
0.0
  0
LINE
  5
93D1
  8
0
 10
3867.2866944552488349
 20
220.7430473134847091
 30
0.0
 11
3867.2866630847288434
 21
220.7276150071309075
 31
0.0
  0
LINE
  5
93D2
  8
0
 10
3867.3120567855321497
 20
220.7587176755712051
 30
0.0
 11
3867.3325292265330972
 21
220.7503593356711065
 31
0.0
  0
LINE
  5
93D3
  8
0
 10
3867.3325292265330972
 20
220.7503593356711065
 30
0.0
 11
3867.3530016674321814
 21
220.7587176755712051
 31
0.0
  0
LINE
  5
93D4
  8
0
 10
3867.3530016674321814
 20
220.7587176755712051
 30
0.0
 11
3867.3530016674321814
 21
220.7741371741711873
 31
0.0
  0
LINE
  5
93D5
  8
0
 10
3867.3530016674321814
 20
220.7741371741711873
 30
0.0
 11
3867.3325286851290912
 21
220.782495292931003
 31
0.0
  0
LINE
  5
93D6
  8
0
 10
3867.3325286851290912
 20
220.782495292931003
 30
0.0
 11
3867.3120881560521411
 21
220.7741499819248929
 31
0.0
  0
LINE
  5
93D7
  8
0
 10
3867.3120881560521411
 20
220.7741499819248929
 30
0.0
 11
3867.3120567855321497
 21
220.7587176755712051
 31
0.0
  0
LINE
  5
93D8
  8
0
 10
3867.3120567855321497
 20
220.6965123386711127
 30
0.0
 11
3867.3325292265330972
 21
220.6881539987710994
 31
0.0
  0
LINE
  5
93D9
  8
0
 10
3867.3325292265330972
 20
220.6881539987710994
 30
0.0
 11
3867.3530016674321814
 21
220.6965123386711127
 31
0.0
  0
LINE
  5
93DA
  8
0
 10
3867.3530016674321814
 20
220.6965123386711127
 30
0.0
 11
3867.3530016674321814
 21
220.711931837271095
 31
0.0
  0
LINE
  5
93DB
  8
0
 10
3867.3530016674321814
 20
220.711931837271095
 30
0.0
 11
3867.3325286851290912
 21
220.7202899560309106
 31
0.0
  0
LINE
  5
93DC
  8
0
 10
3867.3325286851290912
 20
220.7202899560309106
 30
0.0
 11
3867.3120881560521411
 21
220.7119446450248859
 31
0.0
  0
LINE
  5
93DD
  8
0
 10
3867.3120881560521411
 20
220.7119446450248859
 30
0.0
 11
3867.3120567855321497
 21
220.6965123386711127
 31
0.0
  0
LINE
  5
93DE
  8
0
 10
3867.3120567855321497
 20
220.6343070018712069
 30
0.0
 11
3867.3325292265330972
 21
220.6259486619711083
 31
0.0
  0
LINE
  5
93DF
  8
0
 10
3867.3325292265330972
 20
220.6259486619711083
 30
0.0
 11
3867.3530016674321814
 21
220.6343070018712069
 31
0.0
  0
LINE
  5
93E0
  8
0
 10
3867.3530016674321814
 20
220.6343070018712069
 30
0.0
 11
3867.3530016674321814
 21
220.6497265004711892
 31
0.0
  0
LINE
  5
93E1
  8
0
 10
3867.3530016674321814
 20
220.6497265004711892
 30
0.0
 11
3867.3325286851290912
 21
220.6580846192308911
 31
0.0
  0
LINE
  5
93E2
  8
0
 10
3867.3325286851290912
 20
220.6580846192308911
 30
0.0
 11
3867.3120881560521411
 21
220.6497393082248948
 31
0.0
  0
LINE
  5
93E3
  8
0
 10
3867.3120881560521411
 20
220.6497393082248948
 30
0.0
 11
3867.3120567855321497
 21
220.6343070018712069
 31
0.0
  0
LINE
  5
93E4
  8
0
 10
3867.3374510276330511
 20
220.6032043333308934
 30
0.0
 11
3867.3579234686321797
 21
220.5948459934309085
 31
0.0
  0
LINE
  5
93E5
  8
0
 10
3867.3579234686321797
 20
220.5948459934309085
 30
0.0
 11
3867.3783959095330829
 21
220.6032043333308934
 31
0.0
  0
LINE
  5
93E6
  8
0
 10
3867.3783959095330829
 20
220.6032043333308934
 30
0.0
 11
3867.3783959095330829
 21
220.6186238319309894
 31
0.0
  0
LINE
  5
93E7
  8
0
 10
3867.3783959095330829
 20
220.6186238319309894
 30
0.0
 11
3867.3579229272290831
 21
220.6269819506906913
 31
0.0
  0
LINE
  5
93E8
  8
0
 10
3867.3579229272290831
 20
220.6269819506906913
 30
0.0
 11
3867.3374823981521331
 21
220.618636639684695
 31
0.0
  0
LINE
  5
93E9
  8
0
 10
3867.3374823981521331
 20
220.618636639684695
 30
0.0
 11
3867.3374510276330511
 21
220.6032043333308934
 31
0.0
  0
LINE
  5
93EA
  8
0
 10
3867.3374504863331822
 20
220.6654096702710888
 30
0.0
 11
3867.357922927331856
 21
220.6570513303711891
 31
0.0
  0
LINE
  5
93EB
  8
0
 10
3867.357922927331856
 20
220.6570513303711891
 30
0.0
 11
3867.378395368233214
 21
220.6654096702710888
 31
0.0
  0
LINE
  5
93EC
  8
0
 10
3867.378395368233214
 20
220.6654096702710888
 30
0.0
 11
3867.378395368233214
 21
220.6808291688710995
 31
0.0
  0
LINE
  5
93ED
  8
0
 10
3867.378395368233214
 20
220.6808291688710995
 30
0.0
 11
3867.3579223859292142
 21
220.6891872876310003
 31
0.0
  0
LINE
  5
93EE
  8
0
 10
3867.3579223859292142
 20
220.6891872876310003
 30
0.0
 11
3867.3374818568531737
 21
220.6808419766248903
 31
0.0
  0
LINE
  5
93EF
  8
0
 10
3867.3374818568531737
 20
220.6808419766248903
 30
0.0
 11
3867.3374504863331822
 21
220.6654096702710888
 31
0.0
  0
LINE
  5
93F0
  8
0
 10
3867.3374504863331822
 20
220.7276150071712095
 30
0.0
 11
3867.357922927331856
 21
220.7192566672711109
 31
0.0
  0
LINE
  5
93F1
  8
0
 10
3867.357922927331856
 20
220.7192566672711109
 30
0.0
 11
3867.378395368233214
 21
220.7276150071712095
 31
0.0
  0
LINE
  5
93F2
  8
0
 10
3867.378395368233214
 20
220.7276150071712095
 30
0.0
 11
3867.378395368233214
 21
220.7430345057711918
 31
0.0
  0
LINE
  5
93F3
  8
0
 10
3867.378395368233214
 20
220.7430345057711918
 30
0.0
 11
3867.3579223859292142
 21
220.7513926245308937
 31
0.0
  0
LINE
  5
93F4
  8
0
 10
3867.3579223859292142
 20
220.7513926245308937
 30
0.0
 11
3867.3374818568531737
 21
220.7430473135248974
 31
0.0
  0
LINE
  5
93F5
  8
0
 10
3867.3374818568531737
 20
220.7430473135248974
 30
0.0
 11
3867.3374504863331822
 21
220.7276150071712095
 31
0.0
  0
LINE
  5
93F6
  8
0
 10
3867.362844187131941
 20
220.7587176755712051
 30
0.0
 11
3867.3833166281319791
 21
220.7503593356711065
 31
0.0
  0
LINE
  5
93F7
  8
0
 10
3867.3833166281319791
 20
220.7503593356711065
 30
0.0
 11
3867.4037890690319728
 21
220.7587176755712051
 31
0.0
  0
LINE
  5
93F8
  8
0
 10
3867.4037890690319728
 20
220.7587176755712051
 30
0.0
 11
3867.4037890690319728
 21
220.7741371741711873
 31
0.0
  0
LINE
  5
93F9
  8
0
 10
3867.4037890690319728
 20
220.7741371741711873
 30
0.0
 11
3867.3833160867288825
 21
220.782495292931003
 31
0.0
  0
LINE
  5
93FA
  8
0
 10
3867.3833160867288825
 20
220.782495292931003
 30
0.0
 11
3867.362875557652842
 21
220.7741499819248929
 31
0.0
  0
LINE
  5
93FB
  8
0
 10
3867.362875557652842
 20
220.7741499819248929
 30
0.0
 11
3867.362844187131941
 21
220.7587176755712051
 31
0.0
  0
LINE
  5
93FC
  8
0
 10
3867.362844187131941
 20
220.6965123386711127
 30
0.0
 11
3867.3833166281319791
 21
220.6881539987710994
 31
0.0
  0
LINE
  5
93FD
  8
0
 10
3867.3833166281319791
 20
220.6881539987710994
 30
0.0
 11
3867.4037890690319728
 21
220.6965123386711127
 31
0.0
  0
LINE
  5
93FE
  8
0
 10
3867.4037890690319728
 20
220.6965123386711127
 30
0.0
 11
3867.4037890690319728
 21
220.711931837271095
 31
0.0
  0
LINE
  5
93FF
  8
0
 10
3867.4037890690319728
 20
220.711931837271095
 30
0.0
 11
3867.3833160867288825
 21
220.7202899560309106
 31
0.0
  0
LINE
  5
9400
  8
0
 10
3867.3833160867288825
 20
220.7202899560309106
 30
0.0
 11
3867.362875557652842
 21
220.7119446450248859
 31
0.0
  0
LINE
  5
9401
  8
0
 10
3867.362875557652842
 20
220.7119446450248859
 30
0.0
 11
3867.362844187131941
 21
220.6965123386711127
 31
0.0
  0
LINE
  5
9402
  8
0
 10
3867.362844187131941
 20
220.6343070018712069
 30
0.0
 11
3867.3833166281319791
 21
220.6259486619711083
 31
0.0
  0
LINE
  5
9403
  8
0
 10
3867.3833166281319791
 20
220.6259486619711083
 30
0.0
 11
3867.4037890690319728
 21
220.6343070018712069
 31
0.0
  0
LINE
  5
9404
  8
0
 10
3867.4037890690319728
 20
220.6343070018712069
 30
0.0
 11
3867.4037890690319728
 21
220.6497265004711892
 31
0.0
  0
LINE
  5
9405
  8
0
 10
3867.4037890690319728
 20
220.6497265004711892
 30
0.0
 11
3867.3833160867288825
 21
220.6580846192308911
 31
0.0
  0
LINE
  5
9406
  8
0
 10
3867.3833160867288825
 20
220.6580846192308911
 30
0.0
 11
3867.362875557652842
 21
220.6497393082248948
 31
0.0
  0
LINE
  5
9407
  8
0
 10
3867.362875557652842
 20
220.6497393082248948
 30
0.0
 11
3867.362844187131941
 21
220.6343070018712069
 31
0.0
  0
LINE
  5
9408
  8
0
 10
3867.388238451631878
 20
220.6032022622711111
 30
0.0
 11
3867.4087108926319161
 21
220.5948439223710977
 31
0.0
  0
LINE
  5
9409
  8
0
 10
3867.4087108926319161
 20
220.5948439223710977
 30
0.0
 11
3867.4291833335319097
 21
220.6032022622711111
 31
0.0
  0
LINE
  5
940A
  8
0
 10
3867.4291833335319097
 20
220.6032022622711111
 30
0.0
 11
3867.4291833335319097
 21
220.618621760871207
 31
0.0
  0
LINE
  5
940B
  8
0
 10
3867.4291833335319097
 20
220.618621760871207
 30
0.0
 11
3867.4087103512288195
 21
220.626979879630909
 31
0.0
  0
LINE
  5
940C
  8
0
 10
3867.4087103512288195
 20
220.626979879630909
 30
0.0
 11
3867.3882698221518694
 21
220.6186345686249126
 31
0.0
  0
LINE
  5
940D
  8
0
 10
3867.3882698221518694
 20
220.6186345686249126
 30
0.0
 11
3867.388238451631878
 21
220.6032022622711111
 31
0.0
  0
LINE
  5
940E
  8
0
 10
3867.388237887932064
 20
220.6654096702710888
 30
0.0
 11
3867.4087103289330116
 21
220.6570513303711891
 31
0.0
  0
LINE
  5
940F
  8
0
 10
3867.4087103289330116
 20
220.6570513303711891
 30
0.0
 11
3867.4291827698320958
 21
220.6654096702710888
 31
0.0
  0
LINE
  5
9410
  8
0
 10
3867.4291827698320958
 20
220.6654096702710888
 30
0.0
 11
3867.4291827698320958
 21
220.6808291688710995
 31
0.0
  0
LINE
  5
9411
  8
0
 10
3867.4291827698320958
 20
220.6808291688710995
 30
0.0
 11
3867.4087097875290056
 21
220.6891872876310003
 31
0.0
  0
LINE
  5
9412
  8
0
 10
3867.4087097875290056
 20
220.6891872876310003
 30
0.0
 11
3867.3882692584520555
 21
220.6808419766248903
 31
0.0
  0
LINE
  5
9413
  8
0
 10
3867.3882692584520555
 20
220.6808419766248903
 30
0.0
 11
3867.388237887932064
 21
220.6654096702710888
 31
0.0
  0
LINE
  5
9414
  8
0
 10
3867.388238429231933
 20
220.7276152281710893
 30
0.0
 11
3867.4087108702328806
 21
220.7192568882711896
 31
0.0
  0
LINE
  5
9415
  8
0
 10
3867.4087108702328806
 20
220.7192568882711896
 30
0.0
 11
3867.4291833111319647
 21
220.7276152281710893
 31
0.0
  0
LINE
  5
9416
  8
0
 10
3867.4291833111319647
 20
220.7276152281710893
 30
0.0
 11
3867.4291833111319647
 21
220.7430347267710999
 31
0.0
  0
LINE
  5
9417
  8
0
 10
3867.4291833111319647
 20
220.7430347267710999
 30
0.0
 11
3867.4087103288288745
 21
220.7513928455310008
 31
0.0
  0
LINE
  5
9418
  8
0
 10
3867.4087103288288745
 20
220.7513928455310008
 30
0.0
 11
3867.3882697997519244
 21
220.7430475345248908
 31
0.0
  0
LINE
  5
9419
  8
0
 10
3867.3882697997519244
 20
220.7430475345248908
 30
0.0
 11
3867.388238429231933
 21
220.7276152281710893
 31
0.0
  0
LINE
  5
941A
  8
0
 10
3867.4136315887321871
 20
220.7587176755712051
 30
0.0
 11
3867.4341040297322252
 21
220.7503593356711065
 31
0.0
  0
LINE
  5
941B
  8
0
 10
3867.4341040297322252
 20
220.7503593356711065
 30
0.0
 11
3867.4545764706331283
 21
220.7587176755712051
 31
0.0
  0
LINE
  5
941C
  8
0
 10
3867.4545764706331283
 20
220.7587176755712051
 30
0.0
 11
3867.4545764706331283
 21
220.7741371741711873
 31
0.0
  0
LINE
  5
941D
  8
0
 10
3867.4545764706331283
 20
220.7741371741711873
 30
0.0
 11
3867.442797405813053
 21
220.7789459910389098
 31
0.0
  0
LINE
  5
941E
  8
0
 10
3867.4325527558598878
 20
220.7818621711222988
 30
0.0
 11
3867.413662959253088
 21
220.7741499819248929
 31
0.0
  0
LINE
  5
941F
  8
0
 10
3867.413662959253088
 20
220.7741499819248929
 30
0.0
 11
3867.4136315887321871
 21
220.7587176755712051
 31
0.0
  0
LINE
  5
9420
  8
0
 10
3867.4136315887321871
 20
220.6965123386711127
 30
0.0
 11
3867.4341040297322252
 21
220.6881539987710994
 31
0.0
  0
LINE
  5
9421
  8
0
 10
3867.4341040297322252
 20
220.6881539987710994
 30
0.0
 11
3867.4545764706331283
 21
220.6965123386711127
 31
0.0
  0
LINE
  5
9422
  8
0
 10
3867.4545764706331283
 20
220.6965123386711127
 30
0.0
 11
3867.4545764706331283
 21
220.711931837271095
 31
0.0
  0
LINE
  5
9423
  8
0
 10
3867.4545764706331283
 20
220.711931837271095
 30
0.0
 11
3867.4341034883291286
 21
220.7202899560309106
 31
0.0
  0
LINE
  5
9424
  8
0
 10
3867.4341034883291286
 20
220.7202899560309106
 30
0.0
 11
3867.413662959253088
 21
220.7119446450248859
 31
0.0
  0
LINE
  5
9425
  8
0
 10
3867.413662959253088
 20
220.7119446450248859
 30
0.0
 11
3867.4136315887321871
 21
220.6965123386711127
 31
0.0
  0
LINE
  5
9426
  8
0
 10
3867.4136315887321871
 20
220.6343070018712069
 30
0.0
 11
3867.4341040297322252
 21
220.6259486619711083
 31
0.0
  0
LINE
  5
9427
  8
0
 10
3867.4341040297322252
 20
220.6259486619711083
 30
0.0
 11
3867.4545764706331283
 21
220.6343070018712069
 31
0.0
  0
LINE
  5
9428
  8
0
 10
3867.4545764706331283
 20
220.6343070018712069
 30
0.0
 11
3867.4545764706331283
 21
220.6497265004711892
 31
0.0
  0
LINE
  5
9429
  8
0
 10
3867.4545764706331283
 20
220.6497265004711892
 30
0.0
 11
3867.4341034883291286
 21
220.6580846192308911
 31
0.0
  0
LINE
  5
942A
  8
0
 10
3867.4341034883291286
 20
220.6580846192308911
 30
0.0
 11
3867.413662959253088
 21
220.6497393082248948
 31
0.0
  0
LINE
  5
942B
  8
0
 10
3867.413662959253088
 20
220.6497393082248948
 30
0.0
 11
3867.4136315887321871
 21
220.6343070018712069
 31
0.0
  0
LINE
  5
942C
  8
0
 10
3867.439025289428173
 20
220.6654096702310142
 30
0.0
 11
3867.4594977304291206
 21
220.6570513303308871
 31
0.0
  0
LINE
  5
942D
  8
0
 10
3867.4594977304291206
 20
220.6570513303308871
 30
0.0
 11
3867.4799701713291142
 21
220.6654096702310142
 31
0.0
  0
LINE
  5
942E
  8
0
 10
3867.4799701713291142
 20
220.6654096702310142
 30
0.0
 11
3867.4799701713291142
 21
220.6808291688309964
 31
0.0
  0
LINE
  5
942F
  8
0
 10
3867.4799701713291142
 20
220.6808291688309964
 30
0.0
 11
3867.459497189026024
 21
220.689187287590812
 31
0.0
  0
LINE
  5
9430
  8
0
 10
3867.459497189026024
 20
220.689187287590812
 30
0.0
 11
3867.4390566599490739
 21
220.680841976584702
 31
0.0
  0
LINE
  5
9431
  8
0
 10
3867.4390566599490739
 20
220.680841976584702
 30
0.0
 11
3867.439025289428173
 21
220.6654096702310142
 31
0.0
  0
LINE
  5
9432
  8
0
 10
3867.4390258308321791
 20
220.7276152281710893
 30
0.0
 11
3867.4594982718331266
 21
220.7192568882711896
 31
0.0
  0
LINE
  5
9433
  8
0
 10
3867.4594982718331266
 20
220.7192568882711896
 30
0.0
 11
3867.4799707127322108
 21
220.7276152281710893
 31
0.0
  0
LINE
  5
9434
  8
0
 10
3867.4799707127322108
 20
220.7276152281710893
 30
0.0
 11
3867.4799707127322108
 21
220.7430347267710999
 31
0.0
  0
LINE
  5
9435
  8
0
 10
3867.4799707127322108
 20
220.7430347267710999
 30
0.0
 11
3867.4594977304291206
 21
220.7513928455310008
 31
0.0
  0
LINE
  5
9436
  8
0
 10
3867.4594977304291206
 20
220.7513928455310008
 30
0.0
 11
3867.4390572013521705
 21
220.7430475345248908
 31
0.0
  0
LINE
  5
9437
  8
0
 10
3867.4390572013521705
 20
220.7430475345248908
 30
0.0
 11
3867.4390258308321791
 21
220.7276152281710893
 31
0.0
  0
LINE
  5
9438
  8
0
 10
3867.4644189902292055
 20
220.696512338630896
 30
0.0
 11
3867.4848914312278794
 21
220.6881539987309964
 31
0.0
  0
LINE
  5
9439
  8
0
 10
3867.4848914312278794
 20
220.6881539987309964
 30
0.0
 11
3867.5053638721287825
 21
220.696512338630896
 31
0.0
  0
LINE
  5
943A
  8
0
 10
3867.5053638721287825
 20
220.696512338630896
 30
0.0
 11
3867.5053638721287825
 21
220.711931837230992
 31
0.0
  0
LINE
  5
943B
  8
0
 10
3867.5053638721287825
 20
220.711931837230992
 30
0.0
 11
3867.484890889826147
 21
220.7202899559908076
 31
0.0
  0
LINE
  5
943C
  8
0
 10
3867.484890889826147
 20
220.7202899559908076
 30
0.0
 11
3867.464450360749197
 21
220.7119446449846976
 31
0.0
  0
LINE
  5
943D
  8
0
 10
3867.464450360749197
 20
220.7119446449846976
 30
0.0
 11
3867.4644189902292055
 21
220.696512338630896
 31
0.0
  0
LINE
  5
943E
  8
0
 10
3867.4644195539322027
 20
220.6343049309712114
 30
0.0
 11
3867.4813370037068125
 21
220.627397997134608
 31
0.0
  0
LINE
  5
943F
  8
0
 10
3867.5053644358317797
 20
220.6487539506792928
 30
0.0
 11
3867.5053644358317797
 21
220.6497244295711084
 31
0.0
  0
LINE
  5
9440
  8
0
 10
3867.5053644358317797
 20
220.6497244295711084
 30
0.0
 11
3867.4848914535291442
 21
220.6580825483308956
 31
0.0
  0
LINE
  5
9441
  8
0
 10
3867.4848914535291442
 20
220.6580825483308956
 30
0.0
 11
3867.4644509244521942
 21
220.6497372373248993
 31
0.0
  0
LINE
  5
9442
  8
0
 10
3867.4644509244521942
 20
220.6497372373248993
 30
0.0
 11
3867.4644195539322027
 21
220.6343049309712114
 31
0.0
  0
LINE
  5
9443
  8
0
 10
3867.4907521463319426
 20
220.6650265582711938
 30
0.0
 11
3867.5112245873319807
 21
220.6566682183712089
 31
0.0
  0
LINE
  5
9444
  8
0
 10
3867.5112245873319807
 20
220.6566682183712089
 30
0.0
 11
3867.5131285673178354
 21
220.6574455615302099
 31
0.0
  0
LINE
  5
9445
  8
0
 10
3867.5300889618588371
 20
220.6811025518323959
 30
0.0
 11
3867.5112240459288842
 21
220.6888041756309917
 31
0.0
  0
LINE
  5
9446
  8
0
 10
3867.5112240459288842
 20
220.6888041756309917
 30
0.0
 11
3867.4907835168519341
 21
220.6804588646249101
 31
0.0
  0
LINE
  5
9447
  8
0
 10
3867.4907835168519341
 20
220.6804588646249101
 30
0.0
 11
3867.4907521463319426
 21
220.6650265582711938
 31
0.0
  0
LINE
  5
9448
  8
0
 10
3867.5152069555329035
 20
220.6965102675711137
 30
0.0
 11
3867.5344409006870592
 21
220.6886575717823007
 31
0.0
  0
LINE
  5
9449
  8
0
 10
3867.5466198022509161
 20
220.7158212305843108
 30
0.0
 11
3867.5356788551289355
 21
220.7202878849309116
 31
0.0
  0
LINE
  5
944A
  8
0
 10
3867.5356788551289355
 20
220.7202878849309116
 30
0.0
 11
3867.5152383260519855
 21
220.7119425739248868
 31
0.0
  0
LINE
  5
944B
  8
0
 10
3867.5152383260519855
 20
220.7119425739248868
 30
0.0
 11
3867.5152069555329035
 21
220.6965102675711137
 31
0.0
  0
LINE
  5
944C
  8
0
 10
3867.4898126910288738
 20
220.7276150071309075
 30
0.0
 11
3867.5102851320289119
 21
220.7192566672310079
 31
0.0
  0
LINE
  5
944D
  8
0
 10
3867.5102851320289119
 20
220.7192566672310079
 30
0.0
 11
3867.5307575729289056
 21
220.7276150071309075
 31
0.0
  0
LINE
  5
944E
  8
0
 10
3867.5307575729289056
 20
220.7276150071309075
 30
0.0
 11
3867.5307575729289056
 21
220.7430345057308898
 31
0.0
  0
LINE
  5
944F
  8
0
 10
3867.5307575729289056
 20
220.7430345057308898
 30
0.0
 11
3867.5102845906249058
 21
220.7513926244907054
 31
0.0
  0
LINE
  5
9450
  8
0
 10
3867.5102845906249058
 20
220.7513926244907054
 30
0.0
 11
3867.4898440615479558
 21
220.7430473134847091
 31
0.0
  0
LINE
  5
9451
  8
0
 10
3867.4898440615479558
 20
220.7430473134847091
 30
0.0
 11
3867.4898126910288738
 21
220.7276150071309075
 31
0.0
  0
LINE
  5
9452
  8
0
 10
3867.4390278053820111
 20
220.6033608030211894
 30
0.0
 11
3867.4398878761949163
 21
220.6030096595407031
 31
0.0
  0
LINE
  5
9453
  8
0
 10
3867.4731131676799123
 20
220.621580708451404
 30
0.0
 11
3867.4594997049789526
 21
220.6271384203809873
 31
0.0
  0
LINE
  5
9454
  8
0
 10
3867.4594997049789526
 20
220.6271384203809873
 30
0.0
 11
3867.4390591759020026
 21
220.6187931093749057
 31
0.0
  0
LINE
  5
9455
  8
0
 10
3867.4390591759020026
 20
220.6187931093749057
 30
0.0
 11
3867.4390278053820111
 21
220.6033608030211894
 31
0.0
  0
LINE
  5
9456
  8
0
 10
3867.4032379599161686
 20
220.5877443135383089
 30
0.0
 11
3867.3833166504291512
 21
220.5958772112309134
 31
0.0
  0
LINE
  5
9457
  8
0
 10
3867.3833166504291512
 20
220.5958772112309134
 30
0.0
 11
3867.3628761213522012
 21
220.5875319002248887
 31
0.0
  0
LINE
  5
9458
  8
0
 10
3867.3628761213522012
 20
220.5875319002248887
 30
0.0
 11
3867.3628530144728757
 21
220.5761647812313981
 31
0.0
  0
LINE
  5
9459
  8
0
 10
3867.3120573491228242
 20
220.5721086158077071
 30
0.0
 11
3867.3191169681649626
 21
220.5692263656883938
 31
0.0
  0
LINE
  5
945A
  8
0
 10
3867.3530022310219465
 20
220.5741095738723914
 30
0.0
 11
3867.3530022310219465
 21
220.5875281144076894
 31
0.0
  0
LINE
  5
945B
  8
0
 10
3867.3530022310219465
 20
220.5875281144076894
 30
0.0
 11
3867.3325292487188563
 21
220.595886233167505
 31
0.0
  0
LINE
  5
945C
  8
0
 10
3867.3325292487188563
 20
220.595886233167505
 30
0.0
 11
3867.3120887196419062
 21
220.5875409221615087
 31
0.0
  0
LINE
  5
945D
  8
0
 10
3867.3120887196419062
 20
220.5875409221615087
 30
0.0
 11
3867.3120573491228242
 21
220.5721086158077071
 31
0.0
  0
LINE
  5
945E
  8
0
 10
3867.2914007403969663
 20
220.5676844958796039
 30
0.0
 11
3867.302214829532204
 21
220.5720995938710871
 31
0.0
  0
LINE
  5
945F
  8
0
 10
3867.302214829532204
 20
220.5720995938710871
 30
0.0
 11
3867.302214829532204
 21
220.5875190924710978
 31
0.0
  0
LINE
  5
9460
  8
0
 10
3867.302214829532204
 20
220.5875190924710978
 30
0.0
 11
3867.2817418472291138
 21
220.5958772112309134
 31
0.0
  0
LINE
  5
9461
  8
0
 10
3867.2817418249292132
 20
220.6259486619308916
 30
0.0
 11
3867.3022142658292069
 21
220.6343070018309902
 31
0.0
  0
LINE
  5
9462
  8
0
 10
3867.3022142658292069
 20
220.6343070018309902
 30
0.0
 11
3867.3022142658292069
 21
220.6497265004308872
 31
0.0
  0
LINE
  5
9463
  8
0
 10
3867.3022142658292069
 20
220.6497265004308872
 30
0.0
 11
3867.2817412835261166
 21
220.6580846191907881
 31
0.0
  0
LINE
  5
9464
  8
0
 10
3867.2817418249292132
 20
220.6881544408113882
 30
0.0
 11
3867.2817423663332193
 21
220.6881542197712065
 31
0.0
  0
LINE
  5
9465
  8
0
 10
3867.2817423663332193
 20
220.6881542197712065
 30
0.0
 11
3867.3022148072332129
 21
220.6965125596711061
 31
0.0
  0
LINE
  5
9466
  8
0
 10
3867.3022148072332129
 20
220.6965125596711061
 30
0.0
 11
3867.3022148072332129
 21
220.7119320582710884
 31
0.0
  0
LINE
  5
9467
  8
0
 10
3867.3022148072332129
 20
220.7119320582710884
 30
0.0
 11
3867.2817418249292132
 21
220.7202901770309893
 31
0.0
  0
LINE
  5
9468
  8
0
 10
3867.2817418249292132
 20
220.7521957437112974
 30
0.0
 11
3867.2817423663332193
 21
220.7521955226710872
 31
0.0
  0
LINE
  5
9469
  8
0
 10
3867.2817423663332193
 20
220.7521955226710872
 30
0.0
 11
3867.3022148072332129
 21
220.7605538625711858
 31
0.0
  0
LINE
  5
946A
  8
0
 10
3867.3022148072332129
 20
220.7605538625711858
 30
0.0
 11
3867.3022148072332129
 21
220.7759733611711965
 31
0.0
  0
LINE
  5
946B
  8
0
 10
3867.3022148072332129
 20
220.7759733611711965
 30
0.0
 11
3867.2817418249292132
 21
220.7843314799310122
 31
0.0
  0
LINE
  5
946C
  8
0
 10
3867.2866630847288434
 20
220.7899690820123908
 30
0.0
 11
3867.3071355257288815
 21
220.7816107421124059
 31
0.0
  0
LINE
  5
946D
  8
0
 10
3867.3071355257288815
 20
220.7816107421124059
 30
0.0
 11
3867.3276079666288751
 21
220.7899690820123908
 31
0.0
  0
LINE
  5
946E
  8
0
 10
3867.3276079666288751
 20
220.7899690820123908
 30
0.0
 11
3867.3276079666288751
 21
220.8005005047787961
 31
0.0
  0
LINE
  5
946F
  8
0
 10
3867.2866884874028983
 20
220.802465586784507
 30
0.0
 11
3867.2866630847288434
 21
220.7899690820123908
 31
0.0
  0
LINE
  5
9470
  8
0
 10
3867.3373773104449356
 20
220.7897368302658094
 30
0.0
 11
3867.3578497514449737
 21
220.7813784903657961
 31
0.0
  0
LINE
  5
9471
  8
0
 10
3867.3578497514449737
 20
220.7813784903657961
 30
0.0
 11
3867.3783221923449673
 21
220.7897368302658094
 31
0.0
  0
LINE
  5
9472
  8
0
 10
3867.3783221923449673
 20
220.7897368302658094
 30
0.0
 11
3867.3783221923449673
 21
220.7939899877189873
 31
0.0
  0
LINE
  5
9473
  8
0
 10
3867.3373973559619117
 20
220.7995979528575958
 30
0.0
 11
3867.3373773104449356
 21
220.7897368302658094
 31
0.0
  0
LINE
  5
9474
  8
0
 10
3867.3885712510009398
 20
220.7901356216601982
 30
0.0
 11
3867.4090436920009779
 21
220.7817772817602986
 31
0.0
  0
LINE
  5
9475
  8
0
 10
3867.4090436920009779
 20
220.7817772817602986
 30
0.0
 11
3867.418340601941054
 21
220.7855729568181005
 31
0.0
  0
LINE
  5
9476
  8
0
 10
3867.3885752731680441
 20
220.7921142726652874
 30
0.0
 11
3867.3885712510009398
 21
220.7901356216601982
 31
0.0
  0
LINE
  5
9477
  8
0
 10
3867.4645556441328154
 20
220.7588555237200865
 30
0.0
 11
3867.4850280851328534
 21
220.7504971838201016
 31
0.0
  0
LINE
  5
9478
  8
0
 10
3867.4850280851328534
 20
220.7504971838201016
 30
0.0
 11
3867.5026262673150086
 21
220.7576820421876107
 31
0.0
  0
LINE
  5
9479
  8
0
 10
3867.4645824786312005
 20
220.7720563952873931
 30
0.0
 11
3867.4645556441328154
 21
220.7588555237200865
 31
0.0
  0
LINE
  5
947A
  8
0
 10
3867.5407542273928811
 20
220.7275857178383092
 30
0.0
 11
3867.5493581915479808
 21
220.7240729536837023
 31
0.0
  0
LINE
  5
947B
  8
0
 10
3867.5407795731362057
 20
220.7400542159394092
 30
0.0
 11
3867.5407542273928811
 21
220.7275857178383092
 31
0.0
  0
ENDSEC
  0
EOF
