  0
SECTION
  2
HEADER
  9
$ACADVER
  1
AC1009
  9
$INSBASE
 10
3111.0218309840229267
 20
44.9085810331790327
 30
0.0
  9
$EXTMIN
 10
3110.0769490942730044
 20
37.5652338320023702
 30
0.0
  9
$EXTMAX
 10
3112.4050155954419097
 20
46.2917656445979588
 30
0.0
  9
$LIMMIN
 10
0.0
 20
0.0
  9
$LIMMAX
 10
11.6929133858000007
 20
8.2677165353999982
  9
$ORTHOMODE
 70
     0
  9
$REGENMODE
 70
     1
  9
$FILLMODE
 70
     1
  9
$QTEXTMODE
 70
     0
  9
$MIRRTEXT
 70
     0
  9
$DRAGMODE
 70
     2
  9
$LTSCALE
 40
0.6431102362
  9
$OSMODE
 70
  4095
  9
$ATTMODE
 70
     1
  9
$TEXTSIZE
 40
0.2
  9
$TRACEWID
 40
0.05
  9
$TEXTSTYLE
  7
STANDARD
  9
$CLAYER
  8
0
  9
$CELTYPE
  6
BYLAYER
  9
$CECOLOR
 62
   256
  9
$DIMSCALE
 40
1.0
  9
$DIMASZ
 40
0.1875
  9
$DIMEXO
 40
0.0625
  9
$DIMDLI
 40
0.4443307087
  9
$DIMRND
 40
0.0
  9
$DIMDLE
 40
0.0
  9
$DIMEXE
 40
0.125
  9
$DIMTP
 40
0.01
  9
$DIMTM
 40
0.01
  9
$DIMTXT
 40
2.0
  9
$DIMCEN
 40
0.1052362205
  9
$DIMTSZ
 40
0.0
  9
$DIMTOL
 70
     1
  9
$DIMLIM
 70
     0
  9
$DIMTIH
 70
     1
  9
$DIMTOH
 70
     1
  9
$DIMSE1
 70
     0
  9
$DIMSE2
 70
     0
  9
$DIMTAD
 70
     0
  9
$DIMZIN
 70
     0
  9
$DIMBLK
  1

  9
$DIMASO
 70
     1
  9
$DIMSHO
 70
     1
  9
$DIMPOST
  1
\X
  9
$DIMAPOST
  1

  9
$DIMALT
 70
     1
  9
$DIMALTD
 70
     2
  9
$DIMALTF
 40
25.3999999999999986
  9
$DIMLFAC
 40
1.0
  9
$DIMTOFL
 70
     0
  9
$DIMTVP
 40
0.0
  9
$DIMTIX
 70
     0
  9
$DIMSOXD
 70
     0
  9
$DIMSAH
 70
     0
  9
$DIMBLK1
  1

  9
$DIMBLK2
  1

  9
$DIMSTYLE
  2
STANDARD
  9
$DIMCLRD
 70
     0
  9
$DIMCLRE
 70
     0
  9
$DIMCLRT
 70
     0
  9
$DIMTFAC
 40
1.0
  9
$DIMGAP
 40
0.09
  9
$LUNITS
 70
     2
  9
$LUPREC
 70
     4
  9
$SKETCHINC
 40
0.1
  9
$FILLETRAD
 40
0.0
  9
$AUNITS
 70
     0
  9
$AUPREC
 70
     0
  9
$MENU
  1
.
  9
$ELEVATION
 40
0.0
  9
$PELEVATION
 40
0.0
  9
$THICKNESS
 40
0.0
  9
$LIMCHECK
 70
     0
  9
$BLIPMODE
 70
     0
  9
$CHAMFERA
 40
0.0
  9
$CHAMFERB
 40
0.0
  9
$SKPOLY
 70
     0
  9
$TDCREATE
 40
2458060.468368056230247
  9
$TDUPDATE
 40
2459948.7682754630222917
  9
$TDINDWG
 40
0.2941737269
  9
$TDUSRTIMER
 40
0.2941737269
  9
$USRTIMER
 70
     1
  9
$ANGBASE
 50
0.0
  9
$ANGDIR
 70
     0
  9
$PDMODE
 70
     0
  9
$PDSIZE
 40
0.3125
  9
$PLINEWID
 40
0.0
  9
$COORDS
 70
     1
  9
$SPLFRAME
 70
     0
  9
$SPLINETYPE
 70
     6
  9
$SPLINESEGS
 70
     8
  9
$ATTDIA
 70
     1
  9
$ATTREQ
 70
     1
  9
$HANDLING
 70
     1
  9
$HANDSEED
  5
68C0
  9
$SURFTAB1
 70
     6
  9
$SURFTAB2
 70
     6
  9
$SURFTYPE
 70
     6
  9
$SURFU
 70
     6
  9
$SURFV
 70
     6
  9
$UCSNAME
  2

  9
$UCSORG
 10
0.0
 20
0.0
 30
0.0
  9
$UCSXDIR
 10
1.0
 20
0.0
 30
0.0
  9
$UCSYDIR
 10
0.0
 20
1.0
 30
0.0
  9
$PUCSNAME
  2

  9
$PUCSORG
 10
0.0
 20
0.0
 30
0.0
  9
$PUCSXDIR
 10
1.0
 20
0.0
 30
0.0
  9
$PUCSYDIR
 10
0.0
 20
1.0
 30
0.0
  9
$USERI1
 70
     0
  9
$USERI2
 70
     0
  9
$USERI3
 70
     0
  9
$USERI4
 70
     0
  9
$USERI5
 70
     0
  9
$USERR1
 40
0.0
  9
$USERR2
 40
0.0
  9
$USERR3
 40
0.0
  9
$USERR4
 40
0.0
  9
$USERR5
 40
0.0
  9
$WORLDVIEW
 70
     1
  9
$SHADEDGE
 70
     3
  9
$SHADEDIF
 70
    70
  9
$TILEMODE
 70
     1
  9
$MAXACTVP
 70
    64
  9
$PLIMCHECK
 70
     0
  9
$PEXTMIN
 10
1.0000000000000000E+20
 20
1.0000000000000000E+20
 30
1.0000000000000000E+20
  9
$PEXTMAX
 10
-1.0000000000000000E+20
 20
-1.0000000000000000E+20
 30
-1.0000000000000000E+20
  9
$PLIMMIN
 10
0.0
 20
0.0
  9
$PLIMMAX
 10
12.0
 20
9.0
  9
$UNITMODE
 70
     0
  9
$VISRETAIN
 70
     1
  9
$PLINEGEN
 70
     0
  9
$PSLTSCALE
 70
     1
  0
ENDSEC
  0
SECTION
  2
TABLES
  0
TABLE
  2
VPORT
 70
     1
  0
VPORT
  2
*ACTIVE
 70
     0
 10
0.0
 20
0.0
 11
1.0
 21
1.0
 12
111.7553588048665034
 22
-13.3342999444958892
 13
0.0
 23
0.0
 14
1.0
 24
1.0
 15
0.0
 25
0.0
 16
0.0
 26
0.0
 36
238.8063968625259008
 17
3002.96630859375
 27
54.8220901489257813
 37
0.0
 40
13.5094027428181498
 41
2.8524096385542159
 42
50.0
 43
0.0
 44
0.0
 50
0.0
 51
0.0
 71
     0
 72
   100
 73
     1
 74
     1
 75
     0
 76
     0
 77
     0
 78
     0
  0
ENDTAB
  0
TABLE
  2
LTYPE
 70
     2
  0
LTYPE
  2
CONTINUOUS
 70
     0
  3
Solid line
 72
    65
 73
     0
 40
0.0
  0
LTYPE
  2
PHANTOM2
 70
     0
  3
___ _ _ ___ _ _ ___ _ _ ___ _ _
 72
    65
 73
     6
 40
1.25
 49
0.625
 49
-0.125
 49
0.125
 49
-0.125
 49
0.125
 49
-0.125
  0
ENDTAB
  0
TABLE
  2
LAYER
 70
     2
  0
LAYER
  2
0
 70
     0
 62
   255
  6
CONTINUOUS
  0
LAYER
  2
DEFPOINTS
 70
     0
 62
     7
  6
CONTINUOUS
  0
ENDTAB
  0
TABLE
  2
STYLE
 70
     1
  0
STYLE
  2
STANDARD
 70
     0
 40
0.0
 41
0.8
 50
0.0
 71
     0
 42
0.2
  3
txt
  4

  0
ENDTAB
  0
TABLE
  2
VIEW
 70
     0
  0
ENDTAB
  0
TABLE
  2
UCS
 70
     0
  0
ENDTAB
  0
TABLE
  2
APPID
 70
     9
  0
APPID
  2
ACAD
 70
     0
  0
APPID
  2
ACAD_MLEADERVER
 70
     0
  0
APPID
  2
ACAD_EXEMPT_FROM_CAD_STANDARDS
 70
     0
  0
APPID
  2
ACAD_NAV_VCDISPLAY
 70
     0
  0
APPID
  2
ACAECLAYERSTANDARD
 70
     0
  0
APPID
  2
ACCMTRANSPARENCY
 70
     0
  0
APPID
  2
ACAD_DSTYLE_DIMJAG
 70
     0
  0
APPID
  2
ACAD_DSTYLE_DIMTALN
 70
     0
  0
APPID
  2
ACDBATTR
 70
     0
  0
ENDTAB
  0
TABLE
  2
DIMSTYLE
 70
     1
  0
DIMSTYLE
  2
STANDARD
 70
     0
  3

  4

  5

  6

  7

 40
1.0
 41
0.1875
 42
0.0625
 43
0.38
 44
0.125
 45
0.0
 46
0.0
 47
0.01
 48
0.01
140
0.15625
141
0.09
142
0.0
143
25.3999999999999986
144
1.0
145
0.0
146
1.0
147
0.09
 71
     1
 72
     0
 73
     1
 74
     1
 75
     0
 76
     0
 77
     0
 78
     4
170
     0
171
     2
172
     0
173
     0
174
     0
175
     0
176
     0
177
     0
178
     0
  0
ENDTAB
  0
ENDSEC
  0
SECTION
  2
BLOCKS
  0
BLOCK
  8
0
  2
$MODEL_SPACE
 70
     0
 10
0.0
 20
0.0
 30
0.0
  3
$MODEL_SPACE
  1

  0
ENDBLK
  5
21
  8
0
  0
BLOCK
 67
     1
  8
0
  2
$PAPER_SPACE
 70
     0
 10
0.0
 20
0.0
 30
0.0
  3
$PAPER_SPACE
  1

  0
ENDBLK
  5
1D
 67
     1
  8
0
  0
BLOCK
  8
0
  2
_FILLED
 70
     0
 10
0.0
 20
0.0
 30
0.0
  3
_FILLED
  1

  0
SOLID
  5
5CF5
  8
0
  6
BYBLOCK
 62
     0
 10
0.0
 20
0.0
 30
0.0
 11
-1.0
 21
0.1666666667
 31
0.0
 12
-1.0
 22
-0.1666666667
 32
0.0
 13
-1.0
 23
-0.1666666667
 33
0.0
  0
ENDBLK
  5
5CF6
  8
0
  6
BYBLOCK
 62
     0
  0
ENDSEC
  0
SECTION
  2
ENTITIES
  0
ATTDEF
  5
3930
  8
DEFPOINTS
 10
3111.0217531796470212
 20
44.9129563039319066
 30
0.0
 40
0.001
  1
K-77959T-4AE2
  3

  2
MODELNUMBER
 70
     0
1001
ACDBATTR
1070
     0
1070
     1
  0
ATTDEF
  5
3931
  8
DEFPOINTS
 10
3111.0217531796470212
 20
44.9112896372652486
 30
0.0
 40
0.001
  1
COMPONENTS
  3

  2
TRADENAME
 70
     0
1001
ACDBATTR
1070
     0
1070
     1
  0
ATTDEF
  5
3932
  8
DEFPOINTS
 10
3111.0217531796470212
 20
44.9096229705985905
 30
0.0
 40
0.001
  1
BATHROOM SINK FAUCET
  3

  2
PRODUCT
 70
     0
1001
ACDBATTR
1070
     0
1070
     1
  0
ARC
  5
6076
  8
0
 10
3111.0218309840229267
 20
44.9085810331790327
 30
0.0
 40
0.94488188975
 50
51.5795929432775395
 51
238.6118335352767872
  0
ARC
  5
6077
  8
0
 10
3111.0218309840229267
 20
44.9085810331790327
 30
0.0
 40
0.94488188975
 50
301.3881664647230991
 51
38.420407052937847
  0
CIRCLE
  5
6078
  8
0
 10
3111.0218309840229267
 20
44.9085810331790327
 30
0.0
 40
0.8169291338499999
  0
CIRCLE
  5
6079
  8
0
 10
3111.0218309839729045
 20
44.9085810331790327
 30
0.0
 40
0.7972440945000004
  0
LINE
  5
607A
  8
0
 10
3112.2461319259809898
 20
46.2859956481873169
 30
0.0
 11
3111.5178347605751696
 21
45.5576984827815892
 31
0.0
  0
LINE
  5
607B
  8
0
 10
3112.3992455990319286
 20
46.1328819751382824
 30
0.0
 11
3111.6709484336688547
 21
45.4045848096749012
 31
0.0
  0
LINE
  5
607C
  8
0
 10
3112.2739919331597775
 20
46.2859956481873169
 30
0.0
 11
3112.3992455990310191
 21
46.1607419823160825
 31
0.0
  0
ARC
  5
607D
  8
0
 10
3112.2600619295699289
 20
46.2720656445979586
 30
0.0
 40
0.0197
 50
44.9999999999879066
 51
135.0000000000104023
  0
ARC
  5
607E
  8
0
 10
3112.3853155954420799
 20
46.1468119787267028
 30
0.0
 40
0.0197
 50
315.0000000039435122
 51
44.9999999999942375
  0
LINE
  5
607F
  8
0
 10
3110.5297049997730028
 20
37.9102534747898332
 30
0.0
 11
3110.5297049997730028
 21
44.2565187467685419
 31
0.0
  0
ARC
  5
6080
  8
0
 10
3110.8058634762351176
 20
37.9227170005182614
 30
0.0
 40
0.2764395839879233
 50
182.5841074044161019
 51
209.7709413327253003
  0
ARC
  5
6081
  8
0
 10
3110.8500741306970667
 20
37.9380905789734015
 30
0.0
 40
0.3225635681005796
 50
208.2418323070417898
 51
238.6338772913798891
  0
ARC
  5
6082
  8
0
 10
3111.0083125055712117
 20
38.1656942649802318
 30
0.0
 40
0.5994999004220157
 50
237.0429249105424105
 51
255.8276822727038962
  0
ARC
  5
6083
  8
0
 10
3111.0212207545209822
 20
38.2386724326465384
 30
0.0
 40
0.6734386006441746
 50
256.2830772645472734
 51
270.0519179918351256
  0
LINE
  5
6084
  8
0
 10
3111.5139569682728506
 20
37.9102534747898403
 30
0.0
 11
3111.5139569682728506
 21
44.2565187467685419
 31
0.0
  0
ARC
  5
6085
  8
0
 10
3111.2377984918111906
 20
37.9227170005182614
 30
0.0
 40
0.2764395839879233
 50
330.2290586672747281
 51
357.4158925955835002
  0
ARC
  5
6086
  8
0
 10
3111.1935878373487867
 20
37.9380905789734015
 30
0.0
 40
0.3225635681005796
 50
301.3661227086201961
 51
331.7581676929577839
  0
ARC
  5
6087
  8
0
 10
3111.0353494624750965
 20
38.1656942649802318
 30
0.0
 40
0.5994999004220157
 50
284.1723177272961038
 51
302.9570750894574758
  0
ARC
  5
6088
  8
0
 10
3111.0224412135248713
 20
38.2386724326465384
 30
0.0
 40
0.6734386006441746
 50
269.9480820081648744
 51
283.7169227354527266
  0
LINE
  5
6089
  8
0
 10
3110.9431057871729536
 20
41.3155510615790291
 30
0.0
 11
3111.1005561808728999
 21
41.3155510615790291
 31
0.0
  0
LINE
  5
608A
  8
0
 10
3110.9234057871731238
 20
41.3352510615790294
 30
0.0
 11
3110.9234057871731238
 21
44.0976028026709983
 31
0.0
  0
ARC
  5
608B
  8
0
 10
3110.9431057871729536
 20
41.3352510615790294
 30
0.0
 40
0.0197
 50
179.9999999999893987
 51
270.0
  0
LINE
  5
608C
  8
0
 10
3111.1202561808731843
 20
41.3352510615790294
 30
0.0
 11
3111.1202561808731843
 21
44.0976028026709983
 31
0.0
  0
ARC
  5
608D
  8
0
 10
3111.1005561808728999
 20
41.3352510615790294
 30
0.0
 40
0.0197
 50
270.0
 51
0.0000000000105849
  0
ENDSEC
  0
EOF
