  0
SECTION
  2
HEADER
  9
$ACADVER
  1
AC1009
  9
$INSBASE
 10
2993.741713316779169
 20
84.4445727871782452
 30
0.0
  9
$EXTMIN
 10
2992.7968314270287919
 20
84.4396234483092769
 30
0.0
  9
$EXTMAX
 10
2995.1248979281981519
 20
95.6642578265782504
 30
0.0
  9
$LIMMIN
 10
0.0
 20
0.0
  9
$LIMMAX
 10
11.6929133858000007
 20
8.2677165353999982
  9
$ORTHOMODE
 70
     0
  9
$REGENMODE
 70
     1
  9
$FILLMODE
 70
     1
  9
$QTEXTMODE
 70
     0
  9
$MIRRTEXT
 70
     0
  9
$DRAGMODE
 70
     2
  9
$LTSCALE
 40
0.6431102362
  9
$OSMODE
 70
  4095
  9
$ATTMODE
 70
     1
  9
$TEXTSIZE
 40
0.2
  9
$TRACEWID
 40
0.05
  9
$TEXTSTYLE
  7
STANDARD
  9
$CLAYER
  8
0
  9
$CELTYPE
  6
BYLAYER
  9
$CECOLOR
 62
   256
  9
$DIMSCALE
 40
1.0
  9
$DIMASZ
 40
0.1875
  9
$DIMEXO
 40
0.0625
  9
$DIMDLI
 40
0.4443307087
  9
$DIMRND
 40
0.0
  9
$DIMDLE
 40
0.0
  9
$DIMEXE
 40
0.125
  9
$DIMTP
 40
0.01
  9
$DIMTM
 40
0.01
  9
$DIMTXT
 40
2.0
  9
$DIMCEN
 40
0.1052362205
  9
$DIMTSZ
 40
0.0
  9
$DIMTOL
 70
     1
  9
$DIMLIM
 70
     0
  9
$DIMTIH
 70
     1
  9
$DIMTOH
 70
     1
  9
$DIMSE1
 70
     0
  9
$DIMSE2
 70
     0
  9
$DIMTAD
 70
     0
  9
$DIMZIN
 70
     0
  9
$DIMBLK
  1

  9
$DIMASO
 70
     1
  9
$DIMSHO
 70
     1
  9
$DIMPOST
  1
\X
  9
$DIMAPOST
  1

  9
$DIMALT
 70
     1
  9
$DIMALTD
 70
     2
  9
$DIMALTF
 40
25.3999999999999986
  9
$DIMLFAC
 40
1.0
  9
$DIMTOFL
 70
     0
  9
$DIMTVP
 40
0.0
  9
$DIMTIX
 70
     0
  9
$DIMSOXD
 70
     0
  9
$DIMSAH
 70
     0
  9
$DIMBLK1
  1

  9
$DIMBLK2
  1

  9
$DIMSTYLE
  2
STANDARD
  9
$DIMCLRD
 70
     0
  9
$DIMCLRE
 70
     0
  9
$DIMCLRT
 70
     0
  9
$DIMTFAC
 40
1.0
  9
$DIMGAP
 40
0.09
  9
$LUNITS
 70
     2
  9
$LUPREC
 70
     4
  9
$SKETCHINC
 40
0.1
  9
$FILLETRAD
 40
0.0
  9
$AUNITS
 70
     0
  9
$AUPREC
 70
     0
  9
$MENU
  1
.
  9
$ELEVATION
 40
0.0
  9
$PELEVATION
 40
0.0
  9
$THICKNESS
 40
0.0
  9
$LIMCHECK
 70
     0
  9
$BLIPMODE
 70
     0
  9
$CHAMFERA
 40
0.0
  9
$CHAMFERB
 40
0.0
  9
$SKPOLY
 70
     0
  9
$TDCREATE
 40
2458060.468368056230247
  9
$TDUPDATE
 40
2459948.7681365739554167
  9
$TDINDWG
 40
0.2925186343
  9
$TDUSRTIMER
 40
0.2925186343
  9
$USRTIMER
 70
     1
  9
$ANGBASE
 50
0.0
  9
$ANGDIR
 70
     0
  9
$PDMODE
 70
     0
  9
$PDSIZE
 40
0.3125
  9
$PLINEWID
 40
0.0
  9
$COORDS
 70
     1
  9
$SPLFRAME
 70
     0
  9
$SPLINETYPE
 70
     6
  9
$SPLINESEGS
 70
     8
  9
$ATTDIA
 70
     1
  9
$ATTREQ
 70
     1
  9
$HANDLING
 70
     1
  9
$HANDSEED
  5
786F
  9
$SURFTAB1
 70
     6
  9
$SURFTAB2
 70
     6
  9
$SURFTYPE
 70
     6
  9
$SURFU
 70
     6
  9
$SURFV
 70
     6
  9
$UCSNAME
  2

  9
$UCSORG
 10
0.0
 20
0.0
 30
0.0
  9
$UCSXDIR
 10
1.0
 20
0.0
 30
0.0
  9
$UCSYDIR
 10
0.0
 20
1.0
 30
0.0
  9
$PUCSNAME
  2

  9
$PUCSORG
 10
0.0
 20
0.0
 30
0.0
  9
$PUCSXDIR
 10
1.0
 20
0.0
 30
0.0
  9
$PUCSYDIR
 10
0.0
 20
1.0
 30
0.0
  9
$USERI1
 70
     0
  9
$USERI2
 70
     0
  9
$USERI3
 70
     0
  9
$USERI4
 70
     0
  9
$USERI5
 70
     0
  9
$USERR1
 40
0.0
  9
$USERR2
 40
0.0
  9
$USERR3
 40
0.0
  9
$USERR4
 40
0.0
  9
$USERR5
 40
0.0
  9
$WORLDVIEW
 70
     1
  9
$SHADEDGE
 70
     3
  9
$SHADEDIF
 70
    70
  9
$TILEMODE
 70
     1
  9
$MAXACTVP
 70
    64
  9
$PLIMCHECK
 70
     0
  9
$PEXTMIN
 10
1.0000000000000000E+20
 20
1.0000000000000000E+20
 30
1.0000000000000000E+20
  9
$PEXTMAX
 10
-1.0000000000000000E+20
 20
-1.0000000000000000E+20
 30
-1.0000000000000000E+20
  9
$PLIMMIN
 10
0.0
 20
0.0
  9
$PLIMMAX
 10
12.0
 20
9.0
  9
$UNITMODE
 70
     0
  9
$VISRETAIN
 70
     1
  9
$PLINEGEN
 70
     0
  9
$PSLTSCALE
 70
     1
  0
ENDSEC
  0
SECTION
  2
TABLES
  0
TABLE
  2
VPORT
 70
     1
  0
VPORT
  2
*ACTIVE
 70
     0
 10
0.0
 20
0.0
 11
1.0
 21
1.0
 12
78.3966141125869456
 22
2.5154097561796229
 13
0.0
 23
0.0
 14
1.0
 24
1.0
 15
0.0
 25
0.0
 16
0.0
 26
0.0
 36
215.6888699471975031
 17
2919.75537109375
 27
87.2746505737304688
 37
0.0
 40
23.613198650257111
 41
2.8524096385542159
 42
50.0
 43
0.0
 44
0.0
 50
0.0
 51
0.0
 71
     0
 72
   100
 73
     1
 74
     1
 75
     0
 76
     0
 77
     0
 78
     0
  0
ENDTAB
  0
TABLE
  2
LTYPE
 70
     2
  0
LTYPE
  2
CONTINUOUS
 70
     0
  3
Solid line
 72
    65
 73
     0
 40
0.0
  0
LTYPE
  2
PHANTOM2
 70
     0
  3
___ _ _ ___ _ _ ___ _ _ ___ _ _
 72
    65
 73
     6
 40
1.25
 49
0.625
 49
-0.125
 49
0.125
 49
-0.125
 49
0.125
 49
-0.125
  0
ENDTAB
  0
TABLE
  2
LAYER
 70
     2
  0
LAYER
  2
0
 70
     0
 62
   255
  6
CONTINUOUS
  0
LAYER
  2
DEFPOINTS
 70
     0
 62
     7
  6
CONTINUOUS
  0
ENDTAB
  0
TABLE
  2
STYLE
 70
     1
  0
STYLE
  2
STANDARD
 70
     0
 40
0.0
 41
0.8
 50
0.0
 71
     0
 42
0.2
  3
txt
  4

  0
ENDTAB
  0
TABLE
  2
VIEW
 70
     0
  0
ENDTAB
  0
TABLE
  2
UCS
 70
     0
  0
ENDTAB
  0
TABLE
  2
APPID
 70
     9
  0
APPID
  2
ACAD
 70
     0
  0
APPID
  2
ACAD_MLEADERVER
 70
     0
  0
APPID
  2
ACAD_EXEMPT_FROM_CAD_STANDARDS
 70
     0
  0
APPID
  2
ACAD_NAV_VCDISPLAY
 70
     0
  0
APPID
  2
ACAECLAYERSTANDARD
 70
     0
  0
APPID
  2
ACCMTRANSPARENCY
 70
     0
  0
APPID
  2
ACAD_DSTYLE_DIMJAG
 70
     0
  0
APPID
  2
ACAD_DSTYLE_DIMTALN
 70
     0
  0
APPID
  2
ACDBATTR
 70
     0
  0
ENDTAB
  0
TABLE
  2
DIMSTYLE
 70
     1
  0
DIMSTYLE
  2
STANDARD
 70
     0
  3

  4

  5

  6

  7

 40
1.0
 41
0.1875
 42
0.0625
 43
0.38
 44
0.125
 45
0.0
 46
0.0
 47
0.01
 48
0.01
140
0.15625
141
0.09
142
0.0
143
25.3999999999999986
144
1.0
145
0.0
146
1.0
147
0.09
 71
     1
 72
     0
 73
     1
 74
     1
 75
     0
 76
     0
 77
     0
 78
     4
170
     0
171
     2
172
     0
173
     0
174
     0
175
     0
176
     0
177
     0
178
     0
  0
ENDTAB
  0
ENDSEC
  0
SECTION
  2
BLOCKS
  0
BLOCK
  8
0
  2
$MODEL_SPACE
 70
     0
 10
0.0
 20
0.0
 30
0.0
  3
$MODEL_SPACE
  1

  0
ENDBLK
  5
21
  8
0
  0
BLOCK
 67
     1
  8
0
  2
$PAPER_SPACE
 70
     0
 10
0.0
 20
0.0
 30
0.0
  3
$PAPER_SPACE
  1

  0
ENDBLK
  5
1D
 67
     1
  8
0
  0
BLOCK
  8
0
  2
_FILLED
 70
     0
 10
0.0
 20
0.0
 30
0.0
  3
_FILLED
  1

  0
SOLID
  5
5A61
  8
0
  6
BYBLOCK
 62
     0
 10
0.0
 20
0.0
 30
0.0
 11
-1.0
 21
0.1666666667
 31
0.0
 12
-1.0
 22
-0.1666666667
 32
0.0
 13
-1.0
 23
-0.1666666667
 33
0.0
  0
ENDBLK
  5
5A62
  8
0
  6
BYBLOCK
 62
     0
  0
ENDSEC
  0
SECTION
  2
ENTITIES
  0
ATTDEF
  5
3930
  8
DEFPOINTS
 10
2993.7417409158001647
 20
84.4429567816426356
 30
0.0
 40
0.001
  1
K-77959T-4AE2
  3

  2
MODELNUMBER
 70
     0
1001
ACDBATTR
1070
     0
1070
     1
  0
ATTDEF
  5
3931
  8
DEFPOINTS
 10
2993.7417409158001647
 20
84.4412901149759705
 30
0.0
 40
0.001
  1
COMPONENTS
  3

  2
TRADENAME
 70
     0
1001
ACDBATTR
1070
     0
1070
     1
  0
ATTDEF
  5
3932
  8
DEFPOINTS
 10
2993.7417409158001647
 20
84.4396234483093053
 30
0.0
 40
0.001
  1
BATHROOM SINK FAUCET
  3

  2
PRODUCT
 70
     0
1001
ACDBATTR
1070
     0
1070
     1
  0
LINE
  5
71B6
  8
0
 10
2992.9247841829292156
 20
95.3590971965782472
 30
0.0
 11
2992.9247841829292156
 21
95.6445578265782501
 31
0.0
  0
LINE
  5
71B7
  8
0
 10
2992.9247841829292156
 20
95.2520539164782463
 30
0.0
 11
2992.9247841829292156
 21
84.6493121572782456
 31
0.0
  0
LINE
  5
71B8
  8
0
 10
2992.9444841829290453
 20
95.6642578265782504
 30
0.0
 11
2994.5389424506288378
 21
95.6642578265782504
 31
0.0
  0
LINE
  5
71B9
  8
0
 10
2992.9345841829290293
 20
95.3492971965782345
 30
0.0
 11
2994.5488424506279443
 21
95.3492971965782345
 31
0.0
  0
LINE
  5
71BA
  8
0
 10
2992.9491747269530606
 20
95.2974529192782427
 30
0.0
 11
2994.5342519066048226
 21
95.2974529192782427
 31
0.0
  0
LINE
  5
71BB
  8
0
 10
2992.9444841829290453
 20
95.2717539164782465
 30
0.0
 11
2994.5389574113278286
 21
95.2717539164782465
 31
0.0
  0
ARC
  5
71BC
  8
0
 10
2992.9444841829290453
 20
95.6445578265782501
 30
0.0
 40
0.0197
 50
90.0
 51
180.0000000000048885
  0
ARC
  5
71BD
  8
0
 10
2992.9345841829290293
 20
95.3590971965782472
 30
0.0
 40
0.0098
 50
180.0000000000104876
 51
270.0
  0
LINE
  5
71BE
  8
0
 10
2992.9444692222291451
 20
95.2902276026808721
 30
0.0
 11
2992.9444692222291451
 21
95.2717539107974716
 31
0.0
  0
ARC
  5
71BF
  8
0
 10
2993.7417133167277825
 20
93.4955399701794931
 30
0.0
 40
1.968503936998659
 50
109.6594858939647992
 51
113.7409759868838961
  0
ARC
  5
71C0
  8
0
 10
2992.9523692222278441
 20
95.2902276026808721
 30
0.0
 40
0.0079
 50
113.740975986912602
 51
180.0000000000129887
  0
ARC
  5
71C1
  8
0
 10
2992.9444841829290453
 20
95.2520539164782463
 30
0.0
 40
0.0197
 50
90.0
 51
180.0000000000048885
  0
LINE
  5
71C2
  8
0
 10
2992.9172715411291392
 20
84.6296121572782454
 30
0.0
 11
2994.5661550924278345
 21
84.6296121572782454
 31
0.0
  0
ARC
  5
71C3
  8
0
 10
2992.9444841829290453
 20
84.6493121572782456
 30
0.0
 40
0.0197
 50
180.0000000000007958
 51
270.0
  0
LINE
  5
71C4
  8
0
 10
2992.9126761599291058
 20
84.6290682580782487
 30
0.0
 11
2992.8043436624548121
 21
84.603059926429637
 31
0.0
  0
LINE
  5
71C5
  8
0
 10
2992.9126761599291058
 20
84.6290682580782487
 30
0.0
 11
2992.9172715411291392
 21
84.6296121572782454
 31
0.0
  0
LINE
  5
71C6
  8
0
 10
2992.7968314270287919
 20
84.5935307012114919
 30
0.0
 11
2992.7968314270287919
 21
84.4445727871782452
 31
0.0
  0
ARC
  5
71C7
  8
0
 10
2992.8066314270290604
 20
84.5935307012114919
 30
0.0
 40
0.0098
 50
103.5000000436245955
 51
180.0
  0
LINE
  5
71C8
  8
0
 10
2992.7968314270287919
 20
84.4445727871782452
 30
0.0
 11
2994.6865952065290912
 21
84.4445727871782452
 31
0.0
  0
LINE
  5
71C9
  8
0
 10
2994.5586424506291223
 20
95.3590971965782472
 30
0.0
 11
2994.5586424506291223
 21
95.6445578265782501
 31
0.0
  0
LINE
  5
71CA
  8
0
 10
2994.5586424506291223
 20
95.2520539164782463
 30
0.0
 11
2994.5586424506291223
 21
84.6493121572782456
 31
0.0
  0
ARC
  5
71CB
  8
0
 10
2994.5389424506288378
 20
95.6445578265782501
 30
0.0
 40
0.0197
 50
359.9999999999951115
 51
90.0
  0
ARC
  5
71CC
  8
0
 10
2994.5488424506279443
 20
95.3590971965782472
 30
0.0
 40
0.0098
 50
270.0
 51
359.9999999999894271
  0
LINE
  5
71CD
  8
0
 10
2994.5389574113278286
 20
95.2902276026808721
 30
0.0
 11
2994.5389574113278286
 21
95.2717539107974716
 31
0.0
  0
ARC
  5
71CE
  8
0
 10
2993.7417133168291912
 20
93.4955399701794931
 30
0.0
 40
1.968503936998659
 50
66.2590240131161181
 51
70.3405141060351724
  0
ARC
  5
71CF
  8
0
 10
2994.5310574113291295
 20
95.2902276026808721
 30
0.0
 40
0.0079
 50
359.9999999999869829
 51
66.2590240130873411
  0
ARC
  5
71D0
  8
0
 10
2994.5389424506288378
 20
95.2520539164782463
 30
0.0
 40
0.0197
 50
359.9999999999951115
 51
90.0
  0
ARC
  5
71D1
  8
0
 10
2994.5389424506288378
 20
84.6493121572782456
 30
0.0
 40
0.0197
 50
270.0
 51
359.9999999999984084
  0
LINE
  5
71D2
  8
0
 10
2994.5707504736287774
 20
84.6290682580782487
 30
0.0
 11
2994.6790829711007973
 21
84.603059926429637
 31
0.0
  0
LINE
  5
71D3
  8
0
 10
2994.5707504736287774
 20
84.6290682580782487
 30
0.0
 11
2994.5661550924278345
 21
84.6296121572782454
 31
0.0
  0
LINE
  5
71D4
  8
0
 10
2994.6865952065290912
 20
84.5935307012114919
 30
0.0
 11
2994.6865952065290912
 21
84.4445727871782452
 31
0.0
  0
ARC
  5
71D5
  8
0
 10
2994.6767952065279133
 20
84.5935307012114919
 30
0.0
 40
0.0098
 50
0.0
 51
76.4999999563754187
  0
LINE
  5
71D6
  8
0
 10
2993.7446239992950723
 20
91.9661436443569755
 30
0.0
 11
2993.7388026342619014
 21
91.9661436443569755
 31
0.0
  0
LINE
  5
71D7
  8
0
 10
2993.7448818362408929
 20
92.6679257516180996
 30
0.0
 11
2993.7385447973169903
 21
92.6679257516180996
 31
0.0
  0
LINE
  5
71D8
  8
0
 10
2993.7542397700631227
 20
92.6400657444888651
 30
0.0
 11
2993.729186863493851
 21
92.6400657444888651
 31
0.0
  0
LINE
  5
71D9
  8
0
 10
2993.2495873325278808
 20
92.319908700678198
 30
0.0
 11
2993.2495873325278808
 21
93.1847302674782441
 31
0.0
  0
CIRCLE
  5
71DA
  8
0
 10
2993.7417133167291468
 20
95.5067775115782638
 30
0.0
 40
0.0984251968999992
  0
ARC
  5
71DB
  8
0
 10
2993.7417133167291468
 20
93.1847302674782441
 30
0.0
 40
0.4921259842999986
 50
0.0
 51
180.0
  0
ARC
  5
71DC
  8
0
 10
2993.7401290570478523
 20
91.9997615482515414
 30
0.0
 40
0.6681660815540966
 50
90.1358516748796035
 51
108.8909089674271939
  0
ARC
  5
71DD
  8
0
 10
2993.6462473078640869
 20
92.2244355386450536
 30
0.0
 40
0.4255019781261177
 50
106.7247597920297011
 51
148.5044086687740901
  0
ARC
  5
71DE
  8
0
 10
2993.509672089293872
 20
92.3184320087613344
 30
0.0
 40
0.2600889488634659
 50
150.4428171252349955
 51
179.6746933331035905
  0
ARC
  5
71DF
  8
0
 10
2993.5301200412209255
 20
92.3240778311934065
 30
0.0
 40
0.2805636867013405
 50
180.8514372532559094
 51
214.7516596258720938
  0
ARC
  5
71E0
  8
0
 10
2993.6710257731929232
 20
92.4420244884868509
 30
0.0
 40
0.4638648851086489
 50
216.8011900999634065
 51
253.7757551370129931
  0
ARC
  5
71E1
  8
0
 10
2993.7402579755212173
 20
92.6297043281849852
 30
0.0
 40
0.6635622797752134
 50
252.5635602078966997
 51
269.8743373738283253
  0
ARC
  5
71E2
  8
0
 10
2993.7354500901369647
 20
92.0328403917043261
 30
0.0
 40
0.6072576529549034
 50
90.5909564312158437
 51
117.8302977288102937
  0
ARC
  5
71E3
  8
0
 10
2993.6126009922081721
 20
92.2566669028589246
 30
0.0
 40
0.3519919833069911
 50
117.1555300680085026
 51
164.2660257665037022
  0
ARC
  5
71E4
  8
0
 10
2993.513544583177918
 20
92.3058150168745755
 30
0.0
 40
0.244177018327302
 50
169.0691184752243998
 51
209.5407063741716058
  0
ARC
  5
71E5
  8
0
 10
2993.6141828021441142
 20
92.3657129473609189
 30
0.0
 40
0.3612736176522701
 50
209.9360347224017005
 51
239.52279721282639
  0
ARC
  5
71E6
  8
0
 10
2993.7353983713442176
 20
92.5749770778913614
 30
0.0
 40
0.6031062435735699
 50
239.681495320570491
 51
269.3107262068263026
  0
ARC
  5
71E7
  8
0
 10
2993.7403732802540617
 20
92.0215845096930991
 30
0.0
 40
0.5947297111625685
 50
90.1290981445938968
 51
106.5055751852638934
  0
ARC
  5
71E8
  8
0
 10
2993.7107025409841299
 20
92.1220555029518806
 30
0.0
 40
0.4899692132314993
 50
106.5168721884486018
 51
123.1042624564096997
  0
ARC
  5
71E9
  8
0
 10
2993.6024214499088885
 20
92.2767859198628742
 30
0.0
 40
0.3012793980064867
 50
121.925766209544193
 51
159.8615336475670006
  0
ARC
  5
71EA
  8
0
 10
2993.5262832527068895
 20
92.3124426783522836
 30
0.0
 40
0.2176409975782441
 50
161.7739846611900987
 51
201.4574467172134007
  0
ARC
  5
71EB
  8
0
 10
2993.614601627184129
 20
92.3555070060346424
 30
0.0
 40
0.3156870280182769
 50
202.8681295067094084
 51
241.0768643924461117
  0
ARC
  5
71EC
  8
0
 10
2993.7358635282598698
 20
92.5603066991834993
 30
0.0
 40
0.5536338956902522
 50
240.3432686789755053
 51
269.3945919267789009
  0
LINE
  5
71ED
  8
0
 10
2993.7390332437280449
 20
92.616312711178125
 30
0.0
 11
2993.7443933898289288
 21
92.616312711178125
 31
0.0
  0
LINE
  5
71EE
  8
0
 10
2993.7281431196520316
 20
91.9719144755354137
 30
0.0
 11
2993.7552835139040326
 21
91.9719144755354137
 31
0.0
  0
LINE
  5
71EF
  8
0
 10
2993.7300137397410253
 20
92.0067037092787956
 30
0.0
 11
2993.7534128938159483
 21
92.0067037092787956
 31
0.0
  0
ARC
  5
71F0
  8
0
 10
2993.6313472772208115
 20
92.5711208430673764
 30
0.0
 40
0.1617037760283428
 50
187.7034753610936093
 51
195.1699268517637904
  0
ARC
  5
71F1
  8
0
 10
2993.5954991059170425
 20
92.5612221271541102
 30
0.0
 40
0.1245145689802165
 50
195.0903473174934106
 51
212.8014437324441985
  0
ARC
  5
71F2
  8
0
 10
2993.6329906114428923
 20
92.5859986338646337
 30
0.0
 40
0.169451111334122
 50
212.9758206600764083
 51
225.9605673463616995
  0
ARC
  5
71F3
  8
0
 10
2993.6869358601811655
 20
92.6385433731800561
 30
0.0
 40
0.2447340865129666
 50
225.433213143798298
 51
241.0324677548503018
  0
ARC
  5
71F4
  8
0
 10
2993.7231488404768243
 20
92.7002208374449737
 30
0.0
 40
0.3162389856858779
 50
240.7043014160205132
 51
254.9562655020868078
  0
ARC
  5
71F5
  8
0
 10
2993.7410272283668746
 20
92.7621992547890954
 30
0.0
 40
0.380735550279578
 50
254.7788751764620088
 51
269.8967525055775809
  0
LINE
  5
71F6
  8
0
 10
2993.740341139956854
 20
92.3814643226783403
 30
0.0
 11
2993.7430854936010292
 21
92.3814643226783403
 31
0.0
  0
ARC
  5
71F7
  8
0
 10
2993.6598021525887816
 20
92.6031676360545219
 30
0.0
 40
0.2205600190451004
 50
197.5636574797046023
 51
241.5880145214657944
  0
ARC
  5
71F8
  8
0
 10
2993.7386068364639868
 20
92.7388842252568821
 30
0.0
 40
0.3774550649140225
 50
240.8688641886411972
 51
269.5284465963903244
  0
LINE
  5
71F9
  8
0
 10
2993.7355003561478952
 20
92.3614419438292487
 30
0.0
 11
2993.7479262774090785
 21
92.3614419438292487
 31
0.0
  0
ARC
  5
71FA
  8
0
 10
2993.625869486999818
 20
92.5600349958968138
 30
0.0
 40
0.3040666868839473
 50
203.7653869423384947
 51
240.056623683049196
  0
ARC
  5
71FB
  8
0
 10
2993.735475640678942
 20
92.7445923730938091
 30
0.0
 40
0.5187062818998698
 50
239.7412461351860031
 51
269.3109759002663282
  0
ARC
  5
71FC
  8
0
 10
2993.6557219155852181
 20
92.5987078938827608
 30
0.0
 40
0.3693011168744893
 50
209.7264256474645094
 51
246.5940388071973075
  0
ARC
  5
71FD
  8
0
 10
2993.7387023915939608
 20
92.7794502909768539
 30
0.0
 40
0.5681509431779125
 50
246.1549944789140909
 51
269.6963586611685173
  0
LINE
  5
71FE
  8
0
 10
2993.7292379645778055
 20
92.2259235979788343
 30
0.0
 11
2993.7541886689791681
 21
92.2259235979788343
 31
0.0
  0
LINE
  5
71FF
  8
0
 10
2993.7356914664078431
 20
92.2113073260785256
 30
0.0
 11
2993.7477351671491306
 21
92.2113073260785256
 31
0.0
  0
LINE
  5
7200
  8
0
 10
2993.670453474228907
 20
92.5879434349782287
 30
0.0
 11
2993.670453474228907
 21
92.5725239363782464
 31
0.0
  0
LINE
  5
7201
  8
0
 10
2993.670453474228907
 20
92.5725239363782464
 30
0.0
 11
2993.6909259151279912
 21
92.5641655964782331
 31
0.0
  0
LINE
  5
7202
  8
0
 10
2993.6909259151279912
 20
92.5641655964782331
 30
0.0
 11
2993.7113983561289388
 21
92.5725239363782464
 31
0.0
  0
LINE
  5
7203
  8
0
 10
2993.7113983561289388
 20
92.5725239363782464
 30
0.0
 11
2993.7113983561289388
 21
92.5879434350035808
 31
0.0
  0
LINE
  5
7204
  8
0
 10
2993.670453474228907
 20
92.5879434349782287
 30
0.0
 11
2993.6909264565319972
 21
92.5963015537380443
 31
0.0
  0
LINE
  5
7205
  8
0
 10
2993.6909264565319972
 20
92.5963015537380443
 30
0.0
 11
2993.7113983561289388
 21
92.5879434350035808
 31
0.0
  0
ARC
  5
7206
  8
0
 10
2993.6678338759211329
 20
92.5923723854580913
 30
0.0
 40
0.0051456678521577
 50
243.4293606702767079
 51
300.6031080953255241
  0
LINE
  5
7207
  8
0
 10
2993.6606109546278276
 20
92.5879434349782287
 30
0.0
 11
2993.6606109546278276
 21
92.5725239363782464
 31
0.0
  0
LINE
  5
7208
  8
0
 10
2993.6606109546278276
 20
92.5725239363782464
 30
0.0
 11
2993.6401385137291982
 21
92.5641655964782331
 31
0.0
  0
LINE
  5
7209
  8
0
 10
2993.6401385137291982
 20
92.5641655964782331
 30
0.0
 11
2993.6196660727291601
 21
92.5725239363782464
 31
0.0
  0
LINE
  5
720A
  8
0
 10
2993.6196660727291601
 20
92.5725239363782464
 30
0.0
 11
2993.6196660727291601
 21
92.5879434350035808
 31
0.0
  0
LINE
  5
720B
  8
0
 10
2993.6606109546278276
 20
92.5879434349782287
 30
0.0
 11
2993.6401379723261016
 21
92.5963015537380443
 31
0.0
  0
LINE
  5
720C
  8
0
 10
2993.6401379723261016
 20
92.5963015537380443
 30
0.0
 11
2993.6196660727291601
 21
92.5879434350035808
 31
0.0
  0
ARC
  5
720D
  8
0
 10
2993.6632305529360565
 20
92.5923723854580913
 30
0.0
 40
0.0051456678521577
 50
239.3968919046745043
 51
296.5706393297232921
  0
ARC
  5
720E
  8
0
 10
2993.6170464743217963
 20
92.5923723854580913
 30
0.0
 40
0.0051456678521577
 50
243.4293606702767079
 51
300.6031080953255241
  0
LINE
  5
720F
  8
0
 10
2993.5590361514291544
 20
92.5879601457639865
 30
0.0
 11
2993.5590361514291544
 21
92.5725239363782464
 31
0.0
  0
ARC
  5
7210
  8
0
 10
2993.5616557497360191
 20
92.5923723854580913
 30
0.0
 40
0.0051456678521577
 50
239.3968919046745043
 51
296.5706393297232921
  0
LINE
  5
7211
  8
0
 10
2993.5688786710288696
 20
92.5879434349782287
 30
0.0
 11
2993.5688786710288696
 21
92.5725239363782464
 31
0.0
  0
LINE
  5
7212
  8
0
 10
2993.5688786710288696
 20
92.5725239363782464
 30
0.0
 11
2993.5893511119288632
 21
92.5641655964782331
 31
0.0
  0
LINE
  5
7213
  8
0
 10
2993.5893511119288632
 20
92.5641655964782331
 30
0.0
 11
2993.6098235529289013
 21
92.5725239363782464
 31
0.0
  0
LINE
  5
7214
  8
0
 10
2993.6098235529289013
 20
92.5725239363782464
 30
0.0
 11
2993.6098235529289013
 21
92.5879434350035808
 31
0.0
  0
LINE
  5
7215
  8
0
 10
2993.5688786710288696
 20
92.5879434349782287
 30
0.0
 11
2993.5893516533319598
 21
92.5963015537380443
 31
0.0
  0
LINE
  5
7216
  8
0
 10
2993.5885795784051879
 20
92.5966167708912309
 30
0.0
 11
2993.6098235529289013
 21
92.5879434350035808
 31
0.0
  0
ARC
  5
7217
  8
0
 10
2993.5662590727210954
 20
92.5923723854580913
 30
0.0
 40
0.0051456678521577
 50
243.4293606702767079
 51
300.6031080953255241
  0
ARC
  5
7218
  8
0
 10
2993.6124431513358104
 20
92.5923723854580913
 30
0.0
 40
0.0051456678521577
 50
239.3968919046745043
 51
296.5706393297232921
  0
LINE
  5
7219
  8
0
 10
2993.6704540156320036
 20
92.5257383191067504
 30
0.0
 11
2993.6704540156320036
 21
92.5103188205067539
 31
0.0
  0
LINE
  5
721A
  8
0
 10
2993.6704540156320036
 20
92.5103188205067539
 30
0.0
 11
2993.6909264565319972
 21
92.5019604806067548
 31
0.0
  0
LINE
  5
721B
  8
0
 10
2993.6909264565319972
 20
92.5019604806067548
 30
0.0
 11
2993.7113988975320353
 21
92.5103188205067539
 31
0.0
  0
LINE
  5
721C
  8
0
 10
2993.7113988975320353
 20
92.5103188205067539
 30
0.0
 11
2993.7113988975320353
 21
92.5257383191320741
 31
0.0
  0
LINE
  5
721D
  8
0
 10
2993.6704540156320036
 20
92.5257383191067504
 30
0.0
 11
2993.6909269979350938
 21
92.534096437866566
 31
0.0
  0
LINE
  5
721E
  8
0
 10
2993.6909269979350938
 20
92.534096437866566
 30
0.0
 11
2993.7113988975320353
 21
92.5257383191320741
 31
0.0
  0
ARC
  5
721F
  8
0
 10
2993.6678418789060743
 20
92.5300836648235361
 30
0.0
 40
0.0050700382321769
 50
243.0288612814509861
 51
301.0115234170564236
  0
LINE
  5
7220
  8
0
 10
2993.670453474228907
 20
92.4635332033469552
 30
0.0
 11
2993.670453474228907
 21
92.4481137047469588
 31
0.0
  0
LINE
  5
7221
  8
0
 10
2993.670453474228907
 20
92.4481137047469588
 30
0.0
 11
2993.6909259151279912
 21
92.4397553648469454
 31
0.0
  0
LINE
  5
7222
  8
0
 10
2993.6909259151279912
 20
92.4397553648469454
 30
0.0
 11
2993.7113983561289388
 21
92.4481137047469588
 31
0.0
  0
LINE
  5
7223
  8
0
 10
2993.7113983561289388
 20
92.4481137047469588
 30
0.0
 11
2993.7113983561289388
 21
92.4635332033722932
 31
0.0
  0
LINE
  5
7224
  8
0
 10
2993.670453474228907
 20
92.4635332033469552
 30
0.0
 11
2993.6909264565319972
 21
92.4718913221067567
 31
0.0
  0
LINE
  5
7225
  8
0
 10
2993.6909264565319972
 20
92.4718913221067567
 30
0.0
 11
2993.7113983561289388
 21
92.4635332033722932
 31
0.0
  0
ARC
  5
7226
  8
0
 10
2993.6678338759211329
 20
92.4679621538267753
 30
0.0
 40
0.0051456678521577
 50
243.4293606702767079
 51
300.6031080953255241
  0
LINE
  5
7227
  8
0
 10
2993.6958477164321266
 20
92.4946356507067549
 30
0.0
 11
2993.6958477164321266
 21
92.4792161521067442
 31
0.0
  0
LINE
  5
7228
  8
0
 10
2993.6958477164321266
 20
92.4792161521067442
 30
0.0
 11
2993.7163201573321203
 21
92.4708578122067451
 31
0.0
  0
LINE
  5
7229
  8
0
 10
2993.7163201573321203
 20
92.4708578122067451
 30
0.0
 11
2993.7367925983321584
 21
92.4792161521067442
 31
0.0
  0
LINE
  5
722A
  8
0
 10
2993.7367925983321584
 20
92.4792161521067442
 30
0.0
 11
2993.7367925983321584
 21
92.4946356507320928
 31
0.0
  0
LINE
  5
722B
  8
0
 10
2993.6958477164321266
 20
92.4946356507067549
 30
0.0
 11
2993.7163206987361264
 21
92.5029937694665563
 31
0.0
  0
LINE
  5
722C
  8
0
 10
2993.7163206987361264
 20
92.5029937694665563
 30
0.0
 11
2993.7367925983321584
 21
92.4946356507320928
 31
0.0
  0
ARC
  5
722D
  8
0
 10
2993.6932281181238977
 20
92.4990646011865749
 30
0.0
 40
0.0051456678521577
 50
243.4293606702767079
 51
300.6031080953255241
  0
LINE
  5
722E
  8
0
 10
2993.645060314829152
 20
92.4946356507469574
 30
0.0
 11
2993.645060314829152
 21
92.4792161521469609
 31
0.0
  0
LINE
  5
722F
  8
0
 10
2993.645060314829152
 20
92.4792161521469609
 30
0.0
 11
2993.6655327557291457
 21
92.4708578122469476
 31
0.0
  0
LINE
  5
7230
  8
0
 10
2993.6655327557291457
 20
92.4708578122469476
 30
0.0
 11
2993.6860051967291838
 21
92.4792161521469609
 31
0.0
  0
LINE
  5
7231
  8
0
 10
2993.6860051967291838
 20
92.4792161521469609
 30
0.0
 11
2993.6860051967291838
 21
92.4946356507722953
 31
0.0
  0
LINE
  5
7232
  8
0
 10
2993.645060314829152
 20
92.4946356507469574
 30
0.0
 11
2993.6655332971317875
 21
92.5029937695067588
 31
0.0
  0
LINE
  5
7233
  8
0
 10
2993.6655332971317875
 20
92.5029937695067588
 30
0.0
 11
2993.6860051967291838
 21
92.4946356507722953
 31
0.0
  0
ARC
  5
7234
  8
0
 10
2993.6424450433178208
 20
92.4990698782495997
 30
0.0
 40
0.0051480111327587
 50
243.5086253851036133
 51
300.531760013139376
  0
LINE
  5
7235
  8
0
 10
2993.594272371929037
 20
92.4946358717469508
 30
0.0
 11
2993.594272371929037
 21
92.4792163731469543
 31
0.0
  0
LINE
  5
7236
  8
0
 10
2993.594272371929037
 20
92.4792163731469543
 30
0.0
 11
2993.6147448128290307
 21
92.4708580332469552
 31
0.0
  0
LINE
  5
7237
  8
0
 10
2993.6147448128290307
 20
92.4708580332469552
 30
0.0
 11
2993.6352172538281593
 21
92.4792163731469543
 31
0.0
  0
LINE
  5
7238
  8
0
 10
2993.6352172538281593
 20
92.4792163731469543
 30
0.0
 11
2993.6352172538281593
 21
92.4946358717722887
 31
0.0
  0
LINE
  5
7239
  8
0
 10
2993.594272371929037
 20
92.4946358717469508
 30
0.0
 11
2993.6147453542321273
 21
92.5029939905067522
 31
0.0
  0
LINE
  5
723A
  8
0
 10
2993.6147453542321273
 20
92.5029939905067522
 30
0.0
 11
2993.6352172538281593
 21
92.4946358717722887
 31
0.0
  0
ARC
  5
723B
  8
0
 10
2993.5916527736221724
 20
92.4990648222267851
 30
0.0
 40
0.0051456678521577
 50
243.4293606702767079
 51
300.6031080953255241
  0
ARC
  5
723C
  8
0
 10
2993.6886267296640654
 20
92.499119552167727
 30
0.0
 40
0.0051940164278887
 50
239.6871183587795997
 51
296.2804114360249059
  0
ARC
  5
723D
  8
0
 10
2993.6378433580389355
 20
92.499108379404106
 30
0.0
 40
0.0051864966826509
 50
239.579994728318411
 51
296.3907340646538273
  0
LINE
  5
723E
  8
0
 10
2993.6606211457501558
 20
92.5257383191067504
 30
0.0
 11
2993.6606211457501558
 21
92.5103188205067539
 31
0.0
  0
LINE
  5
723F
  8
0
 10
2993.6606211457501558
 20
92.5103188205067539
 30
0.0
 11
2993.6401487048501622
 21
92.5019604806067548
 31
0.0
  0
LINE
  5
7240
  8
0
 10
2993.6401487048501622
 20
92.5019604806067548
 30
0.0
 11
2993.6196762638501241
 21
92.5103188205067539
 31
0.0
  0
LINE
  5
7241
  8
0
 10
2993.6196762638501241
 20
92.5103188205067539
 30
0.0
 11
2993.6196762638501241
 21
92.5257383191320741
 31
0.0
  0
LINE
  5
7242
  8
0
 10
2993.6606211457501558
 20
92.5257383191067504
 30
0.0
 11
2993.6401481634470656
 21
92.534096437866566
 31
0.0
  0
LINE
  5
7243
  8
0
 10
2993.6401481634470656
 20
92.534096437866566
 30
0.0
 11
2993.6196762638501241
 21
92.5257383191320741
 31
0.0
  0
ARC
  5
7244
  8
0
 10
2993.6632407440570205
 20
92.5301672695865989
 30
0.0
 40
0.0051456678521577
 50
239.3968919046745043
 51
296.5706393297232921
  0
ARC
  5
7245
  8
0
 10
2993.6170456250238203
 20
92.5302101971143856
 30
0.0
 40
0.0051882514706553
 50
243.5491409570221037
 51
300.4667096803967752
  0
LINE
  5
7246
  8
0
 10
2993.5590152277832203
 20
92.5257383191067504
 30
0.0
 11
2993.5590152277832203
 21
92.5103188205067539
 31
0.0
  0
LINE
  5
7247
  8
0
 10
2993.5590152277832203
 20
92.5103188205067539
 30
0.0
 11
2993.5385427868832267
 21
92.5019604806067548
 31
0.0
  0
LINE
  5
7248
  8
0
 10
2993.5385427868832267
 20
92.5019604806067548
 30
0.0
 11
2993.5180703458831886
 21
92.5103188205067539
 31
0.0
  0
LINE
  5
7249
  8
0
 10
2993.5180703458831886
 20
92.5103188205067539
 30
0.0
 11
2993.5180703458831886
 21
92.5257383191320741
 31
0.0
  0
LINE
  5
724A
  8
0
 10
2993.5590152277832203
 20
92.5257383191067504
 30
0.0
 11
2993.5385422454801301
 21
92.534096437866566
 31
0.0
  0
LINE
  5
724B
  8
0
 10
2993.5385422454801301
 20
92.534096437866566
 30
0.0
 11
2993.5180703458831886
 21
92.5257383191320741
 31
0.0
  0
ARC
  5
724C
  8
0
 10
2993.5616273645091496
 20
92.5300836648235361
 30
0.0
 40
0.0050700382321769
 50
238.9884765829432069
 51
296.9711387185490139
  0
LINE
  5
724D
  8
0
 10
2993.5688480976650681
 20
92.5257383191067504
 30
0.0
 11
2993.5688480976650681
 21
92.5103188205067539
 31
0.0
  0
LINE
  5
724E
  8
0
 10
2993.5688480976650681
 20
92.5103188205067539
 30
0.0
 11
2993.5893205385641522
 21
92.5019604806067548
 31
0.0
  0
LINE
  5
724F
  8
0
 10
2993.5893205385641522
 20
92.5019604806067548
 30
0.0
 11
2993.6097929795650998
 21
92.5103188205067539
 31
0.0
  0
LINE
  5
7250
  8
0
 10
2993.6097929795650998
 20
92.5103188205067539
 30
0.0
 11
2993.6097929795650998
 21
92.5257383191320741
 31
0.0
  0
LINE
  5
7251
  8
0
 10
2993.5688480976650681
 20
92.5257383191067504
 30
0.0
 11
2993.5893210799681583
 21
92.534096437866566
 31
0.0
  0
LINE
  5
7252
  8
0
 10
2993.5893210799681583
 20
92.534096437866566
 30
0.0
 11
2993.6097929795650998
 21
92.5257383191320741
 31
0.0
  0
ARC
  5
7253
  8
0
 10
2993.5662284993568392
 20
92.5301672695865989
 30
0.0
 40
0.0051456678521577
 50
243.4293606702767079
 51
300.6031080953255241
  0
ARC
  5
7254
  8
0
 10
2993.6124236183909488
 20
92.5302101971143856
 30
0.0
 40
0.0051882514706533
 50
239.5332903195981942
 51
296.4508590429779247
  0
ARC
  5
7255
  8
0
 10
2993.5154808739061991
 20
92.5299969627903494
 30
0.0
 40
0.0049841158623258
 50
242.7733470346067861
 51
301.3017292393740831
  0
LINE
  5
7256
  8
0
 10
2993.4854691104837912
 20
92.5029359538941236
 30
0.0
 11
2993.4878583791028177
 21
92.5019604806067548
 31
0.0
  0
LINE
  5
7257
  8
0
 10
2993.4878583791028177
 20
92.5019604806067548
 30
0.0
 11
2993.5083308201028558
 21
92.5103188205067539
 31
0.0
  0
LINE
  5
7258
  8
0
 10
2993.5083308201028558
 20
92.5103188205067539
 30
0.0
 11
2993.5083308201028558
 21
92.5257383191320741
 31
0.0
  0
LINE
  5
7259
  8
0
 10
2993.4752405588769761
 20
92.5289449771031087
 30
0.0
 11
2993.4878589205059143
 21
92.534096437866566
 31
0.0
  0
LINE
  5
725A
  8
0
 10
2993.4878589205059143
 20
92.534096437866566
 30
0.0
 11
2993.5083308201028558
 21
92.5257383191320741
 31
0.0
  0
ARC
  5
725B
  8
0
 10
2993.5109202920798452
 20
92.5299969627903636
 30
0.0
 40
0.0049841158623272
 50
238.698270760652008
 51
297.2266529653940097
  0
LINE
  5
725C
  8
0
 10
2993.5336419094278426
 20
92.4946356507469574
 30
0.0
 11
2993.5336419094278426
 21
92.4792161521469609
 31
0.0
  0
LINE
  5
725D
  8
0
 10
2993.5336419094278426
 20
92.4792161521469609
 30
0.0
 11
2993.5131694685278489
 21
92.4708578122469476
 31
0.0
  0
LINE
  5
725E
  8
0
 10
2993.5131694685278489
 20
92.4708578122469476
 30
0.0
 11
2993.506029915711224
 21
92.4737726971493572
 31
0.0
  0
LINE
  5
725F
  8
0
 10
2993.4926970275291751
 20
92.4909650111570443
 30
0.0
 11
2993.4926970275291751
 21
92.4946356507722953
 31
0.0
  0
LINE
  5
7260
  8
0
 10
2993.5336419094278426
 20
92.4946356507469574
 30
0.0
 11
2993.5131689271252071
 21
92.5029937695067588
 31
0.0
  0
LINE
  5
7261
  8
0
 10
2993.5131689271252071
 20
92.5029937695067588
 30
0.0
 11
2993.4926970275291751
 21
92.4946356507722953
 31
0.0
  0
ARC
  5
7262
  8
0
 10
2993.5362571809400833
 20
92.4990698782495997
 30
0.0
 40
0.0051480111327587
 50
239.4682399868605955
 51
296.4913746148964151
  0
LINE
  5
7263
  8
0
 10
2993.5844298523288671
 20
92.4946358717469508
 30
0.0
 11
2993.5844298523288671
 21
92.4792163731469543
 31
0.0
  0
LINE
  5
7264
  8
0
 10
2993.5844298523288671
 20
92.4792163731469543
 30
0.0
 11
2993.563957411427964
 21
92.4708580332469552
 31
0.0
  0
LINE
  5
7265
  8
0
 10
2993.563957411427964
 20
92.4708580332469552
 30
0.0
 11
2993.5434849704279259
 21
92.4792163731469543
 31
0.0
  0
LINE
  5
7266
  8
0
 10
2993.5434849704279259
 20
92.4792163731469543
 30
0.0
 11
2993.5434849704279259
 21
92.4946358717722887
 31
0.0
  0
LINE
  5
7267
  8
0
 10
2993.5844298523288671
 20
92.4946358717469508
 30
0.0
 11
2993.5639568700248674
 21
92.5029939905067522
 31
0.0
  0
LINE
  5
7268
  8
0
 10
2993.5639568700248674
 20
92.5029939905067522
 30
0.0
 11
2993.5434849704279259
 21
92.4946358717722887
 31
0.0
  0
ARC
  5
7269
  8
0
 10
2993.5870494506361865
 20
92.4990648222267851
 30
0.0
 40
0.0051456678521577
 50
239.3968919046745043
 51
296.5706393297232921
  0
ARC
  5
726A
  8
0
 10
2993.4900754945938388
 20
92.499119552167727
 30
0.0
 40
0.0051940164278887
 50
277.0402043827031093
 51
300.3128816412203719
  0
ARC
  5
726B
  8
0
 10
2993.5408588662180591
 20
92.499108379404106
 30
0.0
 40
0.0051864966826509
 50
243.6092659353460874
 51
300.4200052716814753
  0
LINE
  5
726C
  8
0
 10
2993.6606109546278276
 20
92.4635332033469552
 30
0.0
 11
2993.6606109546278276
 21
92.4481137047469588
 31
0.0
  0
LINE
  5
726D
  8
0
 10
2993.6606109546278276
 20
92.4481137047469588
 30
0.0
 11
2993.6401385137291982
 21
92.4397553648469454
 31
0.0
  0
LINE
  5
726E
  8
0
 10
2993.6401385137291982
 20
92.4397553648469454
 30
0.0
 11
2993.6196660727291601
 21
92.4481137047469588
 31
0.0
  0
LINE
  5
726F
  8
0
 10
2993.6196660727291601
 20
92.4481137047469588
 30
0.0
 11
2993.6196660727291601
 21
92.4635332033722932
 31
0.0
  0
LINE
  5
7270
  8
0
 10
2993.6606109546278276
 20
92.4635332033469552
 30
0.0
 11
2993.6401379723261016
 21
92.4718913221067567
 31
0.0
  0
LINE
  5
7271
  8
0
 10
2993.6401379723261016
 20
92.4718913221067567
 30
0.0
 11
2993.6196660727291601
 21
92.4635332033722932
 31
0.0
  0
ARC
  5
7272
  8
0
 10
2993.6632305529360565
 20
92.4679621538267753
 30
0.0
 40
0.0051456678521577
 50
239.3968919046745043
 51
296.5706393297232921
  0
LINE
  5
7273
  8
0
 10
2993.5590361514291544
 20
92.4635332033469552
 30
0.0
 11
2993.5590361514291544
 21
92.4481137047469588
 31
0.0
  0
LINE
  5
7274
  8
0
 10
2993.5590361514291544
 20
92.4481137047469588
 30
0.0
 11
2993.5421607919338385
 21
92.4412239551912762
 31
0.0
  0
LINE
  5
7275
  8
0
 10
2993.5180912695291227
 20
92.461381646757772
 30
0.0
 11
2993.5180912695291227
 21
92.4635332033722932
 31
0.0
  0
LINE
  5
7276
  8
0
 10
2993.5590361514291544
 20
92.4635332033469552
 30
0.0
 11
2993.5385631691251547
 21
92.4718913221067567
 31
0.0
  0
LINE
  5
7277
  8
0
 10
2993.5385631691251547
 20
92.4718913221067567
 30
0.0
 11
2993.5180912695291227
 21
92.4635332033722932
 31
0.0
  0
ARC
  5
7278
  8
0
 10
2993.5616557497360191
 20
92.4679621538267753
 30
0.0
 40
0.0051456678521577
 50
239.3968919046745043
 51
296.5706393297232921
  0
LINE
  5
7279
  8
0
 10
2993.5688786710288696
 20
92.4635332033469552
 30
0.0
 11
2993.5688786710288696
 21
92.4481137047469588
 31
0.0
  0
LINE
  5
727A
  8
0
 10
2993.5688786710288696
 20
92.4481137047469588
 30
0.0
 11
2993.5893511119288632
 21
92.4397553648469454
 31
0.0
  0
LINE
  5
727B
  8
0
 10
2993.5893511119288632
 20
92.4397553648469454
 30
0.0
 11
2993.6098235529289013
 21
92.4481137047469588
 31
0.0
  0
LINE
  5
727C
  8
0
 10
2993.6098235529289013
 20
92.4481137047469588
 30
0.0
 11
2993.6098235529289013
 21
92.4635332033722932
 31
0.0
  0
LINE
  5
727D
  8
0
 10
2993.5688786710288696
 20
92.4635332033469552
 30
0.0
 11
2993.5893516533319598
 21
92.4718913221067567
 31
0.0
  0
LINE
  5
727E
  8
0
 10
2993.5893516533319598
 20
92.4718913221067567
 30
0.0
 11
2993.6098235529289013
 21
92.4635332033722932
 31
0.0
  0
ARC
  5
727F
  8
0
 10
2993.5662590727210954
 20
92.4679621538267753
 30
0.0
 40
0.0051456678521577
 50
243.4293606702767079
 51
300.6031080953255241
  0
ARC
  5
7280
  8
0
 10
2993.617050303463202
 20
92.4679831775037968
 30
0.0
 40
0.0051618328746631
 50
243.4633437211464013
 51
300.4477249582557761
  0
ARC
  5
7281
  8
0
 10
2993.6124387166628367
 20
92.4679836350022128
 30
0.0
 40
0.0051619204806386
 50
239.5606426935482887
 51
296.5272357051043741
  0
LINE
  5
7282
  8
0
 10
2993.69584717502903
 20
92.4324305348469437
 30
0.0
 11
2993.69584717502903
 21
92.4170110362469472
 31
0.0
  0
LINE
  5
7283
  8
0
 10
2993.69584717502903
 20
92.4170110362469472
 30
0.0
 11
2993.7163196159290237
 21
92.4086526963469623
 31
0.0
  0
LINE
  5
7284
  8
0
 10
2993.7163196159290237
 20
92.4086526963469623
 30
0.0
 11
2993.7367920569290618
 21
92.4170110362469472
 31
0.0
  0
LINE
  5
7285
  8
0
 10
2993.7367920569290618
 20
92.4170110362469472
 30
0.0
 11
2993.7367920569290618
 21
92.4324305348722959
 31
0.0
  0
LINE
  5
7286
  8
0
 10
2993.69584717502903
 20
92.4324305348469437
 30
0.0
 11
2993.7163201573321203
 21
92.4407886536067451
 31
0.0
  0
LINE
  5
7287
  8
0
 10
2993.7163201573321203
 20
92.4407886536067451
 30
0.0
 11
2993.7367920569290618
 21
92.4324305348722959
 31
0.0
  0
ARC
  5
7288
  8
0
 10
2993.6932275767208012
 20
92.4368594853267922
 30
0.0
 40
0.0051456678521577
 50
243.4293606702767079
 51
300.6031080953255241
  0
LINE
  5
7289
  8
0
 10
2993.6860046554279506
 20
92.4324305348469437
 30
0.0
 11
2993.6860046554279506
 21
92.4170110362469472
 31
0.0
  0
LINE
  5
728A
  8
0
 10
2993.6860046554279506
 20
92.4170110362469472
 30
0.0
 11
2993.665532214527957
 21
92.4086526963469623
 31
0.0
  0
LINE
  5
728B
  8
0
 10
2993.665532214527957
 20
92.4086526963469623
 30
0.0
 11
2993.6450597735288284
 21
92.4170110362469472
 31
0.0
  0
LINE
  5
728C
  8
0
 10
2993.6450597735288284
 20
92.4170110362469472
 30
0.0
 11
2993.6450597735288284
 21
92.4324305348722959
 31
0.0
  0
LINE
  5
728D
  8
0
 10
2993.6860046554279506
 20
92.4324305348469437
 30
0.0
 11
2993.6655316731248604
 21
92.4407886536067451
 31
0.0
  0
LINE
  5
728E
  8
0
 10
2993.6655316731248604
 20
92.4407886536067451
 30
0.0
 11
2993.6450597735288284
 21
92.4324305348722959
 31
0.0
  0
ARC
  5
728F
  8
0
 10
2993.6886242537361795
 20
92.4368594853267922
 30
0.0
 40
0.0051456678521577
 50
239.3968919046745043
 51
296.5706393297232921
  0
LINE
  5
7290
  8
0
 10
2993.5844298522288227
 20
92.4324305348469437
 30
0.0
 11
2993.5844298522288227
 21
92.4170110362469472
 31
0.0
  0
LINE
  5
7291
  8
0
 10
2993.5844298522288227
 20
92.4170110362469472
 30
0.0
 11
2993.5833389000031275
 21
92.4165656301735368
 31
0.0
  0
LINE
  5
7292
  8
0
 10
2993.5844298522288227
 20
92.4324305348469437
 30
0.0
 11
2993.563956869924823
 21
92.4407886536067451
 31
0.0
  0
ARC
  5
7293
  8
0
 10
2993.5870494505361421
 20
92.4368594853267922
 30
0.0
 40
0.0051456678521577
 50
239.3968919046745043
 51
296.5706393297232921
  0
LINE
  5
7294
  8
0
 10
2993.5942723718280831
 20
92.4324305348469437
 30
0.0
 11
2993.5942723718280831
 21
92.4170110362469472
 31
0.0
  0
LINE
  5
7295
  8
0
 10
2993.5942723718280831
 20
92.4170110362469472
 30
0.0
 11
2993.6147448127289863
 21
92.4086526963469623
 31
0.0
  0
LINE
  5
7296
  8
0
 10
2993.6117793081289165
 20
92.4074419616123066
 30
0.0
 11
2993.6352172537290244
 21
92.4170110362469472
 31
0.0
  0
LINE
  5
7297
  8
0
 10
2993.6352172537290244
 20
92.4170110362469472
 30
0.0
 11
2993.6352172537290244
 21
92.4324305348722959
 31
0.0
  0
LINE
  5
7298
  8
0
 10
2993.5942723718280831
 20
92.4324305348469437
 30
0.0
 11
2993.6147453541320829
 21
92.4407886536067451
 31
0.0
  0
LINE
  5
7299
  8
0
 10
2993.6147453541320829
 20
92.4407886536067451
 30
0.0
 11
2993.6352172537290244
 21
92.4324305348722959
 31
0.0
  0
ARC
  5
729A
  8
0
 10
2993.5916527735212185
 20
92.4368594853267922
 30
0.0
 40
0.0051456678521577
 50
243.4293606702767079
 51
300.6031080953255241
  0
ARC
  5
729B
  8
0
 10
2993.6424440042619608
 20
92.4368805090037853
 30
0.0
 40
0.0051618328746631
 50
243.4633437211464013
 51
300.4477249582557761
  0
ARC
  5
729C
  8
0
 10
2993.6378324174620502
 20
92.4368809665022155
 30
0.0
 40
0.0051619204806386
 50
239.5606426935482887
 51
296.5272357051043741
  0
LINE
  5
729D
  8
0
 10
2993.6958482578352232
 20
92.5568412086352481
 30
0.0
 11
2993.6958482578352232
 21
92.5414217100352516
 31
0.0
  0
LINE
  5
729E
  8
0
 10
2993.6958482578352232
 20
92.5414217100352516
 30
0.0
 11
2993.7163206987361264
 21
92.5330633701352667
 31
0.0
  0
LINE
  5
729F
  8
0
 10
2993.7163206987361264
 20
92.5330633701352667
 30
0.0
 11
2993.7367931397348002
 21
92.5414217100352516
 31
0.0
  0
LINE
  5
72A0
  8
0
 10
2993.7367931397348002
 20
92.5414217100352516
 30
0.0
 11
2993.7367931397348002
 21
92.5568412086606003
 31
0.0
  0
LINE
  5
72A1
  8
0
 10
2993.6958482578352232
 20
92.5568412086352481
 30
0.0
 11
2993.7163212401392229
 21
92.5651993273950637
 31
0.0
  0
LINE
  5
72A2
  8
0
 10
2993.7163212401392229
 20
92.5651993273950637
 30
0.0
 11
2993.7367931397348002
 21
92.5568412086606003
 31
0.0
  0
ARC
  5
72A3
  8
0
 10
2993.6932361211088391
 20
92.561186554352048
 30
0.0
 40
0.0050700382321769
 50
243.0288612814509861
 51
301.0115234170564236
  0
LINE
  5
72A4
  8
0
 10
2993.6860153879529207
 20
92.5568412086352481
 30
0.0
 11
2993.6860153879529207
 21
92.5414217100352516
 31
0.0
  0
LINE
  5
72A5
  8
0
 10
2993.6860153879529207
 20
92.5414217100352516
 30
0.0
 11
2993.665542947052927
 21
92.5330633701352667
 31
0.0
  0
LINE
  5
72A6
  8
0
 10
2993.665542947052927
 20
92.5330633701352667
 30
0.0
 11
2993.645070506052889
 21
92.5414217100352516
 31
0.0
  0
LINE
  5
72A7
  8
0
 10
2993.645070506052889
 20
92.5414217100352516
 30
0.0
 11
2993.645070506052889
 21
92.5568412086606003
 31
0.0
  0
LINE
  5
72A8
  8
0
 10
2993.6860153879529207
 20
92.5568412086352481
 30
0.0
 11
2993.6655424056498305
 21
92.5651993273950637
 31
0.0
  0
LINE
  5
72A9
  8
0
 10
2993.6655424056498305
 20
92.5651993273950637
 30
0.0
 11
2993.645070506052889
 21
92.5568412086606003
 31
0.0
  0
ARC
  5
72AA
  8
0
 10
2993.6886349862611496
 20
92.5612701591150966
 30
0.0
 40
0.0051456678521577
 50
239.3968919046745043
 51
296.5706393297232921
  0
ARC
  5
72AB
  8
0
 10
2993.6424398672270399
 20
92.5613130866428975
 30
0.0
 40
0.0051882514706553
 50
243.5491409570221037
 51
300.4667096803967752
  0
LINE
  5
72AC
  8
0
 10
2993.5844094699859852
 20
92.5568412086352481
 30
0.0
 11
2993.5844094699859852
 21
92.5414217100352516
 31
0.0
  0
LINE
  5
72AD
  8
0
 10
2993.5844094699859852
 20
92.5414217100352516
 30
0.0
 11
2993.5639370290859915
 21
92.5330633701352667
 31
0.0
  0
LINE
  5
72AE
  8
0
 10
2993.5639370290859915
 20
92.5330633701352667
 30
0.0
 11
2993.5434645880859534
 21
92.5414217100352516
 31
0.0
  0
LINE
  5
72AF
  8
0
 10
2993.5434645880859534
 20
92.5414217100352516
 30
0.0
 11
2993.5434645880859534
 21
92.5568412086606003
 31
0.0
  0
LINE
  5
72B0
  8
0
 10
2993.5844094699859852
 20
92.5568412086352481
 30
0.0
 11
2993.5639364876819855
 21
92.5651993273950637
 31
0.0
  0
LINE
  5
72B1
  8
0
 10
2993.5639364876819855
 20
92.5651993273950637
 30
0.0
 11
2993.5434645880859534
 21
92.5568412086606003
 31
0.0
  0
ARC
  5
72B2
  8
0
 10
2993.5870216067119145
 20
92.561186554352048
 30
0.0
 40
0.0050700382321769
 50
238.9884765829432069
 51
296.9711387185490139
  0
LINE
  5
72B3
  8
0
 10
2993.5942423398678329
 20
92.5568412086352481
 30
0.0
 11
2993.5942423398678329
 21
92.5414217100352516
 31
0.0
  0
LINE
  5
72B4
  8
0
 10
2993.5942423398678329
 20
92.5414217100352516
 30
0.0
 11
2993.6147147807678266
 21
92.5330633701352667
 31
0.0
  0
LINE
  5
72B5
  8
0
 10
2993.6147147807678266
 20
92.5330633701352667
 30
0.0
 11
2993.6351872217678647
 21
92.5414217100352516
 31
0.0
  0
LINE
  5
72B6
  8
0
 10
2993.6351872217678647
 20
92.5414217100352516
 30
0.0
 11
2993.6351872217678647
 21
92.5568412086606003
 31
0.0
  0
LINE
  5
72B7
  8
0
 10
2993.5942423398678329
 20
92.5568412086352481
 30
0.0
 11
2993.6147153221709232
 21
92.5651993273950637
 31
0.0
  0
LINE
  5
72B8
  8
0
 10
2993.6147153221709232
 20
92.5651993273950637
 30
0.0
 11
2993.6351872217678647
 21
92.5568412086606003
 31
0.0
  0
ARC
  5
72B9
  8
0
 10
2993.5916227415609683
 20
92.5612701591150966
 30
0.0
 40
0.0051456678521577
 50
243.4293606702767079
 51
300.6031080953255241
  0
ARC
  5
72BA
  8
0
 10
2993.6378178605941685
 20
92.5613130866428833
 30
0.0
 40
0.0051882514706533
 50
239.5332903195981942
 51
296.4508590429779247
  0
ARC
  5
72BB
  8
0
 10
2993.540875116108964
 20
92.5610998523188471
 30
0.0
 40
0.0049841158623258
 50
242.7733470346067861
 51
301.3017292393740831
  0
LINE
  5
72BC
  8
0
 10
2993.5132526213060373
 20
92.5330633701352667
 30
0.0
 11
2993.5337250623060754
 21
92.5414217100352516
 31
0.0
  0
LINE
  5
72BD
  8
0
 10
2993.5337250623060754
 20
92.5414217100352516
 30
0.0
 11
2993.5337250623060754
 21
92.5568412086606003
 31
0.0
  0
LINE
  5
72BE
  8
0
 10
2993.5132531627091339
 20
92.5651993273950637
 30
0.0
 11
2993.5337250623060754
 21
92.5568412086606003
 31
0.0
  0
ARC
  5
72BF
  8
0
 10
2993.5363145342830649
 20
92.5610998523188471
 30
0.0
 40
0.0049841158623272
 50
238.698270760652008
 51
297.2266529653940097
  0
LINE
  5
72C0
  8
0
 10
2993.5132537041117757
 20
92.5330633701352667
 30
0.0
 11
2993.4927812631131019
 21
92.5414217100352516
 31
0.0
  0
LINE
  5
72C1
  8
0
 10
2993.4927812631131019
 20
92.5414217100352516
 30
0.0
 11
2993.4927812631131019
 21
92.5568412086606003
 31
0.0
  0
LINE
  5
72C2
  8
0
 10
2993.5132531627091339
 20
92.5651993273950637
 30
0.0
 11
2993.4927812631131019
 21
92.5568412086606003
 31
0.0
  0
ARC
  5
72C3
  8
0
 10
2993.4901917911352029
 20
92.5610998523188471
 30
0.0
 40
0.0049841158623272
 50
242.7733470346059903
 51
301.301729239347992
  0
LINE
  5
72C4
  8
0
 10
2993.5590361514291544
 20
92.5725239363782464
 30
0.0
 11
2993.5385637105291607
 21
92.5641655964782331
 31
0.0
  0
LINE
  5
72C5
  8
0
 10
2993.5385637105291607
 20
92.5641655964782331
 30
0.0
 11
2993.5180263156039473
 21
92.5725504552962235
 31
0.0
  0
ARC
  5
72C6
  8
0
 10
2993.6678806517670637
 20
92.5740912654282369
 30
0.0
 40
0.0074367343835708
 50
192.1666015813628121
 51
251.5915612274087039
  0
ARC
  5
72C7
  8
0
 10
2993.6634819207488363
 20
92.5738239527144771
 30
0.0
 40
0.007091727602766
 50
286.8047169214767109
 51
349.4371214271495205
  0
ARC
  5
72C8
  8
0
 10
2993.6170932500667732
 20
92.5740912654408845
 30
0.0
 40
0.0074367343835708
 50
192.1666015813628121
 51
251.5915612274087039
  0
ARC
  5
72C9
  8
0
 10
2993.6126945190490005
 20
92.5738239527271247
 30
0.0
 40
0.007091727602766
 50
286.8047169214767109
 51
349.4371214271495205
  0
ARC
  5
72CA
  8
0
 10
2993.5663058485670263
 20
92.5740912654282369
 30
0.0
 40
0.0074367343835708
 50
192.1666015813628121
 51
251.5915612274087039
  0
ARC
  5
72CB
  8
0
 10
2993.5619071175487989
 20
92.5738239527144771
 30
0.0
 40
0.007091727602766
 50
286.8047169214767109
 51
349.4371214271495205
  0
ARC
  5
72CC
  8
0
 10
2993.5409947594439473
 20
92.542989039097904
 30
0.0
 40
0.0074367343835708
 50
192.1666015813628121
 51
251.5915612274087039
  0
ARC
  5
72CD
  8
0
 10
2993.5367831009480142
 20
92.5424276603967257
 30
0.0
 40
0.0067567896599692
 50
286.0070354378108846
 51
351.4379776369249271
  0
ARC
  5
72CE
  8
0
 10
2993.5916791671252213
 20
92.5429890390852279
 30
0.0
 40
0.0074367343835708
 50
192.1666015813628121
 51
251.5915612274087039
  0
ARC
  5
72CF
  8
0
 10
2993.5872985247369797
 20
92.5426932922058683
 30
0.0
 40
0.0070592839428533
 50
286.730894031369985
 51
349.622722811630922
  0
ARC
  5
72D0
  8
0
 10
2993.6424569189061913
 20
92.542989039097904
 30
0.0
 40
0.0074367343835708
 50
192.1666015813628121
 51
251.5915612274087039
  0
ARC
  5
72D1
  8
0
 10
2993.637980442396838
 20
92.5428439373034877
 30
0.0
 40
0.0072313023071549
 50
287.1144636256074136
 51
348.6573229530404774
  0
ARC
  5
72D2
  8
0
 10
2993.6932850850921568
 20
92.5429890390852279
 30
0.0
 40
0.0074367343835708
 50
192.1666015813628121
 51
251.5915612274087039
  0
ARC
  5
72D3
  8
0
 10
2993.6889044427039153
 20
92.542693292205854
 30
0.0
 40
0.0070592839428505
 50
286.7308940313698145
 51
349.6227228116547963
  0
ARC
  5
72D4
  8
0
 10
2993.5156005172411824
 20
92.511886149569392
 30
0.0
 40
0.0074367343835708
 50
192.1666015813628121
 51
251.5915612274087039
  0
ARC
  5
72D5
  8
0
 10
2993.5113888587447946
 20
92.5113247708682138
 30
0.0
 40
0.006756789659969
 50
286.0070354378102024
 51
351.4379776369314072
  0
ARC
  5
72D6
  8
0
 10
2993.5662849249210922
 20
92.5118861495567302
 30
0.0
 40
0.0074367343835708
 50
192.1666015813628121
 51
251.5915612274087039
  0
ARC
  5
72D7
  8
0
 10
2993.5619042825342149
 20
92.5115904026773563
 30
0.0
 40
0.0070592839428505
 50
286.7308940313698145
 51
349.6227228116620154
  0
ARC
  5
72D8
  8
0
 10
2993.6170626767029717
 20
92.511886149569392
 30
0.0
 40
0.0074367343835708
 50
192.1666015813628121
 51
251.5915612274087039
  0
ARC
  5
72D9
  8
0
 10
2993.6125862001931637
 20
92.51174104777499
 30
0.0
 40
0.0072313023071524
 50
287.1144636256059925
 51
348.6573229530565072
  0
ARC
  5
72DA
  8
0
 10
2993.6678908428889372
 20
92.5118861495567302
 30
0.0
 40
0.0074367343835708
 50
192.1666015813628121
 51
251.5915612274087039
  0
ARC
  5
72DB
  8
0
 10
2993.6635102005020599
 20
92.5115904026773563
 30
0.0
 40
0.0070592839428505
 50
286.7308940313698145
 51
349.6227228116620154
  0
ARC
  5
72DC
  8
0
 10
2993.7186685946699072
 20
92.511886149569392
 30
0.0
 40
0.0074367343835708
 50
192.1666015813628121
 51
251.5915612274087039
  0
ARC
  5
72DD
  8
0
 10
2993.7143099336058185
 20
92.5115558494631216
 30
0.0
 40
0.00701987430943
 50
286.640266127135817
 51
349.8504478501292283
  0
ARC
  5
72DE
  8
0
 10
2993.6932748938670557
 20
92.4807834812095848
 30
0.0
 40
0.0074367343835708
 50
192.1666015813628121
 51
251.5915612274087039
  0
ARC
  5
72DF
  8
0
 10
2993.6888761628488282
 20
92.4805161684958392
 30
0.0
 40
0.007091727602766
 50
286.8047169214767109
 51
349.4371214271495205
  0
ARC
  5
72E0
  8
0
 10
2993.6424869509669406
 20
92.4807837022095924
 30
0.0
 40
0.0074367343835708
 50
192.1666015813628121
 51
251.5915612274087039
  0
ARC
  5
72E1
  8
0
 10
2993.6380871239161934
 20
92.480518112389106
 30
0.0
 40
0.0070936938171988
 50
286.8091683255285034
 51
349.4241109923830209
  0
ARC
  5
72E2
  8
0
 10
2993.5916995494671937
 20
92.4807837021969164
 30
0.0
 40
0.0074367343835708
 50
192.1666015813628121
 51
251.5915612274087039
  0
ARC
  5
72E3
  8
0
 10
2993.5873008184489663
 20
92.480516389483185
 30
0.0
 40
0.007091727602766
 50
286.8047169214767109
 51
349.4371214271495205
  0
ARC
  5
72E4
  8
0
 10
2993.5409116065670787
 20
92.4807834811969229
 30
0.0
 40
0.0074367343835708
 50
192.1666015813628121
 51
251.5915612274087039
  0
ARC
  5
72E5
  8
0
 10
2993.5365119347998188
 20
92.4805176473168586
 30
0.0
 40
0.0070934152800433
 50
286.8085377199079744
 51
349.4293282716498084
  0
ARC
  5
72E6
  8
0
 10
2993.5663058485670263
 20
92.4496810337969208
 30
0.0
 40
0.0074367343835708
 50
192.1666015813628121
 51
251.5915612274087039
  0
ARC
  5
72E7
  8
0
 10
2993.5619071175487989
 20
92.4494137210832037
 30
0.0
 40
0.007091727602766
 50
286.8047169214767109
 51
349.4371214271495205
  0
ARC
  5
72E8
  8
0
 10
2993.6170932500667732
 20
92.4496810338095969
 30
0.0
 40
0.0074367343835708
 50
192.1666015813628121
 51
251.5915612274087039
  0
ARC
  5
72E9
  8
0
 10
2993.6126945190490005
 20
92.4494137210958371
 30
0.0
 40
0.007091727602766
 50
286.8047169214767109
 51
349.4371214271495205
  0
ARC
  5
72EA
  8
0
 10
2993.6678806517670637
 20
92.4496810337969208
 30
0.0
 40
0.0074367343835708
 50
192.1666015813628121
 51
251.5915612274087039
  0
ARC
  5
72EB
  8
0
 10
2993.6634819207488363
 20
92.4494137210832037
 30
0.0
 40
0.007091727602766
 50
286.8047169214767109
 51
349.4371214271495205
  0
ARC
  5
72EC
  8
0
 10
2993.7186680532668106
 20
92.4496810338095969
 30
0.0
 40
0.0074367343835708
 50
192.1666015813628121
 51
251.5915612274087039
  0
ARC
  5
72ED
  8
0
 10
2993.7142854489347883
 20
92.4493993657901143
 30
0.0
 40
0.0070733319410123
 50
286.7132833664815053
 51
349.5239652503968273
  0
ARC
  5
72EE
  8
0
 10
2993.5916995493671493
 20
92.4185783652969235
 30
0.0
 40
0.0074367343835708
 50
192.1666015813628121
 51
201.4289554243769089
  0
ARC
  5
72EF
  8
0
 10
2993.5873008183489219
 20
92.4183110525831779
 30
0.0
 40
0.007091727602766
 50
307.0688570792743235
 51
349.4371214271495205
  0
ARC
  5
72F0
  8
0
 10
2993.6424869508668962
 20
92.4185783653095854
 30
0.0
 40
0.0074367343835708
 50
192.1666015813628121
 51
251.5915612274087039
  0
ARC
  5
72F1
  8
0
 10
2993.6380882198491236
 20
92.418311052595854
 30
0.0
 40
0.007091727602766
 50
286.8047169214767109
 51
349.4371214271495205
  0
ARC
  5
72F2
  8
0
 10
2993.6932743525680962
 20
92.4185783652969235
 30
0.0
 40
0.0074367343835708
 50
192.1666015813628121
 51
251.5915612274087039
  0
ARC
  5
72F3
  8
0
 10
2993.6888756215489593
 20
92.4183110525831779
 30
0.0
 40
0.007091727602766
 50
286.8047169214767109
 51
349.4371214271495205
  0
ARC
  5
72F4
  8
0
 10
2993.4903114344701862
 20
92.542989039097904
 30
0.0
 40
0.0074367343835708
 50
192.1666015813628121
 51
251.5915612274087039
  0
ARC
  5
72F5
  8
0
 10
2993.4860997759737984
 20
92.5424276603967257
 30
0.0
 40
0.0067567896599692
 50
286.0070354378108846
 51
351.4379776369249271
  0
LINE
  5
72F6
  8
0
 10
2993.5505682048478775
 20
92.4353227155674233
 30
0.0
 11
2993.563956869924823
 21
92.4407886536067451
 31
0.0
  0
LINE
  5
72F7
  8
0
 10
2993.7212408535278882
 20
92.4013282337466251
 30
0.0
 11
2993.741713316779169
 21
92.4096861406023464
 31
0.0
  0
ARC
  5
72F8
  8
0
 10
2993.7186212552210236
 20
92.4057571842264736
 30
0.0
 40
0.0051456678521577
 50
243.4293606702767079
 51
300.6031080953255241
  0
LINE
  5
72F9
  8
0
 10
2993.7113983339290826
 20
92.4013282337466251
 30
0.0
 11
2993.6909253516250828
 21
92.4096863525064265
 31
0.0
  0
LINE
  5
72FA
  8
0
 10
2993.6909253516250828
 20
92.4096863525064265
 30
0.0
 11
2993.6704534520290508
 21
92.401328233771963
 31
0.0
  0
ARC
  5
72FB
  8
0
 10
2993.7140179322359472
 20
92.4057571842264736
 30
0.0
 40
0.0051456678521577
 50
239.3968919046745043
 51
296.5706393297232921
  0
ARC
  5
72FC
  8
0
 10
2993.6678376827621832
 20
92.4057782079034666
 30
0.0
 40
0.0051618328746631
 50
243.4633437211464013
 51
300.4477249582557761
  0
ARC
  5
72FD
  8
0
 10
2993.6632301640579499
 20
92.4058973544328239
 30
0.0
 40
0.0052666019566772
 50
240.1777676319481998
 51
295.910933922451818
  0
LINE
  5
72FE
  8
0
 10
2993.66061102686308
 20
92.4013281951527858
 30
0.0
 11
2993.6401380445608993
 21
92.4096863139125873
 31
0.0
  0
LINE
  5
72FF
  8
0
 10
2993.6401380445608993
 20
92.4096863139125873
 30
0.0
 11
2993.6197512672351877
 21
92.4013629482817436
 31
0.0
  0
ARC
  5
7300
  8
0
 10
2993.6176173962780922
 20
92.4083365970731734
 30
0.0
 40
0.0059062378759409
 50
188.7122976457301036
 51
243.1141460003381951
  0
LINE
  5
7301
  8
0
 10
2993.6027171660839485
 20
92.6001639973793971
 30
0.0
 11
2993.6147448128290307
 21
92.5953360746282641
 31
0.0
  0
LINE
  5
7302
  8
0
 10
2993.6147448128290307
 20
92.5953360746282641
 30
0.0
 11
2993.6352172537290244
 21
92.6036266047782419
 31
0.0
  0
LINE
  5
7303
  8
0
 10
2993.6352172537290244
 20
92.6036266047782419
 30
0.0
 11
2993.6352172537290244
 21
92.6069439201624363
 31
0.0
  0
ARC
  5
7304
  8
0
 10
2993.6426333524132133
 20
92.6053251958815764
 30
0.0
 40
0.0076081358702233
 50
192.9005708448781036
 51
250.8575919596322024
  0
ARC
  5
7305
  8
0
 10
2993.6376444543238904
 20
92.605324496874303
 30
0.0
 40
0.0076072199260053
 50
289.1385882170943091
 51
347.1032501315287959
  0
LINE
  5
7306
  8
0
 10
2993.6450597734278745
 20
92.6036266047782419
 30
0.0
 11
2993.6450597734278745
 21
92.6086268972225355
 31
0.0
  0
LINE
  5
7307
  8
0
 10
2993.6450597734278745
 20
92.6036266047782419
 30
0.0
 11
2993.6655322144279125
 21
92.5952682649782446
 31
0.0
  0
LINE
  5
7308
  8
0
 10
2993.6655322144279125
 20
92.5952682649782446
 30
0.0
 11
2993.6860046553288157
 21
92.6036266047782419
 31
0.0
  0
LINE
  5
7309
  8
0
 10
2993.6860046553288157
 20
92.6036266047782419
 30
0.0
 11
2993.6860046553288157
 21
92.6138238886297529
 31
0.0
  0
LINE
  5
730A
  8
0
 10
2993.69584717502903
 20
92.6146450928488179
 30
0.0
 11
2993.69584717502903
 21
92.6036266047782419
 31
0.0
  0
LINE
  5
730B
  8
0
 10
2993.69584717502903
 20
92.6036266047782419
 30
0.0
 11
2993.7163196159290237
 21
92.5952682649782446
 31
0.0
  0
LINE
  5
730C
  8
0
 10
2993.7163196159290237
 20
92.5952682649782446
 30
0.0
 11
2993.7367920569290618
 21
92.6036266047782419
 31
0.0
  0
LINE
  5
730D
  8
0
 10
2993.7367920569290618
 20
92.6036266047782419
 30
0.0
 11
2993.7367920569290618
 21
92.6163034384140644
 31
0.0
  0
ARC
  5
730E
  8
0
 10
2993.6934207541171418
 20
92.6053251959307318
 30
0.0
 40
0.0076081359838892
 50
192.9005710293114078
 51
250.8575906220800107
  0
ARC
  5
730F
  8
0
 10
2993.6884318560259999
 20
92.6053244968281035
 30
0.0
 40
0.0076072198160569
 50
289.1385868923171074
 51
347.1032502989331192
  0
ARC
  5
7310
  8
0
 10
2993.714017996524035
 20
92.5923735803279442
 30
0.0
 40
0.005146717730127
 50
239.4032603093075977
 51
296.5642703357589767
  0
LINE
  5
7311
  8
0
 10
2993.7163196159290237
 20
92.5877701846782344
 30
0.0
 11
2993.741713316779169
 21
92.5981377407986628
 31
0.0
  0
ARC
  5
7312
  8
0
 10
2993.7440040633018725
 20
92.6051422087880951
 30
0.0
 40
0.0073695380758826
 50
191.868016858614908
 51
251.8901455832717033
  0
ARC
  5
7313
  8
0
 10
2993.7188144546807962
 20
92.5742225273185539
 30
0.0
 40
0.0076081357058089
 50
192.9005698695229967
 51
250.8575917818797905
  0
LINE
  5
7314
  8
0
 10
2993.7163196159290237
 20
92.5670350723782462
 30
0.0
 11
2993.741713316779169
 21
92.5566675161578161
 31
0.0
  0
ARC
  5
7315
  8
0
 10
2993.7394125322189211
 20
92.5612669577164553
 30
0.0
 40
0.0051428077630313
 50
239.3807079857421058
 51
296.5756509819073017
  0
ARC
  5
7316
  8
0
 10
2993.7140104480899936
 20
92.5300814196364172
 30
0.0
 40
0.005067811984054
 50
238.9810783586507057
 51
296.977646074704694
  0
ARC
  5
7317
  8
0
 10
2993.7186061709280693
 20
92.5301446829382996
 30
0.0
 40
0.0051232712981666
 50
243.3655380402094011
 51
300.6757350220290164
  0
LINE
  5
7318
  8
0
 10
2993.741713316779169
 20
92.5019519391935461
 30
0.0
 11
2993.721219954928074
 21
92.5103188205067539
 31
0.0
  0
LINE
  5
7319
  8
0
 10
2993.721219954928074
 20
92.5103188205067539
 30
0.0
 11
2993.721219954928074
 21
92.5257383191320741
 31
0.0
  0
LINE
  5
731A
  8
0
 10
2993.741713316779169
 20
92.5341052003198143
 30
0.0
 11
2993.721219954928074
 21
92.5257383191320741
 31
0.0
  0
ARC
  5
731B
  8
0
 10
2993.71401851467499
 20
92.4679595198462323
 30
0.0
 40
0.0051456678521577
 50
239.3903565728764136
 51
296.5641039979144011
  0
LINE
  5
731C
  8
0
 10
2993.7212409307408052
 20
92.4635297455267278
 30
0.0
 11
2993.741713316779169
 21
92.4718848966482057
 31
0.0
  0
ARC
  5
731D
  8
0
 10
2993.7186218376309625
 20
92.467958994777149
 30
0.0
 40
0.0051456678521577
 50
243.4228253384835909
 51
300.5965727635297071
  0
LINE
  5
731E
  8
0
 10
2993.7212408758291531
 20
92.4481132625782465
 30
0.0
 11
2993.7212409307408052
 21
92.4635297455267278
 31
0.0
  0
LINE
  5
731F
  8
0
 10
2993.4830417373318596
 20
92.5414217100352516
 30
0.0
 11
2993.4830417373318596
 21
92.5559222894142266
 31
0.0
  0
ARC
  5
7320
  8
0
 10
2993.4856312093088491
 20
92.5610998523188471
 30
0.0
 40
0.0049841158623272
 50
250.4280466597840871
 51
297.2266529653940097
  0
LINE
  5
7321
  8
0
 10
2993.4731811878227745
 20
92.5374815900062515
 30
0.0
 11
2993.4830417373318596
 21
92.5414217095840854
 31
0.0
  0
LINE
  5
7322
  8
0
 10
2993.7212409307408052
 20
92.4481162782297758
 30
0.0
 11
2993.741713316779169
 21
92.439761127108298
 31
0.0
  0
ARC
  5
7323
  8
0
 10
2993.7394223921469347
 20
92.4367879430060668
 30
0.0
 40
0.0050897611936194
 50
238.8828561537943926
 51
296.750391455922113
  0
ARC
  5
7324
  8
0
 10
2993.7437636103090881
 20
92.4183110525831779
 30
0.0
 40
0.007091727602766
 50
190.5628785728503942
 51
253.1952830785232891
  0
LINE
  5
7325
  8
0
 10
2993.6606109545291474
 20
92.3931725526782657
 30
0.0
 11
2993.6606109545291474
 21
92.4013282246836667
 31
0.0
  0
ARC
  5
7326
  8
0
 10
2993.6641703779428099
 20
92.3933440050720236
 30
0.0
 40
0.0035635503309306
 50
182.7577251799793032
 51
222.0512436548708877
  0
LINE
  5
7327
  8
0
 10
2993.670453474228907
 20
92.3911855598782381
 30
0.0
 11
2993.670453474228907
 21
92.4013282428356035
 31
0.0
  0
ARC
  5
7328
  8
0
 10
2993.6677851557028589
 20
92.3912890343738837
 30
0.0
 40
0.0026703240860892
 50
263.0659267930433884
 51
357.7792446196327205
  0
ARC
  5
7329
  8
0
 10
2993.6662281413268829
 20
92.3949203602958562
 30
0.0
 40
0.0061508791795614
 50
220.1155496850288955
 51
242.5217669169178123
  0
LINE
  5
732A
  8
0
 10
2993.7113983561289388
 20
92.3857808216782388
 30
0.0
 11
2993.7113983561289388
 21
92.4013282206160369
 31
0.0
  0
LINE
  5
732B
  8
0
 10
2993.7212408758291531
 20
92.3851412597782513
 30
0.0
 11
2993.7212408758291531
 21
92.4013282428506244
 31
0.0
  0
ARC
  5
732C
  8
0
 10
2993.7156164523507869
 20
92.3861101064609613
 30
0.0
 40
0.0042309294732415
 50
184.4637300181352089
 51
239.5686487405833986
  0
ARC
  5
732D
  8
0
 10
2993.717691709310202
 20
92.3853764156860962
 30
0.0
 40
0.0035569483102443
 50
292.7990382284435213
 51
356.2093136919614835
  0
ARC
  5
732E
  8
0
 10
2993.7431551438849056
 20
92.5425118011055048
 30
0.0
 40
0.006454718842883
 50
189.7228697582000052
 51
257.0926202808054768
  0
LINE
  5
732F
  8
0
 10
2994.2338393010290929
 20
92.319908700678198
 30
0.0
 11
2994.2338393010290929
 21
93.1847302674782441
 31
0.0
  0
ARC
  5
7330
  8
0
 10
2993.7432975765091214
 20
91.9997615482515414
 30
0.0
 40
0.6681660815540966
 50
71.1090910325728061
 51
89.8641483251203965
  0
ARC
  5
7331
  8
0
 10
2993.8371793256937963
 20
92.2244355386450536
 30
0.0
 40
0.4255019781261177
 50
31.4955913312258815
 51
73.2752402079702705
  0
ARC
  5
7332
  8
0
 10
2993.9737545442631017
 20
92.3184320087613344
 30
0.0
 40
0.2600889488634659
 50
0.3253066668964359
 51
29.5571828747649903
  0
ARC
  5
7333
  8
0
 10
2993.9533065923369577
 20
92.3240778311934065
 30
0.0
 40
0.2805636867013405
 50
325.2483403741280199
 51
359.1485627467441191
  0
ARC
  5
7334
  8
0
 10
2993.8124008603640505
 20
92.4420244884868509
 30
0.0
 40
0.4638648851086489
 50
286.2242448629870069
 51
323.1988099000365082
  0
ARC
  5
7335
  8
0
 10
2993.7431686580371206
 20
92.6297043281849852
 30
0.0
 40
0.6635622797752134
 50
270.1256626261716747
 51
287.4364397921032719
  0
ARC
  5
7336
  8
0
 10
2993.7479765434209185
 20
92.0328403917043261
 30
0.0
 40
0.6072576529549034
 50
62.1697022711896565
 51
89.4090435687841421
  0
ARC
  5
7337
  8
0
 10
2993.8708256413488016
 20
92.2566669028589246
 30
0.0
 40
0.3519919833069911
 50
15.7339742334962693
 51
62.8444699319914619
  0
ARC
  5
7338
  8
0
 10
2993.9698820503790557
 20
92.3058150168745755
 30
0.0
 40
0.244177018327302
 50
330.4592936258284226
 51
10.9308815247756002
  0
ARC
  5
7339
  8
0
 10
2993.8692438314142237
 20
92.3657129473609189
 30
0.0
 40
0.3612736176522701
 50
300.47720278717361
 51
330.0639652775982995
  0
ARC
  5
733A
  8
0
 10
2993.7480282622132108
 20
92.5749770778913614
 30
0.0
 40
0.6031062435735699
 50
270.6892737931736974
 51
300.3185046794296227
  0
ARC
  5
733B
  8
0
 10
2993.7430533533038215
 20
92.0215845096930991
 30
0.0
 40
0.5947297111625685
 50
73.4944248147361208
 51
89.8709018554061174
  0
ARC
  5
733C
  8
0
 10
2993.7727240925728438
 20
92.1220555029518806
 30
0.0
 40
0.4899692132314993
 50
56.8957375435903003
 51
73.483127811551384
  0
ARC
  5
733D
  8
0
 10
2993.8810051836489947
 20
92.2767859198628742
 30
0.0
 40
0.3012793980064867
 50
20.1384663524329817
 51
58.0742337904557289
  0
ARC
  5
733E
  8
0
 10
2993.9571433808500842
 20
92.3124426783522836
 30
0.0
 40
0.2176409975782441
 50
338.5425532827866277
 51
18.22601533880988
  0
ARC
  5
733F
  8
0
 10
2993.8688250063742089
 20
92.3555070060346424
 30
0.0
 40
0.3156870280182769
 50
298.9231356075538883
 51
337.1318704932907053
  0
ARC
  5
7340
  8
0
 10
2993.7475631052971039
 20
92.5603066991834993
 30
0.0
 40
0.5536338956902522
 50
270.6054080732210991
 51
299.6567313210244947
  0
ARC
  5
7341
  8
0
 10
2993.8520793563370717
 20
92.5711208430673764
 30
0.0
 40
0.1617037760283428
 50
344.8300731482361243
 51
352.2965246389063054
  0
ARC
  5
7342
  8
0
 10
2993.8879275276399312
 20
92.5612221271541102
 30
0.0
 40
0.1245145689802165
 50
327.198556267555773
 51
344.9096526825065894
  0
ARC
  5
7343
  8
0
 10
2993.8504360221140814
 20
92.5859986338646337
 30
0.0
 40
0.169451111334122
 50
314.0394326536383005
 51
327.0241793399235917
  0
ARC
  5
7344
  8
0
 10
2993.7964907733771724
 20
92.6385433731800561
 30
0.0
 40
0.2447340865129666
 50
298.9675322451496982
 51
314.5667868562018157
  0
ARC
  5
7345
  8
0
 10
2993.7602777930801494
 20
92.7002208374449737
 30
0.0
 40
0.3162389856858779
 50
285.0437344979131922
 51
299.2956985839795152
  0
ARC
  5
7346
  8
0
 10
2993.7423994051900991
 20
92.7621992547890954
 30
0.0
 40
0.380735550279578
 50
270.1032474944223054
 51
285.2211248235379912
  0
ARC
  5
7347
  8
0
 10
2993.8236244809691016
 20
92.6031676360545219
 30
0.0
 40
0.2205600190451004
 50
298.4119854785341772
 51
342.436342520295284
  0
ARC
  5
7348
  8
0
 10
2993.7448197970938963
 20
92.7388842252568821
 30
0.0
 40
0.3774550649140225
 50
270.4715534036096756
 51
299.1311358113587744
  0
ARC
  5
7349
  8
0
 10
2993.8575571465580651
 20
92.5600349958968138
 30
0.0
 40
0.3040666868839473
 50
299.9433763169507756
 51
336.2346130576614769
  0
ARC
  5
734A
  8
0
 10
2993.7479509928789412
 20
92.7445923730938091
 30
0.0
 40
0.5187062818998698
 50
270.6890240997336718
 51
300.2587538648139116
  0
ARC
  5
734B
  8
0
 10
2993.8277047179722103
 20
92.5987078938827608
 30
0.0
 40
0.3693011168744893
 50
293.4059611928026925
 51
330.2735743525349221
  0
ARC
  5
734C
  8
0
 10
2993.7447242419639224
 20
92.7794502909768539
 30
0.0
 40
0.5681509431779125
 50
270.3036413388315964
 51
293.8450055210620917
  0
LINE
  5
734D
  8
0
 10
2993.8129731593289762
 20
92.5879434349782287
 30
0.0
 11
2993.8129731593289762
 21
92.5725239363782464
 31
0.0
  0
LINE
  5
734E
  8
0
 10
2993.8129731593289762
 20
92.5725239363782464
 30
0.0
 11
2993.7925007184289825
 21
92.5641655964782331
 31
0.0
  0
LINE
  5
734F
  8
0
 10
2993.7925007184289825
 20
92.5641655964782331
 30
0.0
 11
2993.7720282774289444
 21
92.5725239363782464
 31
0.0
  0
LINE
  5
7350
  8
0
 10
2993.7720282774289444
 20
92.5725239363782464
 30
0.0
 11
2993.7720282774289444
 21
92.5879434350035808
 31
0.0
  0
LINE
  5
7351
  8
0
 10
2993.8129731593289762
 20
92.5879434349782287
 30
0.0
 11
2993.7925001770258859
 21
92.5963015537380443
 31
0.0
  0
LINE
  5
7352
  8
0
 10
2993.7925001770258859
 20
92.5963015537380443
 30
0.0
 11
2993.7720282774289444
 21
92.5879434350035808
 31
0.0
  0
ARC
  5
7353
  8
0
 10
2993.8155927576358408
 20
92.5923723854580913
 30
0.0
 40
0.0051456678521577
 50
239.3968919046745043
 51
296.5706393297232921
  0
LINE
  5
7354
  8
0
 10
2993.8228156789277818
 20
92.5879434349782287
 30
0.0
 11
2993.8228156789277818
 21
92.5725239363782464
 31
0.0
  0
LINE
  5
7355
  8
0
 10
2993.8228156789277818
 20
92.5725239363782464
 30
0.0
 11
2993.8432881198291398
 21
92.5641655964782331
 31
0.0
  0
LINE
  5
7356
  8
0
 10
2993.8432881198291398
 20
92.5641655964782331
 30
0.0
 11
2993.8637605608291778
 21
92.5725239363782464
 31
0.0
  0
LINE
  5
7357
  8
0
 10
2993.8637605608291778
 20
92.5725239363782464
 30
0.0
 11
2993.8637605608291778
 21
92.5879434350035808
 31
0.0
  0
LINE
  5
7358
  8
0
 10
2993.8228156789277818
 20
92.5879434349782287
 30
0.0
 11
2993.8432886612317816
 21
92.5963015537380443
 31
0.0
  0
LINE
  5
7359
  8
0
 10
2993.8432886612317816
 20
92.5963015537380443
 30
0.0
 11
2993.8637605608291778
 21
92.5879434350035808
 31
0.0
  0
ARC
  5
735A
  8
0
 10
2993.8201960806209172
 20
92.5923723854580913
 30
0.0
 40
0.0051456678521577
 50
243.4293606702767079
 51
300.6031080953255241
  0
ARC
  5
735B
  8
0
 10
2993.8663801592360869
 20
92.5923723854580913
 30
0.0
 40
0.0051456678521577
 50
239.3968919046745043
 51
296.5706393297232921
  0
LINE
  5
735C
  8
0
 10
2993.9243904821291835
 20
92.5879601457639865
 30
0.0
 11
2993.9243904821291835
 21
92.5725239363782464
 31
0.0
  0
ARC
  5
735D
  8
0
 10
2993.9217708838209546
 20
92.5923723854580913
 30
0.0
 40
0.0051456678521577
 50
243.4293606702767079
 51
300.6031080953255241
  0
LINE
  5
735E
  8
0
 10
2993.9145479625290136
 20
92.5879434349782287
 30
0.0
 11
2993.9145479625290136
 21
92.5725239363782464
 31
0.0
  0
LINE
  5
735F
  8
0
 10
2993.9145479625290136
 20
92.5725239363782464
 30
0.0
 11
2993.8940755216290199
 21
92.5641655964782331
 31
0.0
  0
LINE
  5
7360
  8
0
 10
2993.8940755216290199
 20
92.5641655964782331
 30
0.0
 11
2993.8736030806289818
 21
92.5725239363782464
 31
0.0
  0
LINE
  5
7361
  8
0
 10
2993.8736030806289818
 20
92.5725239363782464
 30
0.0
 11
2993.8736030806289818
 21
92.5879434350035808
 31
0.0
  0
LINE
  5
7362
  8
0
 10
2993.9145479625290136
 20
92.5879434349782287
 30
0.0
 11
2993.8940749802250139
 21
92.5963015537380443
 31
0.0
  0
LINE
  5
7363
  8
0
 10
2993.8948470551517858
 20
92.5966167708912309
 30
0.0
 11
2993.8736030806289818
 21
92.5879434350035808
 31
0.0
  0
ARC
  5
7364
  8
0
 10
2993.9171675608358782
 20
92.5923723854580913
 30
0.0
 40
0.0051456678521577
 50
239.3968919046745043
 51
296.5706393297232921
  0
ARC
  5
7365
  8
0
 10
2993.8709834822211633
 20
92.5923723854580913
 30
0.0
 40
0.0051456678521577
 50
243.4293606702767079
 51
300.6031080953255241
  0
LINE
  5
7366
  8
0
 10
2993.8129726179258796
 20
92.5257383191067504
 30
0.0
 11
2993.8129726179258796
 21
92.5103188205067539
 31
0.0
  0
LINE
  5
7367
  8
0
 10
2993.8129726179258796
 20
92.5103188205067539
 30
0.0
 11
2993.7925001770258859
 21
92.5019604806067548
 31
0.0
  0
LINE
  5
7368
  8
0
 10
2993.7925001770258859
 20
92.5019604806067548
 30
0.0
 11
2993.7720277360258478
 21
92.5103188205067539
 31
0.0
  0
LINE
  5
7369
  8
0
 10
2993.7720277360258478
 20
92.5103188205067539
 30
0.0
 11
2993.7720277360258478
 21
92.5257383191320741
 31
0.0
  0
LINE
  5
736A
  8
0
 10
2993.8129726179258796
 20
92.5257383191067504
 30
0.0
 11
2993.7924996356218799
 21
92.534096437866566
 31
0.0
  0
LINE
  5
736B
  8
0
 10
2993.7924996356218799
 20
92.534096437866566
 30
0.0
 11
2993.7720277360258478
 21
92.5257383191320741
 31
0.0
  0
ARC
  5
736C
  8
0
 10
2993.8155847546518089
 20
92.5300836648235361
 30
0.0
 40
0.0050700382321769
 50
238.9884765829432069
 51
296.9711387185490139
  0
LINE
  5
736D
  8
0
 10
2993.8129731593289762
 20
92.4635332033469552
 30
0.0
 11
2993.8129731593289762
 21
92.4481137047469588
 31
0.0
  0
LINE
  5
736E
  8
0
 10
2993.8129731593289762
 20
92.4481137047469588
 30
0.0
 11
2993.7925007184289825
 21
92.4397553648469454
 31
0.0
  0
LINE
  5
736F
  8
0
 10
2993.7925007184289825
 20
92.4397553648469454
 30
0.0
 11
2993.7720282774289444
 21
92.4481137047469588
 31
0.0
  0
LINE
  5
7370
  8
0
 10
2993.7720282774289444
 20
92.4481137047469588
 30
0.0
 11
2993.7720282774289444
 21
92.4635332033722932
 31
0.0
  0
LINE
  5
7371
  8
0
 10
2993.8129731593289762
 20
92.4635332033469552
 30
0.0
 11
2993.7925001770258859
 21
92.4718913221067567
 31
0.0
  0
LINE
  5
7372
  8
0
 10
2993.7925001770258859
 20
92.4718913221067567
 30
0.0
 11
2993.7720282774289444
 21
92.4635332033722932
 31
0.0
  0
ARC
  5
7373
  8
0
 10
2993.8155927576358408
 20
92.4679621538267753
 30
0.0
 40
0.0051456678521577
 50
239.3968919046745043
 51
296.5706393297232921
  0
LINE
  5
7374
  8
0
 10
2993.7875789171248471
 20
92.4946356507067549
 30
0.0
 11
2993.7875789171248471
 21
92.4792161521067442
 31
0.0
  0
LINE
  5
7375
  8
0
 10
2993.7875789171248471
 20
92.4792161521067442
 30
0.0
 11
2993.7671064762248534
 21
92.4708578122067451
 31
0.0
  0
LINE
  5
7376
  8
0
 10
2993.7671064762248534
 20
92.4708578122067451
 30
0.0
 11
2993.7466340352248153
 21
92.4792161521067442
 31
0.0
  0
LINE
  5
7377
  8
0
 10
2993.7466340352248153
 20
92.4792161521067442
 30
0.0
 11
2993.7466340352248153
 21
92.4946356507320928
 31
0.0
  0
LINE
  5
7378
  8
0
 10
2993.7875789171248471
 20
92.4946356507067549
 30
0.0
 11
2993.7671059348222116
 21
92.5029937694665563
 31
0.0
  0
LINE
  5
7379
  8
0
 10
2993.7671059348222116
 20
92.5029937694665563
 30
0.0
 11
2993.7466340352248153
 21
92.4946356507320928
 31
0.0
  0
ARC
  5
737A
  8
0
 10
2993.790198515433076
 20
92.4990646011865749
 30
0.0
 40
0.0051456678521577
 50
239.3968919046745043
 51
296.5706393297232921
  0
LINE
  5
737B
  8
0
 10
2993.8383663187291859
 20
92.4946356507469574
 30
0.0
 11
2993.8383663187291859
 21
92.4792161521469609
 31
0.0
  0
LINE
  5
737C
  8
0
 10
2993.8383663187291859
 20
92.4792161521469609
 30
0.0
 11
2993.817893877827828
 21
92.4708578122469476
 31
0.0
  0
LINE
  5
737D
  8
0
 10
2993.817893877827828
 20
92.4708578122469476
 30
0.0
 11
2993.7974214368291541
 21
92.4792161521469609
 31
0.0
  0
LINE
  5
737E
  8
0
 10
2993.7974214368291541
 20
92.4792161521469609
 30
0.0
 11
2993.7974214368291541
 21
92.4946356507722953
 31
0.0
  0
LINE
  5
737F
  8
0
 10
2993.8383663187291859
 20
92.4946356507469574
 30
0.0
 11
2993.8178933364251861
 21
92.5029937695067588
 31
0.0
  0
LINE
  5
7380
  8
0
 10
2993.8178933364251861
 20
92.5029937695067588
 30
0.0
 11
2993.7974214368291541
 21
92.4946356507722953
 31
0.0
  0
ARC
  5
7381
  8
0
 10
2993.8409815902400624
 20
92.4990698782495997
 30
0.0
 40
0.0051480111327587
 50
239.4682399868605955
 51
296.4913746148964151
  0
LINE
  5
7382
  8
0
 10
2993.8891542616279366
 20
92.4946358717469508
 30
0.0
 11
2993.8891542616279366
 21
92.4792163731469543
 31
0.0
  0
LINE
  5
7383
  8
0
 10
2993.8891542616279366
 20
92.4792163731469543
 30
0.0
 11
2993.8686818207288525
 21
92.4708580332469552
 31
0.0
  0
LINE
  5
7384
  8
0
 10
2993.8686818207288525
 20
92.4708580332469552
 30
0.0
 11
2993.8482093797288144
 21
92.4792163731469543
 31
0.0
  0
LINE
  5
7385
  8
0
 10
2993.8482093797288144
 20
92.4792163731469543
 30
0.0
 11
2993.8482093797288144
 21
92.4946358717722887
 31
0.0
  0
LINE
  5
7386
  8
0
 10
2993.8891542616279366
 20
92.4946358717469508
 30
0.0
 11
2993.8686812793248464
 21
92.5029939905067522
 31
0.0
  0
LINE
  5
7387
  8
0
 10
2993.8686812793248464
 20
92.5029939905067522
 30
0.0
 11
2993.8482093797288144
 21
92.4946358717722887
 31
0.0
  0
ARC
  5
7388
  8
0
 10
2993.8917738599361655
 20
92.4990648222267851
 30
0.0
 40
0.0051456678521577
 50
239.3968919046745043
 51
296.5706393297232921
  0
ARC
  5
7389
  8
0
 10
2993.7947999038929083
 20
92.499119552167727
 30
0.0
 40
0.0051940164278887
 50
243.7195885639750941
 51
300.3128816412203719
  0
ARC
  5
738A
  8
0
 10
2993.8455832755189476
 20
92.499108379404106
 30
0.0
 40
0.0051864966826509
 50
243.6092659353460874
 51
300.4200052716814753
  0
LINE
  5
738B
  8
0
 10
2993.8228054878081821
 20
92.5257383191067504
 30
0.0
 11
2993.8228054878081821
 21
92.5103188205067539
 31
0.0
  0
LINE
  5
738C
  8
0
 10
2993.8228054878081821
 20
92.5103188205067539
 30
0.0
 11
2993.8432779287068115
 21
92.5019604806067548
 31
0.0
  0
LINE
  5
738D
  8
0
 10
2993.8432779287068115
 20
92.5019604806067548
 30
0.0
 11
2993.8637503697068496
 21
92.5103188205067539
 31
0.0
  0
LINE
  5
738E
  8
0
 10
2993.8637503697068496
 20
92.5103188205067539
 30
0.0
 11
2993.8637503697068496
 21
92.5257383191320741
 31
0.0
  0
LINE
  5
738F
  8
0
 10
2993.8228054878081821
 20
92.5257383191067504
 30
0.0
 11
2993.8432784701108176
 21
92.534096437866566
 31
0.0
  0
LINE
  5
7390
  8
0
 10
2993.8432784701108176
 20
92.534096437866566
 30
0.0
 11
2993.8637503697068496
 21
92.5257383191320741
 31
0.0
  0
ARC
  5
7391
  8
0
 10
2993.8201858894999532
 20
92.5301672695865989
 30
0.0
 40
0.0051456678521577
 50
243.4293606702767079
 51
300.6031080953255241
  0
ARC
  5
7392
  8
0
 10
2993.8663810085340629
 20
92.5302101971143856
 30
0.0
 40
0.0051882514706553
 50
239.5332903196031111
 51
296.4508590429779247
  0
LINE
  5
7393
  8
0
 10
2993.9244114057751176
 20
92.5257383191067504
 30
0.0
 11
2993.9244114057751176
 21
92.5103188205067539
 31
0.0
  0
LINE
  5
7394
  8
0
 10
2993.9244114057751176
 20
92.5103188205067539
 30
0.0
 11
2993.9448838466742018
 21
92.5019604806067548
 31
0.0
  0
LINE
  5
7395
  8
0
 10
2993.9448838466742018
 20
92.5019604806067548
 30
0.0
 11
2993.9653562876737851
 21
92.5103188205067539
 31
0.0
  0
LINE
  5
7396
  8
0
 10
2993.9653562876737851
 20
92.5103188205067539
 30
0.0
 11
2993.9653562876737851
 21
92.5257383191320741
 31
0.0
  0
LINE
  5
7397
  8
0
 10
2993.9244114057751176
 20
92.5257383191067504
 30
0.0
 11
2993.9448843880782078
 21
92.534096437866566
 31
0.0
  0
LINE
  5
7398
  8
0
 10
2993.9448843880782078
 20
92.534096437866566
 30
0.0
 11
2993.9653562876737851
 21
92.5257383191320741
 31
0.0
  0
ARC
  5
7399
  8
0
 10
2993.9217992690478241
 20
92.5300836648235361
 30
0.0
 40
0.0050700382321769
 50
243.0288612814509861
 51
301.0115234170568215
  0
LINE
  5
739A
  8
0
 10
2993.9145785358928151
 20
92.5257383191067504
 30
0.0
 11
2993.9145785358928151
 21
92.5103188205067539
 31
0.0
  0
LINE
  5
739B
  8
0
 10
2993.9145785358928151
 20
92.5103188205067539
 30
0.0
 11
2993.8941060949928215
 21
92.5019604806067548
 31
0.0
  0
LINE
  5
739C
  8
0
 10
2993.8941060949928215
 20
92.5019604806067548
 30
0.0
 11
2993.8736336539927834
 21
92.5103188205067539
 31
0.0
  0
LINE
  5
739D
  8
0
 10
2993.8736336539927834
 20
92.5103188205067539
 30
0.0
 11
2993.8736336539927834
 21
92.5257383191320741
 31
0.0
  0
LINE
  5
739E
  8
0
 10
2993.9145785358928151
 20
92.5257383191067504
 30
0.0
 11
2993.8941055535888154
 21
92.534096437866566
 31
0.0
  0
LINE
  5
739F
  8
0
 10
2993.8941055535888154
 20
92.534096437866566
 30
0.0
 11
2993.8736336539927834
 21
92.5257383191320741
 31
0.0
  0
ARC
  5
73A0
  8
0
 10
2993.9171981342001345
 20
92.5301672695865989
 30
0.0
 40
0.0051456678521577
 50
239.3968919046745043
 51
296.5706393297232921
  0
ARC
  5
73A1
  8
0
 10
2993.8710030151660249
 20
92.5302101971143856
 30
0.0
 40
0.0051882514706533
 50
243.5491409570221037
 51
300.4667096804017774
  0
ARC
  5
73A2
  8
0
 10
2993.9679457596521388
 20
92.5299969627903494
 30
0.0
 40
0.0049841158623258
 50
238.6982707606258884
 51
297.2266529653932139
  0
LINE
  5
73A3
  8
0
 10
2993.997957523074092
 20
92.5029359538941236
 30
0.0
 11
2993.9955682544550655
 21
92.5019604806067548
 31
0.0
  0
LINE
  5
73A4
  8
0
 10
2993.9955682544550655
 20
92.5019604806067548
 30
0.0
 11
2993.9750958134550274
 21
92.5103188205067539
 31
0.0
  0
LINE
  5
73A5
  8
0
 10
2993.9750958134550274
 20
92.5103188205067539
 30
0.0
 11
2993.9750958134550274
 21
92.5257383191320741
 31
0.0
  0
LINE
  5
73A6
  8
0
 10
2994.0081860746799975
 20
92.5289449771031087
 30
0.0
 11
2993.9955677130510594
 21
92.534096437866566
 31
0.0
  0
LINE
  5
73A7
  8
0
 10
2993.9955677130510594
 20
92.534096437866566
 30
0.0
 11
2993.9750958134550274
 21
92.5257383191320741
 31
0.0
  0
ARC
  5
73A8
  8
0
 10
2993.9725063414780379
 20
92.5299969627903636
 30
0.0
 40
0.0049841158623272
 50
242.7733470346059903
 51
301.301729239347992
  0
LINE
  5
73A9
  8
0
 10
2993.9497847241291311
 20
92.4946356507469574
 30
0.0
 11
2993.9497847241291311
 21
92.4792161521469609
 31
0.0
  0
LINE
  5
73AA
  8
0
 10
2993.9497847241291311
 20
92.4792161521469609
 30
0.0
 11
2993.9702571650291247
 21
92.4708578122469476
 31
0.0
  0
LINE
  5
73AB
  8
0
 10
2993.9702571650291247
 20
92.4708578122469476
 30
0.0
 11
2993.9773967178471139
 21
92.4737726971493572
 31
0.0
  0
LINE
  5
73AC
  8
0
 10
2993.9907296060291628
 20
92.4909650111570443
 30
0.0
 11
2993.9907296060291628
 21
92.4946356507722953
 31
0.0
  0
LINE
  5
73AD
  8
0
 10
2993.9497847241291311
 20
92.4946356507469574
 30
0.0
 11
2993.9702577064322213
 21
92.5029937695067588
 31
0.0
  0
LINE
  5
73AE
  8
0
 10
2993.9702577064322213
 20
92.5029937695067588
 30
0.0
 11
2993.9907296060291628
 21
92.4946356507722953
 31
0.0
  0
ARC
  5
73AF
  8
0
 10
2993.9471694526168903
 20
92.4990698782495997
 30
0.0
 40
0.0051480111327587
 50
243.5086253851036133
 51
300.531760013139376
  0
LINE
  5
73B0
  8
0
 10
2993.8989967812290161
 20
92.4946358717469508
 30
0.0
 11
2993.8989967812290161
 21
92.4792163731469543
 31
0.0
  0
LINE
  5
73B1
  8
0
 10
2993.8989967812290161
 20
92.4792163731469543
 30
0.0
 11
2993.9194692221290097
 21
92.4708580332469552
 31
0.0
  0
LINE
  5
73B2
  8
0
 10
2993.9194692221290097
 20
92.4708580332469552
 30
0.0
 11
2993.9399416631290478
 21
92.4792163731469543
 31
0.0
  0
LINE
  5
73B3
  8
0
 10
2993.9399416631290478
 20
92.4792163731469543
 30
0.0
 11
2993.9399416631290478
 21
92.4946358717722887
 31
0.0
  0
LINE
  5
73B4
  8
0
 10
2993.8989967812290161
 20
92.4946358717469508
 30
0.0
 11
2993.9194697635321063
 21
92.5029939905067522
 31
0.0
  0
LINE
  5
73B5
  8
0
 10
2993.9194697635321063
 20
92.5029939905067522
 30
0.0
 11
2993.9399416631290478
 21
92.4946358717722887
 31
0.0
  0
ARC
  5
73B6
  8
0
 10
2993.8963771829207872
 20
92.4990648222267851
 30
0.0
 40
0.0051456678521577
 50
243.4293606702767079
 51
300.6031080953255241
  0
ARC
  5
73B7
  8
0
 10
2993.9933511389640444
 20
92.499119552167727
 30
0.0
 40
0.0051940164278887
 50
239.6871183587795997
 51
262.9597956172968907
  0
ARC
  5
73B8
  8
0
 10
2993.9425677673389146
 20
92.499108379404106
 30
0.0
 40
0.0051864966826509
 50
239.579994728318411
 51
296.3907340646538273
  0
LINE
  5
73B9
  8
0
 10
2993.8228156789277818
 20
92.4635332033469552
 30
0.0
 11
2993.8228156789277818
 21
92.4481137047469588
 31
0.0
  0
LINE
  5
73BA
  8
0
 10
2993.8228156789277818
 20
92.4481137047469588
 30
0.0
 11
2993.8432881198291398
 21
92.4397553648469454
 31
0.0
  0
LINE
  5
73BB
  8
0
 10
2993.8432881198291398
 20
92.4397553648469454
 30
0.0
 11
2993.8637605608291778
 21
92.4481137047469588
 31
0.0
  0
LINE
  5
73BC
  8
0
 10
2993.8637605608291778
 20
92.4481137047469588
 30
0.0
 11
2993.8637605608291778
 21
92.4635332033722932
 31
0.0
  0
LINE
  5
73BD
  8
0
 10
2993.8228156789277818
 20
92.4635332033469552
 30
0.0
 11
2993.8432886612317816
 21
92.4718913221067567
 31
0.0
  0
LINE
  5
73BE
  8
0
 10
2993.8432886612317816
 20
92.4718913221067567
 30
0.0
 11
2993.8637605608291778
 21
92.4635332033722932
 31
0.0
  0
ARC
  5
73BF
  8
0
 10
2993.8201960806209172
 20
92.4679621538267753
 30
0.0
 40
0.0051456678521577
 50
243.4293606702767079
 51
300.6031080953255241
  0
LINE
  5
73C0
  8
0
 10
2993.9243904821291835
 20
92.4635332033469552
 30
0.0
 11
2993.9243904821291835
 21
92.4481137047469588
 31
0.0
  0
LINE
  5
73C1
  8
0
 10
2993.9243904821291835
 20
92.4481137047469588
 30
0.0
 11
2993.9412658416240447
 21
92.4412239551912762
 31
0.0
  0
LINE
  5
73C2
  8
0
 10
2993.9653353640292153
 20
92.461381646757772
 30
0.0
 11
2993.9653353640292153
 21
92.4635332033722932
 31
0.0
  0
LINE
  5
73C3
  8
0
 10
2993.9243904821291835
 20
92.4635332033469552
 30
0.0
 11
2993.944863464431819
 21
92.4718913221067567
 31
0.0
  0
LINE
  5
73C4
  8
0
 10
2993.944863464431819
 20
92.4718913221067567
 30
0.0
 11
2993.9653353640292153
 21
92.4635332033722932
 31
0.0
  0
ARC
  5
73C5
  8
0
 10
2993.9217708838209546
 20
92.4679621538267753
 30
0.0
 40
0.0051456678521577
 50
243.4293606702767079
 51
300.6031080953255241
  0
LINE
  5
73C6
  8
0
 10
2993.9145479625290136
 20
92.4635332033469552
 30
0.0
 11
2993.9145479625290136
 21
92.4481137047469588
 31
0.0
  0
LINE
  5
73C7
  8
0
 10
2993.9145479625290136
 20
92.4481137047469588
 30
0.0
 11
2993.8940755216290199
 21
92.4397553648469454
 31
0.0
  0
LINE
  5
73C8
  8
0
 10
2993.8940755216290199
 20
92.4397553648469454
 30
0.0
 11
2993.8736030806289818
 21
92.4481137047469588
 31
0.0
  0
LINE
  5
73C9
  8
0
 10
2993.8736030806289818
 20
92.4481137047469588
 30
0.0
 11
2993.8736030806289818
 21
92.4635332033722932
 31
0.0
  0
LINE
  5
73CA
  8
0
 10
2993.9145479625290136
 20
92.4635332033469552
 30
0.0
 11
2993.8940749802250139
 21
92.4718913221067567
 31
0.0
  0
LINE
  5
73CB
  8
0
 10
2993.8940749802250139
 20
92.4718913221067567
 30
0.0
 11
2993.8736030806289818
 21
92.4635332033722932
 31
0.0
  0
ARC
  5
73CC
  8
0
 10
2993.9171675608358782
 20
92.4679621538267753
 30
0.0
 40
0.0051456678521577
 50
239.3968919046745043
 51
296.5706393297232921
  0
ARC
  5
73CD
  8
0
 10
2993.8663763300951359
 20
92.4679831775037968
 30
0.0
 40
0.0051618328746631
 50
239.5522750417441102
 51
296.5366562788536271
  0
ARC
  5
73CE
  8
0
 10
2993.8709879168950465
 20
92.4679836350022128
 30
0.0
 40
0.0051619204806386
 50
243.4727642948955122
 51
300.4393573064517113
  0
LINE
  5
73CF
  8
0
 10
2993.7875794585279436
 20
92.4324305348469437
 30
0.0
 11
2993.7875794585279436
 21
92.4170110362469472
 31
0.0
  0
LINE
  5
73D0
  8
0
 10
2993.7875794585279436
 20
92.4170110362469472
 30
0.0
 11
2993.76710701762795
 21
92.4086526963469623
 31
0.0
  0
LINE
  5
73D1
  8
0
 10
2993.76710701762795
 20
92.4086526963469623
 30
0.0
 11
2993.7466345766288214
 21
92.4170110362469472
 31
0.0
  0
LINE
  5
73D2
  8
0
 10
2993.7466345766288214
 20
92.4170110362469472
 30
0.0
 11
2993.7466345766288214
 21
92.4324305348722959
 31
0.0
  0
LINE
  5
73D3
  8
0
 10
2993.7875794585279436
 20
92.4324305348469437
 30
0.0
 11
2993.7671064762248534
 21
92.4407886536067451
 31
0.0
  0
LINE
  5
73D4
  8
0
 10
2993.7671064762248534
 20
92.4407886536067451
 30
0.0
 11
2993.7466345766288214
 21
92.4324305348722959
 31
0.0
  0
ARC
  5
73D5
  8
0
 10
2993.7901990568348083
 20
92.4368594853267922
 30
0.0
 40
0.0051456678521577
 50
239.3968919046745043
 51
296.5706393297232921
  0
LINE
  5
73D6
  8
0
 10
2993.797421978129023
 20
92.4324305348469437
 30
0.0
 11
2993.797421978129023
 21
92.4170110362469472
 31
0.0
  0
LINE
  5
73D7
  8
0
 10
2993.797421978129023
 20
92.4170110362469472
 30
0.0
 11
2993.8178944190290167
 21
92.4086526963469623
 31
0.0
  0
LINE
  5
73D8
  8
0
 10
2993.8178944190290167
 20
92.4086526963469623
 30
0.0
 11
2993.8383668600290548
 21
92.4170110362469472
 31
0.0
  0
LINE
  5
73D9
  8
0
 10
2993.8383668600290548
 20
92.4170110362469472
 30
0.0
 11
2993.8383668600290548
 21
92.4324305348722959
 31
0.0
  0
LINE
  5
73DA
  8
0
 10
2993.797421978129023
 20
92.4324305348469437
 30
0.0
 11
2993.8178949604321133
 21
92.4407886536067451
 31
0.0
  0
LINE
  5
73DB
  8
0
 10
2993.8178949604321133
 20
92.4407886536067451
 30
0.0
 11
2993.8383668600290548
 21
92.4324305348722959
 31
0.0
  0
ARC
  5
73DC
  8
0
 10
2993.7948023798221584
 20
92.4368594853267922
 30
0.0
 40
0.0051456678521577
 50
243.4293606702767079
 51
300.6031080953255241
  0
LINE
  5
73DD
  8
0
 10
2993.8989967813290605
 20
92.4324305348469437
 30
0.0
 11
2993.8989967813290605
 21
92.4170110362469472
 31
0.0
  0
LINE
  5
73DE
  8
0
 10
2993.8989967813290605
 20
92.4170110362469472
 30
0.0
 11
2993.9000877335538462
 21
92.4165656301735368
 31
0.0
  0
LINE
  5
73DF
  8
0
 10
2993.8989967813290605
 20
92.4324305348469437
 30
0.0
 11
2993.9194697636321507
 21
92.4407886536067451
 31
0.0
  0
ARC
  5
73E0
  8
0
 10
2993.8963771830221958
 20
92.4368594853267922
 30
0.0
 40
0.0051456678521577
 50
243.4293606702767079
 51
300.6031080953255241
  0
LINE
  5
73E1
  8
0
 10
2993.8891542617279811
 20
92.4324305348469437
 30
0.0
 11
2993.8891542617279811
 21
92.4170110362469472
 31
0.0
  0
LINE
  5
73E2
  8
0
 10
2993.8891542617279811
 20
92.4170110362469472
 30
0.0
 11
2993.8686818208288969
 21
92.4086526963469623
 31
0.0
  0
LINE
  5
73E3
  8
0
 10
2993.8716473254289667
 20
92.4074419616123066
 30
0.0
 11
2993.8482093798288588
 21
92.4170110362469472
 31
0.0
  0
LINE
  5
73E4
  8
0
 10
2993.8482093798288588
 20
92.4170110362469472
 30
0.0
 11
2993.8482093798288588
 21
92.4324305348722959
 31
0.0
  0
LINE
  5
73E5
  8
0
 10
2993.8891542617279811
 20
92.4324305348469437
 30
0.0
 11
2993.8686812794258003
 21
92.4407886536067451
 31
0.0
  0
LINE
  5
73E6
  8
0
 10
2993.8686812794258003
 20
92.4407886536067451
 30
0.0
 11
2993.8482093798288588
 21
92.4324305348722959
 31
0.0
  0
ARC
  5
73E7
  8
0
 10
2993.89177386003621
 20
92.4368594853267922
 30
0.0
 40
0.0051456678521577
 50
239.3968919046745043
 51
296.5706393297232921
  0
ARC
  5
73E8
  8
0
 10
2993.8409826292950129
 20
92.4368805090037853
 30
0.0
 40
0.0051618328746631
 50
239.5522750417441102
 51
296.5366562788536271
  0
ARC
  5
73E9
  8
0
 10
2993.8455942160949235
 20
92.4368809665022155
 30
0.0
 40
0.0051619204806386
 50
243.4727642948955122
 51
300.4393573064517113
  0
LINE
  5
73EA
  8
0
 10
2993.7875783757222052
 20
92.5568412086352481
 30
0.0
 11
2993.7875783757222052
 21
92.5414217100352516
 31
0.0
  0
LINE
  5
73EB
  8
0
 10
2993.7875783757222052
 20
92.5414217100352516
 30
0.0
 11
2993.7671059348222116
 21
92.5330633701352667
 31
0.0
  0
LINE
  5
73EC
  8
0
 10
2993.7671059348222116
 20
92.5330633701352667
 30
0.0
 11
2993.7466334938221735
 21
92.5414217100352516
 31
0.0
  0
LINE
  5
73ED
  8
0
 10
2993.7466334938221735
 20
92.5414217100352516
 30
0.0
 11
2993.7466334938221735
 21
92.5568412086606003
 31
0.0
  0
LINE
  5
73EE
  8
0
 10
2993.7875783757222052
 20
92.5568412086352481
 30
0.0
 11
2993.767105393419115
 21
92.5651993273950637
 31
0.0
  0
LINE
  5
73EF
  8
0
 10
2993.767105393419115
 20
92.5651993273950637
 30
0.0
 11
2993.7466334938221735
 21
92.5568412086606003
 31
0.0
  0
ARC
  5
73F0
  8
0
 10
2993.790190512449044
 20
92.561186554352048
 30
0.0
 40
0.0050700382321769
 50
238.9884765829432069
 51
296.9711387185490139
  0
LINE
  5
73F1
  8
0
 10
2993.797411245604053
 20
92.5568412086352481
 30
0.0
 11
2993.797411245604053
 21
92.5414217100352516
 31
0.0
  0
LINE
  5
73F2
  8
0
 10
2993.797411245604053
 20
92.5414217100352516
 30
0.0
 11
2993.8178836865040466
 21
92.5330633701352667
 31
0.0
  0
LINE
  5
73F3
  8
0
 10
2993.8178836865040466
 20
92.5330633701352667
 30
0.0
 11
2993.8383561275040847
 21
92.5414217100352516
 31
0.0
  0
LINE
  5
73F4
  8
0
 10
2993.8383561275040847
 20
92.5414217100352516
 30
0.0
 11
2993.8383561275040847
 21
92.5568412086606003
 31
0.0
  0
LINE
  5
73F5
  8
0
 10
2993.797411245604053
 20
92.5568412086352481
 30
0.0
 11
2993.8178842279071432
 21
92.5651993273950637
 31
0.0
  0
LINE
  5
73F6
  8
0
 10
2993.8178842279071432
 20
92.5651993273950637
 30
0.0
 11
2993.8383561275040847
 21
92.5568412086606003
 31
0.0
  0
ARC
  5
73F7
  8
0
 10
2993.7947916472971883
 20
92.5612701591150966
 30
0.0
 40
0.0051456678521577
 50
243.4293606702767079
 51
300.6031080953255241
  0
ARC
  5
73F8
  8
0
 10
2993.8409867663308432
 20
92.5613130866428975
 30
0.0
 40
0.0051882514706553
 50
239.5332903196031111
 51
296.4508590429779247
  0
LINE
  5
73F9
  8
0
 10
2993.8990171635709885
 20
92.5568412086352481
 30
0.0
 11
2993.8990171635709885
 21
92.5414217100352516
 31
0.0
  0
LINE
  5
73FA
  8
0
 10
2993.8990171635709885
 20
92.5414217100352516
 30
0.0
 11
2993.9194896044709822
 21
92.5330633701352667
 31
0.0
  0
LINE
  5
73FB
  8
0
 10
2993.9194896044709822
 20
92.5330633701352667
 30
0.0
 11
2993.9399620454710202
 21
92.5414217100352516
 31
0.0
  0
LINE
  5
73FC
  8
0
 10
2993.9399620454710202
 20
92.5414217100352516
 30
0.0
 11
2993.9399620454710202
 21
92.5568412086606003
 31
0.0
  0
LINE
  5
73FD
  8
0
 10
2993.8990171635709885
 20
92.5568412086352481
 30
0.0
 11
2993.9194901458740787
 21
92.5651993273950637
 31
0.0
  0
LINE
  5
73FE
  8
0
 10
2993.9194901458740787
 20
92.5651993273950637
 30
0.0
 11
2993.9399620454710202
 21
92.5568412086606003
 31
0.0
  0
ARC
  5
73FF
  8
0
 10
2993.8964050268450592
 20
92.561186554352048
 30
0.0
 40
0.0050700382321769
 50
243.0288612814509861
 51
301.0115234170568215
  0
LINE
  5
7400
  8
0
 10
2993.8891842936891408
 20
92.5568412086352481
 30
0.0
 11
2993.8891842936891408
 21
92.5414217100352516
 31
0.0
  0
LINE
  5
7401
  8
0
 10
2993.8891842936891408
 20
92.5414217100352516
 30
0.0
 11
2993.8687118527891471
 21
92.5330633701352667
 31
0.0
  0
LINE
  5
7402
  8
0
 10
2993.8687118527891471
 20
92.5330633701352667
 30
0.0
 11
2993.848239411789109
 21
92.5414217100352516
 31
0.0
  0
LINE
  5
7403
  8
0
 10
2993.848239411789109
 20
92.5414217100352516
 30
0.0
 11
2993.848239411789109
 21
92.5568412086606003
 31
0.0
  0
LINE
  5
7404
  8
0
 10
2993.8891842936891408
 20
92.5568412086352481
 30
0.0
 11
2993.8687113113860505
 21
92.5651993273950637
 31
0.0
  0
LINE
  5
7405
  8
0
 10
2993.8687113113860505
 20
92.5651993273950637
 30
0.0
 11
2993.848239411789109
 21
92.5568412086606003
 31
0.0
  0
ARC
  5
7406
  8
0
 10
2993.8918038919969149
 20
92.5612701591150966
 30
0.0
 40
0.0051456678521577
 50
239.3968919046745043
 51
296.5706393297232921
  0
ARC
  5
7407
  8
0
 10
2993.8456087729628052
 20
92.5613130866428833
 30
0.0
 40
0.0051882514706533
 50
243.5491409570221037
 51
300.4667096804017774
  0
ARC
  5
7408
  8
0
 10
2993.9425515174489192
 20
92.5610998523188471
 30
0.0
 40
0.0049841158623258
 50
238.6982707606258884
 51
297.2266529653932139
  0
LINE
  5
7409
  8
0
 10
2993.9701740122518459
 20
92.5330633701352667
 30
0.0
 11
2993.9497015712508983
 21
92.5414217100352516
 31
0.0
  0
LINE
  5
740A
  8
0
 10
2993.9497015712508983
 20
92.5414217100352516
 30
0.0
 11
2993.9497015712508983
 21
92.5568412086606003
 31
0.0
  0
LINE
  5
740B
  8
0
 10
2993.9701734708478398
 20
92.5651993273950637
 30
0.0
 11
2993.9497015712508983
 21
92.5568412086606003
 31
0.0
  0
ARC
  5
740C
  8
0
 10
2993.9471120992739088
 20
92.5610998523188471
 30
0.0
 40
0.0049841158623272
 50
242.7733470346059903
 51
301.301729239347992
  0
LINE
  5
740D
  8
0
 10
2993.970172929445198
 20
92.5330633701352667
 30
0.0
 11
2993.9906453704447813
 21
92.5414217100352516
 31
0.0
  0
LINE
  5
740E
  8
0
 10
2993.9906453704447813
 20
92.5414217100352516
 30
0.0
 11
2993.9906453704447813
 21
92.5568412086606003
 31
0.0
  0
LINE
  5
740F
  8
0
 10
2993.9701734708478398
 20
92.5651993273950637
 30
0.0
 11
2993.9906453704447813
 21
92.5568412086606003
 31
0.0
  0
ARC
  5
7410
  8
0
 10
2993.9932348424222255
 20
92.5610998523188471
 30
0.0
 40
0.0049841158623272
 50
238.698270760652008
 51
297.2266529653940097
  0
LINE
  5
7411
  8
0
 10
2993.9243904821291835
 20
92.5725239363782464
 30
0.0
 11
2993.9448629230291772
 21
92.5641655964782331
 31
0.0
  0
LINE
  5
7412
  8
0
 10
2993.9448629230291772
 20
92.5641655964782331
 30
0.0
 11
2993.9654003179539359
 21
92.5725504552962235
 31
0.0
  0
ARC
  5
7413
  8
0
 10
2993.81554598178991
 20
92.5740912654282369
 30
0.0
 40
0.0074367343835708
 50
288.4084387725914098
 51
347.8333984186364205
  0
ARC
  5
7414
  8
0
 10
2993.8199447128081374
 20
92.5738239527144771
 30
0.0
 40
0.007091727602766
 50
190.5628785728503942
 51
253.1952830785232891
  0
ARC
  5
7415
  8
0
 10
2993.8663333834902005
 20
92.5740912654408845
 30
0.0
 40
0.0074367343835708
 50
288.4084387725914098
 51
347.8333984186364205
  0
ARC
  5
7416
  8
0
 10
2993.8707321145079732
 20
92.5738239527271247
 30
0.0
 40
0.007091727602766
 50
190.5628785728503942
 51
253.1952830785232891
  0
ARC
  5
7417
  8
0
 10
2993.9171207849899474
 20
92.5740912654282369
 30
0.0
 40
0.0074367343835708
 50
288.4084387725914098
 51
347.8333984186364205
  0
ARC
  5
7418
  8
0
 10
2993.9215195160081748
 20
92.5738239527144771
 30
0.0
 40
0.007091727602766
 50
190.5628785728503942
 51
253.1952830785232891
  0
ARC
  5
7419
  8
0
 10
2993.9424318741130264
 20
92.542989039097904
 30
0.0
 40
0.0074367343835708
 50
288.4084387725914098
 51
347.8333984186364205
  0
ARC
  5
741A
  8
0
 10
2993.9466435326089595
 20
92.5424276603967257
 30
0.0
 40
0.0067567896599692
 50
188.5620223630749877
 51
253.992964562189087
  0
ARC
  5
741B
  8
0
 10
2993.8917474664331166
 20
92.5429890390852279
 30
0.0
 40
0.0074367343835708
 50
288.4084387725914098
 51
347.8333984186364205
  0
ARC
  5
741C
  8
0
 10
2993.8961281088199939
 20
92.5426932922058683
 30
0.0
 40
0.0070592839428533
 50
190.3772771883691064
 51
253.2691059686299866
  0
ARC
  5
741D
  8
0
 10
2993.8409697146507824
 20
92.542989039097904
 30
0.0
 40
0.0074367343835708
 50
288.4084387725914098
 51
347.8333984186364205
  0
ARC
  5
741E
  8
0
 10
2993.8454461911610451
 20
92.5428439373034877
 30
0.0
 40
0.0072313023071549
 50
191.3426770469594089
 51
252.8855363743925864
  0
ARC
  5
741F
  8
0
 10
2993.7901415484661811
 20
92.5429890390852279
 30
0.0
 40
0.0074367343835708
 50
288.4084387725914098
 51
347.8333984186364205
  0
ARC
  5
7420
  8
0
 10
2993.7945221908530584
 20
92.542693292205854
 30
0.0
 40
0.0070592839428505
 50
190.3772771883452037
 51
253.269105968630214
  0
ARC
  5
7421
  8
0
 10
2993.9678261163157913
 20
92.511886149569392
 30
0.0
 40
0.0074367343835708
 50
288.4084387725914098
 51
347.8333984186364205
  0
ARC
  5
7422
  8
0
 10
2993.9720377748130886
 20
92.5113247708682138
 30
0.0
 40
0.006756789659969
 50
188.5620223630685928
 51
253.9929645621897976
  0
ARC
  5
7423
  8
0
 10
2993.9171417086358815
 20
92.5118861495567302
 30
0.0
 40
0.0074367343835708
 50
288.4084387725914098
 51
347.8333984186364205
  0
ARC
  5
7424
  8
0
 10
2993.9215223510232136
 20
92.5115904026773563
 30
0.0
 40
0.0070592839428505
 50
190.377277188338013
 51
253.269105968630214
  0
ARC
  5
7425
  8
0
 10
2993.866363956854002
 20
92.511886149569392
 30
0.0
 40
0.0074367343835708
 50
288.4084387725914098
 51
347.8333984186364205
  0
ARC
  5
7426
  8
0
 10
2993.87084043336381
 20
92.51174104777499
 30
0.0
 40
0.0072313023071524
 50
191.3426770469434928
 51
252.8855363743940075
  0
ARC
  5
7427
  8
0
 10
2993.8155357906680365
 20
92.5118861495567302
 30
0.0
 40
0.0074367343835708
 50
288.4084387725914098
 51
347.8333984186364205
  0
ARC
  5
7428
  8
0
 10
2993.8199164330558233
 20
92.5115904026773563
 30
0.0
 40
0.0070592839428505
 50
190.377277188338013
 51
253.269105968630214
  0
ARC
  5
7429
  8
0
 10
2993.7647580388870665
 20
92.511886149569392
 30
0.0
 40
0.0074367343835708
 50
288.4084387725914098
 51
347.8333984186364205
  0
ARC
  5
742A
  8
0
 10
2993.7691166999520647
 20
92.5115558494631216
 30
0.0
 40
0.00701987430943
 50
190.1495521498708001
 51
253.3597338728642967
  0
ARC
  5
742B
  8
0
 10
2993.790151739689918
 20
92.4807834812095848
 30
0.0
 40
0.0074367343835708
 50
288.4084387725914098
 51
347.8333984186364205
  0
ARC
  5
742C
  8
0
 10
2993.7945504707081454
 20
92.4805161684958392
 30
0.0
 40
0.007091727602766
 50
190.5628785728503942
 51
253.1952830785232891
  0
ARC
  5
742D
  8
0
 10
2993.840939682590033
 20
92.4807837022095924
 30
0.0
 40
0.0074367343835708
 50
288.4084387725914098
 51
347.8333984186364205
  0
ARC
  5
742E
  8
0
 10
2993.8453395096407803
 20
92.480518112389106
 30
0.0
 40
0.0070936938171988
 50
190.5758890076170928
 51
253.1908316744712977
  0
ARC
  5
742F
  8
0
 10
2993.89172708408978
 20
92.4807837021969164
 30
0.0
 40
0.0074367343835708
 50
288.4084387725914098
 51
347.8333984186364205
  0
ARC
  5
7430
  8
0
 10
2993.8961258151080074
 20
92.480516389483185
 30
0.0
 40
0.007091727602766
 50
190.5628785728503942
 51
253.1952830785232891
  0
ARC
  5
7431
  8
0
 10
2993.942515026989895
 20
92.4807834811969229
 30
0.0
 40
0.0074367343835708
 50
288.4084387725914098
 51
347.8333984186364205
  0
ARC
  5
7432
  8
0
 10
2993.9469146987571548
 20
92.4805176473168586
 30
0.0
 40
0.0070934152800433
 50
190.5706717283501916
 51
253.1914622800921109
  0
ARC
  5
7433
  8
0
 10
2993.9171207849899474
 20
92.4496810337969208
 30
0.0
 40
0.0074367343835708
 50
288.4084387725914098
 51
347.8333984186364205
  0
ARC
  5
7434
  8
0
 10
2993.9215195160081748
 20
92.4494137210832037
 30
0.0
 40
0.007091727602766
 50
190.5628785728503942
 51
253.1952830785232891
  0
ARC
  5
7435
  8
0
 10
2993.8663333834902005
 20
92.4496810338095969
 30
0.0
 40
0.0074367343835708
 50
288.4084387725914098
 51
347.8333984186364205
  0
ARC
  5
7436
  8
0
 10
2993.8707321145079732
 20
92.4494137210958371
 30
0.0
 40
0.007091727602766
 50
190.5628785728503942
 51
253.1952830785232891
  0
ARC
  5
7437
  8
0
 10
2993.81554598178991
 20
92.4496810337969208
 30
0.0
 40
0.0074367343835708
 50
288.4084387725914098
 51
347.8333984186364205
  0
ARC
  5
7438
  8
0
 10
2993.8199447128081374
 20
92.4494137210832037
 30
0.0
 40
0.007091727602766
 50
190.5628785728503942
 51
253.1952830785232891
  0
ARC
  5
7439
  8
0
 10
2993.7647585802901631
 20
92.4496810338095969
 30
0.0
 40
0.0074367343835708
 50
288.4084387725914098
 51
347.8333984186364205
  0
ARC
  5
743A
  8
0
 10
2993.7691411846230949
 20
92.4493993657901143
 30
0.0
 40
0.0070733319410123
 50
190.4760347496032011
 51
253.2867166335184947
  0
ARC
  5
743B
  8
0
 10
2993.8917270841898244
 20
92.4185783652969235
 30
0.0
 40
0.0074367343835708
 50
338.5710445756230911
 51
347.8333984186364205
  0
ARC
  5
743C
  8
0
 10
2993.8961258152080518
 20
92.4183110525831779
 30
0.0
 40
0.007091727602766
 50
190.5628785728503942
 51
232.9311429207251081
  0
ARC
  5
743D
  8
0
 10
2993.8409396826900775
 20
92.4185783653095854
 30
0.0
 40
0.0074367343835708
 50
288.4084387725914098
 51
347.8333984186364205
  0
ARC
  5
743E
  8
0
 10
2993.8453384137078501
 20
92.418311052595854
 30
0.0
 40
0.007091727602766
 50
190.5628785728503942
 51
253.1952830785232891
  0
ARC
  5
743F
  8
0
 10
2993.790152280989787
 20
92.4185783652969235
 30
0.0
 40
0.0074367343835708
 50
288.4084387725914098
 51
347.8333984186364205
  0
ARC
  5
7440
  8
0
 10
2993.7945510120080144
 20
92.4183110525831779
 30
0.0
 40
0.007091727602766
 50
190.5628785728503942
 51
253.1952830785232891
  0
ARC
  5
7441
  8
0
 10
2993.993115199085878
 20
92.542989039097904
 30
0.0
 40
0.0074367343835708
 50
288.4084387725914098
 51
347.8333984186364205
  0
ARC
  5
7442
  8
0
 10
2993.9973268575831753
 20
92.5424276603967257
 30
0.0
 40
0.0067567896599692
 50
188.5620223630749877
 51
253.992964562189087
  0
LINE
  5
7443
  8
0
 10
2993.9328584287100057
 20
92.4353227155674233
 30
0.0
 11
2993.9194697636321507
 21
92.4407886536067451
 31
0.0
  0
LINE
  5
7444
  8
0
 10
2993.7621857800290854
 20
92.4013282337466251
 30
0.0
 11
2993.741713316779169
 21
92.4096861406023464
 31
0.0
  0
ARC
  5
7445
  8
0
 10
2993.7648053783359501
 20
92.4057571842264736
 30
0.0
 40
0.0051456678521577
 50
239.3968919046745043
 51
296.5706393297232921
  0
LINE
  5
7446
  8
0
 10
2993.7720282996288006
 20
92.4013282337466251
 30
0.0
 11
2993.7925012819318908
 21
92.4096863525064265
 31
0.0
  0
LINE
  5
7447
  8
0
 10
2993.7925012819318908
 20
92.4096863525064265
 30
0.0
 11
2993.8129731815279229
 21
92.401328233771963
 31
0.0
  0
ARC
  5
7448
  8
0
 10
2993.7694087013210265
 20
92.4057571842264736
 30
0.0
 40
0.0051456678521577
 50
243.4293606702767079
 51
300.6031080953255241
  0
ARC
  5
7449
  8
0
 10
2993.8155889507947904
 20
92.4057782079034666
 30
0.0
 40
0.0051618328746631
 50
239.5522750417441102
 51
296.5366562788536271
  0
ARC
  5
744A
  8
0
 10
2993.8201964694990238
 20
92.4058973544328239
 30
0.0
 40
0.0052666019566772
 50
244.0890660775478977
 51
299.8222323680518002
  0
LINE
  5
744B
  8
0
 10
2993.8228156066929841
 20
92.4013281951527858
 30
0.0
 11
2993.8432885889969839
 21
92.4096863139125873
 31
0.0
  0
LINE
  5
744C
  8
0
 10
2993.8432885889969839
 20
92.4096863139125873
 30
0.0
 11
2993.8636753663231502
 21
92.4013629482817436
 31
0.0
  0
ARC
  5
744D
  8
0
 10
2993.8658092372788815
 20
92.4083365970731734
 30
0.0
 40
0.0059062378759409
 50
296.8858539996617765
 51
351.2877023542698112
  0
LINE
  5
744E
  8
0
 10
2993.8807094674730251
 20
92.6001639973793971
 30
0.0
 11
2993.8686818207288525
 21
92.5953360746282641
 31
0.0
  0
LINE
  5
744F
  8
0
 10
2993.8686818207288525
 20
92.5953360746282641
 30
0.0
 11
2993.8482093798288588
 21
92.6036266047782419
 31
0.0
  0
LINE
  5
7450
  8
0
 10
2993.8482093798288588
 20
92.6036266047782419
 30
0.0
 11
2993.8482093798288588
 21
92.6069439201624363
 31
0.0
  0
ARC
  5
7451
  8
0
 10
2993.8407932811451246
 20
92.6053251958815764
 30
0.0
 40
0.0076081358702233
 50
289.1424080403677976
 51
347.0994291551219249
  0
ARC
  5
7452
  8
0
 10
2993.8457821792339928
 20
92.605324496874303
 30
0.0
 40
0.0076072199260053
 50
192.8967498684710904
 51
250.8614117829056056
  0
LINE
  5
7453
  8
0
 10
2993.8383668601290992
 20
92.6036266047782419
 30
0.0
 11
2993.8383668601290992
 21
92.6086268972225355
 31
0.0
  0
LINE
  5
7454
  8
0
 10
2993.8383668601290992
 20
92.6036266047782419
 30
0.0
 11
2993.8178944191290611
 21
92.5952682649782446
 31
0.0
  0
LINE
  5
7455
  8
0
 10
2993.8178944191290611
 20
92.5952682649782446
 30
0.0
 11
2993.7974219782290675
 21
92.6036266047782419
 31
0.0
  0
LINE
  5
7456
  8
0
 10
2993.7974219782290675
 20
92.6036266047782419
 30
0.0
 11
2993.7974219782290675
 21
92.6138238886297529
 31
0.0
  0
LINE
  5
7457
  8
0
 10
2993.7875794585279436
 20
92.6146450928488179
 30
0.0
 11
2993.7875794585279436
 21
92.6036266047782419
 31
0.0
  0
LINE
  5
7458
  8
0
 10
2993.7875794585279436
 20
92.6036266047782419
 30
0.0
 11
2993.76710701762795
 21
92.5952682649782446
 31
0.0
  0
LINE
  5
7459
  8
0
 10
2993.76710701762795
 20
92.5952682649782446
 30
0.0
 11
2993.7466345766288214
 21
92.6036266047782419
 31
0.0
  0
LINE
  5
745A
  8
0
 10
2993.7466345766288214
 20
92.6036266047782419
 30
0.0
 11
2993.7466345766288214
 21
92.6163034384140644
 31
0.0
  0
ARC
  5
745B
  8
0
 10
2993.7900058794398319
 20
92.6053251959307318
 30
0.0
 40
0.0076081359838892
 50
289.1424093779199893
 51
347.099428970688507
  0
ARC
  5
745C
  8
0
 10
2993.7949947775318833
 20
92.6053244968281035
 30
0.0
 40
0.0076072198160569
 50
192.8967497010669092
 51
250.8614131076828926
  0
ARC
  5
745D
  8
0
 10
2993.7694086370338482
 20
92.5923735803279442
 30
0.0
 40
0.005146717730127
 50
243.4357296642409949
 51
300.5967396906924023
  0
LINE
  5
745E
  8
0
 10
2993.76710701762795
 20
92.5877701846782344
 30
0.0
 11
2993.741713316779169
 21
92.5981377407986628
 31
0.0
  0
ARC
  5
745F
  8
0
 10
2993.7394225702551012
 20
92.6051422087880951
 30
0.0
 40
0.0073695380758826
 50
288.1098544167282967
 51
348.131983141385092
  0
ARC
  5
7460
  8
0
 10
2993.764612178877087
 20
92.5742225273185539
 30
0.0
 40
0.0076081357058089
 50
289.1424082181201811
 51
347.0994301304770033
  0
LINE
  5
7461
  8
0
 10
2993.76710701762795
 20
92.5670350723782462
 30
0.0
 11
2993.741713316779169
 21
92.5566675161578161
 31
0.0
  0
ARC
  5
7462
  8
0
 10
2993.7440141013389621
 20
92.5612669577164553
 30
0.0
 40
0.0051428077630313
 50
243.4243490180926131
 51
300.6192920142578942
  0
ARC
  5
7463
  8
0
 10
2993.7694161854678896
 20
92.5300814196364172
 30
0.0
 40
0.005067811984054
 50
243.022353925295306
 51
301.0189216413493227
  0
ARC
  5
7464
  8
0
 10
2993.7648204626298138
 20
92.5301446829382996
 30
0.0
 40
0.0051232712981666
 50
239.3242649779710121
 51
296.6344619597904853
  0
LINE
  5
7465
  8
0
 10
2993.741713316779169
 20
92.5019519391935461
 30
0.0
 11
2993.7622066786288997
 21
92.5103188205067539
 31
0.0
  0
LINE
  5
7466
  8
0
 10
2993.7622066786288997
 20
92.5103188205067539
 30
0.0
 11
2993.7622066786288997
 21
92.5257383191320741
 31
0.0
  0
LINE
  5
7467
  8
0
 10
2993.741713316779169
 20
92.5341052003198143
 30
0.0
 11
2993.7622066786288997
 21
92.5257383191320741
 31
0.0
  0
ARC
  5
7468
  8
0
 10
2993.7694081188819837
 20
92.4679595198462323
 30
0.0
 40
0.0051456678521577
 50
243.4358960020855989
 51
300.6096434271236149
  0
LINE
  5
7469
  8
0
 10
2993.7621857028161685
 20
92.4635297455267278
 30
0.0
 11
2993.741713316779169
 21
92.4718848966482057
 31
0.0
  0
ARC
  5
746A
  8
0
 10
2993.7648047959260111
 20
92.467958994777149
 30
0.0
 40
0.0051456678521577
 50
239.4034272364702929
 51
296.5771746615160964
  0
LINE
  5
746B
  8
0
 10
2993.7621857577291848
 20
92.4481132625782465
 30
0.0
 11
2993.7621857028161685
 21
92.4635297455267278
 31
0.0
  0
LINE
  5
746C
  8
0
 10
2994.0003848962251141
 20
92.5414217100352516
 30
0.0
 11
2994.0003848962251141
 21
92.5559222894142266
 31
0.0
  0
ARC
  5
746D
  8
0
 10
2993.9977954242472151
 20
92.5610998523188471
 30
0.0
 40
0.0049841158623272
 50
242.7733470346059903
 51
289.5719533402158845
  0
LINE
  5
746E
  8
0
 10
2994.0102454457341992
 20
92.5374815900062515
 30
0.0
 11
2994.0003848962251141
 21
92.5414217095840854
 31
0.0
  0
LINE
  5
746F
  8
0
 10
2993.7621857028161685
 20
92.4481162782297758
 30
0.0
 11
2993.741713316779169
 21
92.439761127108298
 31
0.0
  0
ARC
  5
7470
  8
0
 10
2993.744004241410039
 20
92.4367879430060668
 30
0.0
 40
0.0050897611936194
 50
243.2496085440778018
 51
301.1171438462055789
  0
ARC
  5
7471
  8
0
 10
2993.7396630232487951
 20
92.4183110525831779
 30
0.0
 40
0.007091727602766
 50
286.8047169214767109
 51
349.4371214271495205
  0
LINE
  5
7472
  8
0
 10
2993.8228156790278263
 20
92.3931725526782657
 30
0.0
 11
2993.8228156790278263
 21
92.4013282246836667
 31
0.0
  0
ARC
  5
7473
  8
0
 10
2993.8192562556150733
 20
92.3933440050720236
 30
0.0
 40
0.0035635503309306
 50
317.9487563451290839
 51
357.2422748200207252
  0
LINE
  5
7474
  8
0
 10
2993.8129731593289762
 20
92.3911855598782381
 30
0.0
 11
2993.8129731593289762
 21
92.4013282428356035
 31
0.0
  0
ARC
  5
7475
  8
0
 10
2993.8156414778550243
 20
92.3912890343738837
 30
0.0
 40
0.0026703240860892
 50
182.2207553803671942
 51
276.9340732069566116
  0
ARC
  5
7476
  8
0
 10
2993.8171984922300908
 20
92.3949203602958562
 30
0.0
 40
0.0061508791795614
 50
297.4782330830822161
 51
319.8844503149711045
  0
LINE
  5
7477
  8
0
 10
2993.7720282774289444
 20
92.3857808216782388
 30
0.0
 11
2993.7720282774289444
 21
92.4013282206160369
 31
0.0
  0
LINE
  5
7478
  8
0
 10
2993.7621857577291848
 20
92.3851412597782513
 30
0.0
 11
2993.7621857577291848
 21
92.4013282428506244
 31
0.0
  0
ARC
  5
7479
  8
0
 10
2993.7678101812061868
 20
92.3861101064609613
 30
0.0
 40
0.0042309294732415
 50
300.4313512594166014
 51
355.5362699818647911
  0
ARC
  5
747A
  8
0
 10
2993.7657349242481359
 20
92.3853764156860962
 30
0.0
 40
0.0035569483102443
 50
183.7906863080384881
 51
247.2009617715563934
  0
ARC
  5
747B
  8
0
 10
2993.7402714896729776
 20
92.5425118011055048
 30
0.0
 40
0.006454718842883
 50
282.9073797191945232
 51
350.2771302418000232
  0
LINE
  5
747D
  8
0
 10
2994.7096738254040247
 20
87.121398537678246
 30
0.0
 11
2995.042581674028952
 21
87.121398537678246
 31
0.0
  0
LINE
  5
747E
  8
0
 10
2994.7062095046308059
 20
86.9048631045782543
 30
0.0
 11
2995.042581674028952
 21
86.9048631045782543
 31
0.0
  0
ARC
  5
747F
  8
0
 10
2994.7265236894049849
 20
86.797358292266793
 30
0.0
 40
0.3244780401863453
 50
92.9766591285067818
 51
121.157246363976796
  0
ARC
  5
7480
  8
0
 10
2994.7584308047757986
 20
86.7388377305784672
 30
0.0
 40
0.1740445029312982
 50
107.4603464148728023
 51
149.4550359264511883
  0
ARC
  5
7481
  8
0
 10
2994.8965732545962055
 20
86.6445746679585653
 30
0.0
 40
0.3410995000654807
 50
147.6109946905642971
 51
172.1841869779306933
  0
ARC
  5
7482
  8
0
 10
2995.0265281452939234
 20
87.0237613807985895
 30
0.0
 40
0.0989481186703399
 50
6.1977726949052681
 51
80.6629530594018718
  0
ARC
  5
7483
  8
0
 10
2995.032894805909109
 20
86.9976593338231226
 30
0.0
 40
0.0933004586058074
 50
275.959441909809982
 51
350.4340842219543788
  0
LINE
  5
7484
  8
0
 10
2995.1248979281981519
 20
87.0344438898633967
 30
0.0
 11
2995.1248979281981519
 21
86.9821544615185331
 31
0.0
  0
ARC
  5
7485
  8
0
 10
2993.6224489862538576
 20
92.5930497300173556
 30
0.0
 40
0.2090108104880524
 50
200.1210401708675022
 51
225.3841147981486017
  0
ARC
  5
7486
  8
0
 10
2993.4642282259192143
 20
92.4459233106761076
 30
0.0
 40
0.0115410665824029
 50
295.518446356543393
 51
351.7601852543048153
  0
ARC
  5
7487
  8
0
 10
2993.6100800124418129
 20
92.5919199199632175
 30
0.0
 40
0.2392013905746765
 50
204.4841950660783141
 51
225.2867032882830074
  0
LINE
  5
7488
  8
0
 10
2993.4417875681779151
 20
92.4219347486782254
 30
0.0
 11
2993.4692001365779106
 21
92.4355081139780737
 31
0.0
  0
LINE
  5
7489
  8
0
 10
2993.4417875681779151
 20
92.4219347486782254
 30
0.0
 11
2993.4417875681779151
 21
92.3968812854782442
 31
0.0
  0
LINE
  5
748A
  8
0
 10
2993.4756501526780994
 20
92.4442692831781159
 30
0.0
 11
2993.4756501526780994
 21
92.4136483836782503
 31
0.0
  0
LINE
  5
748B
  8
0
 10
2993.4439430001039
 20
92.3951648318846566
 30
0.0
 11
2993.4724251446791641
 21
92.4092677990782505
 31
0.0
  0
ARC
  5
748C
  8
0
 10
2993.4436783812930116
 20
92.3970441032150802
 30
0.0
 40
0.0018978102772914
 50
184.9215936651320931
 51
278.0150813613399237
  0
ARC
  5
748D
  8
0
 10
2993.4698615101010546
 20
92.4145325852076951
 30
0.0
 40
0.0058557830592327
 50
295.9633000075413065
 51
351.3153324514896099
  0
LINE
  5
748E
  8
0
 10
2993.5554138836778293
 20
92.3572435289782447
 30
0.0
 11
2993.5554138836778293
 21
92.3878644284634163
 31
0.0
  0
ARC
  5
748F
  8
0
 10
2993.7334447716038994
 20
92.7548948804197835
 30
0.0
 40
0.4079293440140045
 50
244.1239458724244002
 51
263.2236956034863056
  0
ARC
  5
7490
  8
0
 10
2993.6304637560479023
 20
92.3509921643709646
 30
0.0
 40
0.0548607128111372
 50
347.1219267833284903
 51
358.770670154895015
  0
LINE
  5
7491
  8
0
 10
2993.6839445331788738
 20
92.3387649697782535
 30
0.0
 11
2993.6781334720790255
 21
92.3154600456782504
 31
0.0
  0
LINE
  5
7492
  8
0
 10
2993.6781334720790255
 20
92.3154600456782504
 30
0.0
 11
2993.6783298739901511
 21
92.2892406081107453
 31
0.0
  0
LINE
  5
7493
  8
0
 10
2993.6783298739901511
 20
92.2892406081107453
 30
0.0
 11
2993.6846281071998419
 21
92.3136688979924003
 31
0.0
  0
LINE
  5
7494
  8
0
 10
2993.6853118416788675
 20
92.349815171270393
 30
0.0
 11
2993.6853118416788675
 21
92.319195018078247
 31
0.0
  0
ARC
  5
7495
  8
0
 10
2993.6576419104671913
 20
92.3198131982725982
 30
0.0
 40
0.0276768358022138
 50
347.1733794474179717
 51
358.7201549331828119
  0
ARC
  5
7496
  8
0
 10
2993.546969419459856
 20
92.3579733336973305
 30
0.0
 40
0.0084759418871633
 50
316.8750371138423816
 51
355.0605406187273161
  0
LINE
  5
7497
  8
0
 10
2993.5531557086778776
 20
92.3521792490782474
 30
0.0
 11
2993.533961221710797
 21
92.3327944746342411
 31
0.0
  0
ARC
  5
7498
  8
0
 10
2993.6772529915078849
 20
92.6320680422824125
 30
0.0
 40
0.3332372431303504
 50
225.2129660831284923
 51
244.1993235226485979
  0
ARC
  5
7499
  8
0
 10
2993.5325791300761011
 20
92.3329952105177654
 30
0.0
 40
0.0010131888910091
 50
248.8910451968376094
 51
305.9919369312552817
  0
ARC
  5
749A
  8
0
 10
2993.5312254792229396
 20
92.3354616886052639
 30
0.0
 40
0.0038207744571876
 50
300.6721634985099172
 51
315.726672379428976
  0
ARC
  5
749B
  8
0
 10
2993.7417287355019653
 20
92.7997432873998491
 30
0.0
 40
0.5144243396286907
 50
262.9207353171361774
 51
269.9982826811312862
  0
ARC
  5
749C
  8
0
 10
2993.6854546552140164
 20
92.625738455678615
 30
0.0
 40
0.2983288922071434
 50
225.310390820197
 51
244.1575930226748028
  0
ARC
  5
749D
  8
0
 10
2993.7417095009031982
 20
92.7729922527346957
 30
0.0
 40
0.457288340271024
 50
262.9156380088427909
 51
270.000478102507202
  0
ARC
  5
749E
  8
0
 10
2993.734457589413978
 20
92.7814880976915219
 30
0.0
 40
0.4694193769508189
 50
246.9391752025638027
 51
263.1086606508512205
  0
ARC
  5
749F
  8
0
 10
2993.8609776472030717
 20
92.5930497300173556
 30
0.0
 40
0.2090108104880524
 50
314.6158852018514267
 51
339.8789598457872216
  0
ARC
  5
74A0
  8
0
 10
2994.0191984075381697
 20
92.4459233106761076
 30
0.0
 40
0.0115410665824029
 50
188.2398147456950994
 51
244.4815536434562091
  0
ARC
  5
74A1
  8
0
 10
2993.8733466210160259
 20
92.5919199199632033
 30
0.0
 40
0.239201390574643
 50
314.7132967117165094
 51
335.5158049516703045
  0
LINE
  5
74A2
  8
0
 10
2994.0416390652790142
 20
92.4219347486782254
 30
0.0
 11
2994.0142264968790187
 21
92.4355081139780737
 31
0.0
  0
LINE
  5
74A3
  8
0
 10
2994.0416390652790142
 20
92.4219347486782254
 30
0.0
 11
2994.0416390652790142
 21
92.3968812854782442
 31
0.0
  0
LINE
  5
74A4
  8
0
 10
2994.0077764807788299
 20
92.4442692831781159
 30
0.0
 11
2994.0077764807788299
 21
92.4136483836782503
 31
0.0
  0
LINE
  5
74A5
  8
0
 10
2994.0394836333530293
 20
92.3951648318846566
 30
0.0
 11
2994.0110014887791294
 21
92.4092677990782505
 31
0.0
  0
ARC
  5
74A6
  8
0
 10
2994.0397482521648271
 20
92.3970441032150802
 30
0.0
 40
0.0018978102772914
 50
261.98491863866019
 51
355.0784063348677932
  0
ARC
  5
74A7
  8
0
 10
2994.0135651233567842
 20
92.4145325852076951
 30
0.0
 40
0.0058557830592327
 50
188.6846675485103049
 51
244.0366999924586082
  0
LINE
  5
74A8
  8
0
 10
2993.9280127497791
 20
92.3572435289782447
 30
0.0
 11
2993.9280127497791
 21
92.3878644284634163
 31
0.0
  0
ARC
  5
74A9
  8
0
 10
2993.7499818618530298
 20
92.7548948804197835
 30
0.0
 40
0.4079293440140045
 50
276.7763043965136944
 51
295.8760541275756282
  0
LINE
  5
74AA
  8
0
 10
2993.7994821002789649
 20
92.3387649697782535
 30
0.0
 11
2993.8052931613779037
 21
92.3154600456782504
 31
0.0
  0
LINE
  5
74AB
  8
0
 10
2993.8052931613779037
 20
92.3154600456782504
 30
0.0
 11
2993.8050967594681424
 21
92.2892406081107453
 31
0.0
  0
LINE
  5
74AC
  8
0
 10
2993.8050967594681424
 20
92.2892406081107453
 30
0.0
 11
2993.7987985262579969
 21
92.3136688979924003
 31
0.0
  0
LINE
  5
74AD
  8
0
 10
2993.7981147917789713
 20
92.349815171270393
 30
0.0
 11
2993.7981147917789713
 21
92.319195018078247
 31
0.0
  0
ARC
  5
74AE
  8
0
 10
2993.8257847229901927
 20
92.3198131982725982
 30
0.0
 40
0.0276768358022138
 50
181.2798450668171029
 51
192.8266205525819998
  0
ARC
  5
74AF
  8
0
 10
2993.9364572139979828
 20
92.3579733336973305
 30
0.0
 40
0.0084759418871633
 50
184.9394593812727123
 51
223.12496288615759
  0
LINE
  5
74B0
  8
0
 10
2993.9302709247790517
 20
92.3521792490782474
 30
0.0
 11
2993.9494654117461323
 21
92.3327944746342411
 31
0.0
  0
ARC
  5
74B1
  8
0
 10
2993.8061736419490444
 20
92.6320680422824125
 30
0.0
 40
0.3332372431303504
 50
295.8006764773513737
 51
314.7870339168715077
  0
ARC
  5
74B2
  8
0
 10
2993.9508475033808281
 20
92.3329952105177654
 30
0.0
 40
0.0010131888910091
 50
234.0080630687446899
 51
291.108954803162419
  0
ARC
  5
74B3
  8
0
 10
2993.9522011542348991
 20
92.3354616886052639
 30
0.0
 40
0.0038207744571876
 50
224.2733276205709103
 51
239.3278365014899975
  0
ARC
  5
74B4
  8
0
 10
2993.7416978979558735
 20
92.7997432873998491
 30
0.0
 40
0.5144243396286907
 50
270.0017173188687138
 51
277.0792646828638226
  0
ARC
  5
74B5
  8
0
 10
2993.7979719782420034
 20
92.625738455678615
 30
0.0
 40
0.2983288922071434
 50
295.8424069773251972
 51
314.6896091798030284
  0
ARC
  5
74B6
  8
0
 10
2993.7417171325541858
 20
92.7729922527346957
 30
0.0
 40
0.457288340271024
 50
269.999521897492798
 51
277.0843619911572091
  0
ARC
  5
74B7
  8
0
 10
2993.7489690440429513
 20
92.7814880976915219
 30
0.0
 40
0.4694193769508189
 50
276.8913393491487227
 51
293.0608247974362257
  0
LINE
  5
7620
  8
0
 10
2992.8043762561278527
 20
84.6030677514782639
 30
0.0
 11
2994.6790503774282115
 21
84.6030677514782639
 31
0.0
  0
ENDSEC
  0
EOF
