  0
SECTION
  2
HEADER
  9
$ACADVER
  1
AC1009
  9
$INSBASE
 10
2974.7125370171120267
 20
85.7210817830660545
 30
0.0
  9
$EXTMIN
 10
2973.7676551273621044
 20
85.71636141107264
 30
0.0
  9
$EXTMAX
 10
2978.9972629106309796
 20
92.7250188224660405
 30
0.0
  9
$LIMMIN
 10
0.0
 20
0.0
  9
$LIMMAX
 10
11.6929133858000007
 20
8.2677165353999982
  9
$ORTHOMODE
 70
     0
  9
$REGENMODE
 70
     1
  9
$FILLMODE
 70
     1
  9
$QTEXTMODE
 70
     0
  9
$MIRRTEXT
 70
     0
  9
$DRAGMODE
 70
     2
  9
$LTSCALE
 40
0.6431102362
  9
$OSMODE
 70
  4095
  9
$ATTMODE
 70
     1
  9
$TEXTSIZE
 40
0.2
  9
$TRACEWID
 40
0.05
  9
$TEXTSTYLE
  7
STANDARD
  9
$CLAYER
  8
0
  9
$CELTYPE
  6
BYLAYER
  9
$CECOLOR
 62
   256
  9
$DIMSCALE
 40
1.0
  9
$DIMASZ
 40
0.1875
  9
$DIMEXO
 40
0.0625
  9
$DIMDLI
 40
0.4443307087
  9
$DIMRND
 40
0.0
  9
$DIMDLE
 40
0.0
  9
$DIMEXE
 40
0.125
  9
$DIMTP
 40
0.01
  9
$DIMTM
 40
0.01
  9
$DIMTXT
 40
2.0
  9
$DIMCEN
 40
0.1052362205
  9
$DIMTSZ
 40
0.0
  9
$DIMTOL
 70
     1
  9
$DIMLIM
 70
     0
  9
$DIMTIH
 70
     1
  9
$DIMTOH
 70
     1
  9
$DIMSE1
 70
     0
  9
$DIMSE2
 70
     0
  9
$DIMTAD
 70
     0
  9
$DIMZIN
 70
     0
  9
$DIMBLK
  1

  9
$DIMASO
 70
     1
  9
$DIMSHO
 70
     1
  9
$DIMPOST
  1
\X
  9
$DIMAPOST
  1

  9
$DIMALT
 70
     1
  9
$DIMALTD
 70
     2
  9
$DIMALTF
 40
25.3999999999999986
  9
$DIMLFAC
 40
1.0
  9
$DIMTOFL
 70
     0
  9
$DIMTVP
 40
0.0
  9
$DIMTIX
 70
     0
  9
$DIMSOXD
 70
     0
  9
$DIMSAH
 70
     0
  9
$DIMBLK1
  1

  9
$DIMBLK2
  1

  9
$DIMSTYLE
  2
STANDARD
  9
$DIMCLRD
 70
     0
  9
$DIMCLRE
 70
     0
  9
$DIMCLRT
 70
     0
  9
$DIMTFAC
 40
1.0
  9
$DIMGAP
 40
0.09
  9
$LUNITS
 70
     2
  9
$LUPREC
 70
     4
  9
$SKETCHINC
 40
0.1
  9
$FILLETRAD
 40
0.0
  9
$AUNITS
 70
     0
  9
$AUPREC
 70
     0
  9
$MENU
  1
.
  9
$ELEVATION
 40
0.0
  9
$PELEVATION
 40
0.0
  9
$THICKNESS
 40
0.0
  9
$LIMCHECK
 70
     0
  9
$BLIPMODE
 70
     0
  9
$CHAMFERA
 40
0.0
  9
$CHAMFERB
 40
0.0
  9
$SKPOLY
 70
     0
  9
$TDCREATE
 40
2458060.468368056230247
  9
$TDUPDATE
 40
2459948.7633333331905305
  9
$TDINDWG
 40
0.2971019676
  9
$TDUSRTIMER
 40
0.2971019676
  9
$USRTIMER
 70
     1
  9
$ANGBASE
 50
0.0
  9
$ANGDIR
 70
     0
  9
$PDMODE
 70
     0
  9
$PDSIZE
 40
0.3125
  9
$PLINEWID
 40
0.0
  9
$COORDS
 70
     1
  9
$SPLFRAME
 70
     0
  9
$SPLINETYPE
 70
     6
  9
$SPLINESEGS
 70
     8
  9
$ATTDIA
 70
     1
  9
$ATTREQ
 70
     1
  9
$HANDLING
 70
     1
  9
$HANDSEED
  5
7754
  9
$SURFTAB1
 70
     6
  9
$SURFTAB2
 70
     6
  9
$SURFTYPE
 70
     6
  9
$SURFU
 70
     6
  9
$SURFV
 70
     6
  9
$UCSNAME
  2

  9
$UCSORG
 10
0.0
 20
0.0
 30
0.0
  9
$UCSXDIR
 10
1.0
 20
0.0
 30
0.0
  9
$UCSYDIR
 10
0.0
 20
1.0
 30
0.0
  9
$PUCSNAME
  2

  9
$PUCSORG
 10
0.0
 20
0.0
 30
0.0
  9
$PUCSXDIR
 10
1.0
 20
0.0
 30
0.0
  9
$PUCSYDIR
 10
0.0
 20
1.0
 30
0.0
  9
$USERI1
 70
     0
  9
$USERI2
 70
     0
  9
$USERI3
 70
     0
  9
$USERI4
 70
     0
  9
$USERI5
 70
     0
  9
$USERR1
 40
0.0
  9
$USERR2
 40
0.0
  9
$USERR3
 40
0.0
  9
$USERR4
 40
0.0
  9
$USERR5
 40
0.0
  9
$WORLDVIEW
 70
     1
  9
$SHADEDGE
 70
     3
  9
$SHADEDIF
 70
    70
  9
$TILEMODE
 70
     1
  9
$MAXACTVP
 70
    64
  9
$PLIMCHECK
 70
     0
  9
$PEXTMIN
 10
1.0000000000000000E+20
 20
1.0000000000000000E+20
 30
1.0000000000000000E+20
  9
$PEXTMAX
 10
-1.0000000000000000E+20
 20
-1.0000000000000000E+20
 30
-1.0000000000000000E+20
  9
$PLIMMIN
 10
0.0
 20
0.0
  9
$PLIMMAX
 10
12.0
 20
9.0
  9
$UNITMODE
 70
     0
  9
$VISRETAIN
 70
     1
  9
$PLINEGEN
 70
     0
  9
$PSLTSCALE
 70
     1
  0
ENDSEC
  0
SECTION
  2
TABLES
  0
TABLE
  2
VPORT
 70
     1
  0
VPORT
  2
*ACTIVE
 70
     0
 10
0.0
 20
0.0
 11
1.0
 21
1.0
 12
57.3952357539575431
 22
1.292826127115503
 13
0.0
 23
0.0
 14
1.0
 24
1.0
 15
0.0
 25
0.0
 16
0.0
 26
0.0
 36
215.6888699471975031
 17
2919.75537109375
 27
87.2746505737304688
 37
0.0
 40
11.1543785787773704
 41
2.8524096385542159
 42
50.0
 43
0.0
 44
0.0
 50
0.0
 51
0.0
 71
     0
 72
   100
 73
     1
 74
     1
 75
     0
 76
     0
 77
     0
 78
     0
  0
ENDTAB
  0
TABLE
  2
LTYPE
 70
     3
  0
LTYPE
  2
CONTINUOUS
 70
     0
  3
Solid line
 72
    65
 73
     0
 40
0.0
  0
LTYPE
  2
PHANTOM2
 70
     0
  3
___ _ _ ___ _ _ ___ _ _ ___ _ _
 72
    65
 73
     6
 40
1.25
 49
0.625
 49
-0.125
 49
0.125
 49
-0.125
 49
0.125
 49
-0.125
  0
ENDTAB
  0
TABLE
  2
LAYER
 70
     2
  0
LAYER
  2
0
 70
     0
 62
   255
  6
CONTINUOUS
  0
LAYER
  2
DEFPOINTS
 70
     0
 62
     7
  6
CONTINUOUS
  0
ENDTAB
  0
TABLE
  2
STYLE
 70
     1
  0
STYLE
  2
STANDARD
 70
     0
 40
0.0
 41
0.8
 50
0.0
 71
     0
 42
0.2
  3
txt
  4

  0
ENDTAB
  0
TABLE
  2
VIEW
 70
     0
  0
ENDTAB
  0
TABLE
  2
UCS
 70
     0
  0
ENDTAB
  0
TABLE
  2
APPID
 70
     9
  0
APPID
  2
ACAD
 70
     0
  0
APPID
  2
ACAD_MLEADERVER
 70
     0
  0
APPID
  2
ACAD_EXEMPT_FROM_CAD_STANDARDS
 70
     0
  0
APPID
  2
ACAD_NAV_VCDISPLAY
 70
     0
  0
APPID
  2
ACAECLAYERSTANDARD
 70
     0
  0
APPID
  2
ACCMTRANSPARENCY
 70
     0
  0
APPID
  2
ACAD_DSTYLE_DIMJAG
 70
     0
  0
APPID
  2
ACAD_DSTYLE_DIMTALN
 70
     0
  0
APPID
  2
ACDBATTR
 70
     0
  0
ENDTAB
  0
TABLE
  2
DIMSTYLE
 70
     2
  0
DIMSTYLE
  2
STANDARD
 70
     0
  3

  4

  5

  6

  7

 40
1.0
 41
0.1875
 42
0.0625
 43
0.38
 44
0.125
 45
0.0
 46
0.0
 47
0.01
 48
0.01
140
0.15625
141
0.09
142
0.0
143
25.3999999999999986
144
1.0
145
0.0
146
1.0
147
0.09
 71
     1
 72
     0
 73
     1
 74
     1
 75
     0
 76
     0
 77
     0
 78
     4
170
     0
171
     2
172
     0
173
     0
174
     0
175
     0
176
     0
177
     0
178
     0
  0
ENDTAB
  0
ENDSEC
  0
SECTION
  2
BLOCKS
  0
BLOCK
  8
0
  2
$MODEL_SPACE
 70
     0
 10
0.0
 20
0.0
 30
0.0
  3
$MODEL_SPACE
  1

  0
ENDBLK
  5
21
  8
0
  0
BLOCK
 67
     1
  8
0
  2
$PAPER_SPACE
 70
     0
 10
0.0
 20
0.0
 30
0.0
  3
$PAPER_SPACE
  1

  0
ENDBLK
  5
1D
 67
     1
  8
0
  0
BLOCK
  8
0
  2
_FILLED
 70
     0
 10
0.0
 20
0.0
 30
0.0
  3
_FILLED
  1

  0
SOLID
  5
5A61
  8
0
  6
BYBLOCK
 62
     0
 10
0.0
 20
0.0
 30
0.0
 11
-1.0
 21
0.1666666667
 31
0.0
 12
-1.0
 22
-0.1666666667
 32
0.0
 13
-1.0
 23
-0.1666666667
 33
0.0
  0
ENDBLK
  5
5A62
  8
0
  6
BYBLOCK
 62
     0
  0
ENDSEC
  0
SECTION
  2
ENTITIES
  0
ATTDEF
  5
3930
  8
DEFPOINTS
 10
2974.7126136930610301
 20
85.7196947444059845
 30
0.0
 40
0.001
  1
K-77958T-4AE2
  3

  2
MODELNUMBER
 70
     0
1001
ACDBATTR
1070
     0
1070
     1
  0
ATTDEF
  5
3931
  8
DEFPOINTS
 10
2974.7126136930610301
 20
85.7180280777393193
 30
0.0
 40
0.001
  1
COMPONENTS
  3

  2
TRADENAME
 70
     0
1001
ACDBATTR
1070
     0
1070
     1
  0
ATTDEF
  5
3932
  8
DEFPOINTS
 10
2974.7126136930610301
 20
85.7163614110726684
 30
0.0
 40
0.001
  1
BATHROOM SINK FAUCET
  3

  2
PRODUCT
 70
     0
1001
ACDBATTR
1070
     0
1070
     1
  0
LINE
  5
70B2
  8
0
 10
2973.8956078832620733
 20
92.4198581924660658
 30
0.0
 11
2973.8956078832620733
 21
92.7053188224660403
 31
0.0
  0
LINE
  5
70B3
  8
0
 10
2973.8956078832620733
 20
92.3128149123660364
 30
0.0
 11
2973.8956078832620733
 21
85.9258211531660407
 31
0.0
  0
LINE
  5
70B4
  8
0
 10
2973.915307883261903
 20
92.7250188224660405
 30
0.0
 11
2975.5097661509621503
 21
92.7250188224660405
 31
0.0
  0
LINE
  5
70B5
  8
0
 10
2973.905407883261887
 20
92.4100581924660389
 30
0.0
 11
2975.5196661509621663
 21
92.4100581924660389
 31
0.0
  0
LINE
  5
70B6
  8
0
 10
2973.9199984272859183
 20
92.3582139151660471
 30
0.0
 11
2975.505075606938135
 21
92.3582139151660471
 31
0.0
  0
LINE
  5
70B7
  8
0
 10
2973.915307883261903
 20
92.3325149123660367
 30
0.0
 11
2975.5097811116620505
 21
92.3325149123660367
 31
0.0
  0
ARC
  5
70B8
  8
0
 10
2973.915307883261903
 20
92.7053188224660403
 30
0.0
 40
0.0197
 50
90.0
 51
180.0000000000048885
  0
ARC
  5
70B9
  8
0
 10
2973.905407883261887
 20
92.4198581924660658
 30
0.0
 40
0.0098
 50
180.0000000000104876
 51
270.0
  0
LINE
  5
70BA
  8
0
 10
2973.9152929225620028
 20
92.3509885985686765
 30
0.0
 11
2973.9152929225620028
 21
92.3325149066852759
 31
0.0
  0
ARC
  5
70BB
  8
0
 10
2974.7125370170620045
 20
90.5563009660672833
 30
0.0
 40
1.968503936998659
 50
109.6594858939647992
 51
113.7409759868838961
  0
ARC
  5
70BC
  8
0
 10
2973.9231929225620661
 20
92.3509885985686765
 30
0.0
 40
0.0079
 50
113.740975986912602
 51
180.0000000000129887
  0
ARC
  5
70BD
  8
0
 10
2973.915307883261903
 20
92.3128149123660364
 30
0.0
 40
0.0197
 50
90.0
 51
180.0000000000048885
  0
LINE
  5
70BE
  8
0
 10
2973.8880952414619969
 20
85.9061211531660405
 30
0.0
 11
2975.5369787927620564
 21
85.9061211531660405
 31
0.0
  0
ARC
  5
70BF
  8
0
 10
2973.915307883261903
 20
85.9258211531660407
 30
0.0
 40
0.0197
 50
180.0000000000007958
 51
270.0
  0
LINE
  5
70C0
  8
0
 10
2973.8834998602619635
 20
85.9055772539660438
 30
0.0
 11
2973.7751673627890341
 21
85.8795689223174463
 31
0.0
  0
LINE
  5
70C1
  8
0
 10
2973.8834998602619635
 20
85.9055772539660438
 30
0.0
 11
2973.8880952414619969
 21
85.9061211531660405
 31
0.0
  0
LINE
  5
70C2
  8
0
 10
2973.7676551273621044
 20
85.870039697099287
 30
0.0
 11
2973.7676551273621044
 21
85.7210817830660545
 31
0.0
  0
ARC
  5
70C3
  8
0
 10
2973.7774551273619181
 20
85.870039697099287
 30
0.0
 40
0.0098
 50
103.5000000436245955
 51
180.0
  0
LINE
  5
70C4
  8
0
 10
2973.7676551273621044
 20
85.7210817830660545
 30
0.0
 11
2975.6574189068619489
 21
85.7210817830660545
 31
0.0
  0
LINE
  5
70C5
  8
0
 10
2975.52946615096198
 20
92.4198581924660658
 30
0.0
 11
2975.52946615096198
 21
92.7053188224660403
 31
0.0
  0
LINE
  5
70C6
  8
0
 10
2975.52946615096198
 20
92.3128149123660364
 30
0.0
 11
2975.52946615096198
 21
85.9258211531660407
 31
0.0
  0
ARC
  5
70C7
  8
0
 10
2975.5097661509621503
 20
92.7053188224660403
 30
0.0
 40
0.0197
 50
359.9999999999951115
 51
90.0
  0
ARC
  5
70C8
  8
0
 10
2975.5196661509621663
 20
92.4198581924660658
 30
0.0
 40
0.0098
 50
270.0
 51
359.9999999999894271
  0
LINE
  5
70C9
  8
0
 10
2975.5097811116620505
 20
92.3509885985686765
 30
0.0
 11
2975.5097811116620505
 21
92.3325149066852759
 31
0.0
  0
ARC
  5
70CA
  8
0
 10
2974.7125370171629584
 20
90.5563009660672833
 30
0.0
 40
1.968503936998659
 50
66.2590240131161181
 51
70.3405141060351724
  0
ARC
  5
70CB
  8
0
 10
2975.5018811116619872
 20
92.3509885985686765
 30
0.0
 40
0.0079
 50
359.9999999999869829
 51
66.2590240130873411
  0
ARC
  5
70CC
  8
0
 10
2975.5097661509621503
 20
92.3128149123660364
 30
0.0
 40
0.0197
 50
359.9999999999951115
 51
90.0
  0
ARC
  5
70CD
  8
0
 10
2975.5097661509621503
 20
85.9258211531660407
 30
0.0
 40
0.0197
 50
270.0
 51
359.9999999999984084
  0
LINE
  5
70CE
  8
0
 10
2975.5415741739620898
 20
85.9055772539660438
 30
0.0
 11
2975.6499066714350192
 21
85.8795689223174463
 31
0.0
  0
LINE
  5
70CF
  8
0
 10
2975.5415741739620898
 20
85.9055772539660438
 30
0.0
 11
2975.5369787927620564
 21
85.9061211531660405
 31
0.0
  0
LINE
  5
70D0
  8
0
 10
2975.6574189068619489
 20
85.870039697099287
 30
0.0
 11
2975.6574189068619489
 21
85.7210817830660545
 31
0.0
  0
ARC
  5
70D1
  8
0
 10
2975.6476189068621352
 20
85.870039697099287
 30
0.0
 40
0.0098
 50
0.0
 51
76.4999999563754187
  0
LINE
  5
70D2
  8
0
 10
2974.7154476996288395
 20
89.0269046402447657
 30
0.0
 11
2974.7096263345952138
 21
89.0269046402447657
 31
0.0
  0
LINE
  5
70D3
  8
0
 10
2974.7157055365751148
 20
89.7286867475058898
 30
0.0
 11
2974.7093684976512122
 21
89.7286867475058898
 31
0.0
  0
LINE
  5
70D4
  8
0
 10
2974.7250634703959804
 20
89.7008267403766837
 30
0.0
 11
2974.7000105638280729
 21
89.7008267403766837
 31
0.0
  0
LINE
  5
70D5
  8
0
 10
2974.2204110328621027
 20
89.3806696965660166
 30
0.0
 11
2974.2204110328621027
 21
90.2454912633660484
 31
0.0
  0
CIRCLE
  5
70D6
  8
0
 10
2974.7125370170620045
 20
92.5675385074660255
 30
0.0
 40
0.0984251968999992
  0
ARC
  5
70D7
  8
0
 10
2974.7125370170620045
 20
90.2454912633660484
 30
0.0
 40
0.4921259842999986
 50
0.0
 51
180.0
  0
ARC
  5
70D8
  8
0
 10
2974.7109527573811647
 20
89.0605225441393458
 30
0.0
 40
0.6681660815540966
 50
90.1358516748796035
 51
108.8909089674271939
  0
ARC
  5
70D9
  8
0
 10
2974.6170710081969446
 20
89.2851965345328438
 30
0.0
 40
0.4255019781261177
 50
106.7247597920297011
 51
148.5044086687740901
  0
ARC
  5
70DA
  8
0
 10
2974.4804957896280939
 20
89.3791930046491245
 30
0.0
 40
0.2600889488634659
 50
150.4428171252349955
 51
179.6746933331035905
  0
ARC
  5
70DB
  8
0
 10
2974.5009437415551474
 20
89.3848388270811967
 30
0.0
 40
0.2805636867013405
 50
180.8514372532559094
 51
214.7516596258720938
  0
ARC
  5
70DC
  8
0
 10
2974.6418494735271452
 20
89.5027854843746553
 30
0.0
 40
0.4638648851086489
 50
216.8011900999634065
 51
253.7757551370129931
  0
ARC
  5
70DD
  8
0
 10
2974.711081675854075
 20
89.6904653240727754
 30
0.0
 40
0.6635622797752134
 50
252.5635602078966997
 51
269.8743373738283253
  0
ARC
  5
70DE
  8
0
 10
2974.7062737904698224
 20
89.0936013875921162
 30
0.0
 40
0.6072576529549034
 50
90.5909564312158437
 51
117.8302977288102937
  0
ARC
  5
70DF
  8
0
 10
2974.5834246925410298
 20
89.3174278987467289
 30
0.0
 40
0.3519919833069911
 50
117.1555300680085026
 51
164.2660257665037022
  0
ARC
  5
70E0
  8
0
 10
2974.4843682835121399
 20
89.366576012762394
 30
0.0
 40
0.244177018327302
 50
169.0691184752243998
 51
209.5407063741716058
  0
ARC
  5
70E1
  8
0
 10
2974.5850065024769719
 20
89.4264739432487374
 30
0.0
 40
0.3612736176522701
 50
209.9360347224017005
 51
239.52279721282639
  0
ARC
  5
70E2
  8
0
 10
2974.7062220716779848
 20
89.6357380737791658
 30
0.0
 40
0.6031062435735699
 50
239.681495320570491
 51
269.3107262068263026
  0
ARC
  5
70E3
  8
0
 10
2974.7111969805869194
 20
89.0823455055808893
 30
0.0
 40
0.5947297111625685
 50
90.1290981445938968
 51
106.5055751852638934
  0
ARC
  5
70E4
  8
0
 10
2974.6815262413169876
 20
89.182816498839685
 30
0.0
 40
0.4899692132314993
 50
106.5168721884486018
 51
123.1042624564096997
  0
ARC
  5
70E5
  8
0
 10
2974.5732451502422009
 20
89.3375469157506927
 30
0.0
 40
0.3012793980064867
 50
121.925766209544193
 51
159.8615336475670006
  0
ARC
  5
70E6
  8
0
 10
2974.4971069530411114
 20
89.3732036742400737
 30
0.0
 40
0.2176409975782441
 50
161.7739846611900987
 51
201.4574467172134007
  0
ARC
  5
70E7
  8
0
 10
2974.5854253275169867
 20
89.4162680019224467
 30
0.0
 40
0.3156870280182769
 50
202.8681295067094084
 51
241.0768643924461117
  0
ARC
  5
70E8
  8
0
 10
2974.7066872285931822
 20
89.6210676950713037
 30
0.0
 40
0.5536338956902522
 50
240.3432686789755053
 51
269.3945919267789009
  0
LINE
  5
70E9
  8
0
 10
2974.7098569440618121
 20
89.6770737070659294
 30
0.0
 11
2974.7152170901617865
 21
89.6770737070659294
 31
0.0
  0
LINE
  5
70EA
  8
0
 10
2974.6989668199857988
 20
89.0326754714232322
 30
0.0
 11
2974.7261072142377998
 21
89.0326754714232322
 31
0.0
  0
LINE
  5
70EB
  8
0
 10
2974.7008374400747925
 20
89.0674647051665573
 30
0.0
 11
2974.724236594148806
 21
89.0674647051665573
 31
0.0
  0
ARC
  5
70EC
  8
0
 10
2974.602170977554124
 20
89.6318818389551666
 30
0.0
 40
0.1617037760283428
 50
187.7034753610936093
 51
195.1699268517637904
  0
ARC
  5
70ED
  8
0
 10
2974.5663228062508097
 20
89.6219831230419004
 30
0.0
 40
0.1245145689802165
 50
195.0903473174934106
 51
212.8014437324441985
  0
ARC
  5
70EE
  8
0
 10
2974.6038143117762047
 20
89.6467596297524381
 30
0.0
 40
0.169451111334122
 50
212.9758206600764083
 51
225.9605673463616995
  0
ARC
  5
70EF
  8
0
 10
2974.6577595605140232
 20
89.6993043690678462
 30
0.0
 40
0.2447340865129666
 50
225.433213143798298
 51
241.0324677548503018
  0
ARC
  5
70F0
  8
0
 10
2974.6939725408110462
 20
89.7609818333327922
 30
0.0
 40
0.3162389856858779
 50
240.7043014160205132
 51
254.9562655020868078
  0
ARC
  5
70F1
  8
0
 10
2974.7118509287010966
 20
89.8229602506768856
 30
0.0
 40
0.380735550279578
 50
254.7788751764620088
 51
269.8967525055775809
  0
LINE
  5
70F2
  8
0
 10
2974.7111648402901665
 20
89.4422253185661305
 30
0.0
 11
2974.7139091939338869
 21
89.4422253185661305
 31
0.0
  0
ARC
  5
70F3
  8
0
 10
2974.6306258529220941
 20
89.6639286319423121
 30
0.0
 40
0.2205600190451004
 50
197.5636574797046023
 51
241.5880145214657944
  0
ARC
  5
70F4
  8
0
 10
2974.7094305367968445
 20
89.7996452211446723
 30
0.0
 40
0.3774550649140225
 50
240.8688641886411972
 51
269.5284465963903244
  0
LINE
  5
70F5
  8
0
 10
2974.7063240564821172
 20
89.4222029397170388
 30
0.0
 11
2974.7187499777428457
 21
89.4222029397170388
 31
0.0
  0
ARC
  5
70F6
  8
0
 10
2974.59669318733404
 20
89.620795991784604
 30
0.0
 40
0.3040666868839473
 50
203.7653869423384947
 51
240.056623683049196
  0
ARC
  5
70F7
  8
0
 10
2974.7062993410117997
 20
89.8053533689815993
 30
0.0
 40
0.5187062818998698
 50
239.7412461351860031
 51
269.3109759002663282
  0
ARC
  5
70F8
  8
0
 10
2974.6265456159180758
 20
89.6594688897705652
 30
0.0
 40
0.3693011168744893
 50
209.7264256474645094
 51
246.5940388071973075
  0
ARC
  5
70F9
  8
0
 10
2974.7095260919268185
 20
89.8402112868646441
 30
0.0
 40
0.5681509431779125
 50
246.1549944789379083
 51
269.6963586611685173
  0
LINE
  5
70FA
  8
0
 10
2974.7000616649120275
 20
89.2866845938666529
 30
0.0
 11
2974.7250123693120258
 21
89.2866845938666529
 31
0.0
  0
LINE
  5
70FB
  8
0
 10
2974.706515166742065
 20
89.2720683219663158
 30
0.0
 11
2974.7185588674828978
 21
89.2720683219663158
 31
0.0
  0
LINE
  5
70FC
  8
0
 10
2974.6412771745622194
 20
89.6487044308660472
 30
0.0
 11
2974.6412771745622194
 21
89.6332849322660365
 31
0.0
  0
LINE
  5
70FD
  8
0
 10
2974.6412771745622194
 20
89.6332849322660365
 30
0.0
 11
2974.6617496154622131
 21
89.6249265923660516
 31
0.0
  0
LINE
  5
70FE
  8
0
 10
2974.6617496154622131
 20
89.6249265923660516
 30
0.0
 11
2974.6822220564617965
 21
89.6332849322660365
 31
0.0
  0
LINE
  5
70FF
  8
0
 10
2974.6822220564617965
 20
89.6332849322660365
 30
0.0
 11
2974.6822220564617965
 21
89.6487044308913852
 31
0.0
  0
LINE
  5
7100
  8
0
 10
2974.6412771745622194
 20
89.6487044308660472
 30
0.0
 11
2974.6617501568662192
 21
89.6570625496258486
 31
0.0
  0
LINE
  5
7101
  8
0
 10
2974.6617501568662192
 20
89.6570625496258486
 30
0.0
 11
2974.6822220564617965
 21
89.6487044308913852
 31
0.0
  0
ARC
  5
7102
  8
0
 10
2974.6386575762549001
 20
89.6531333813458815
 30
0.0
 40
0.0051456678521577
 50
243.4293606702767079
 51
300.6031080953255241
  0
LINE
  5
7103
  8
0
 10
2974.6314346549620495
 20
89.6487044308660472
 30
0.0
 11
2974.6314346549620495
 21
89.6332849322660365
 31
0.0
  0
LINE
  5
7104
  8
0
 10
2974.6314346549620495
 20
89.6332849322660365
 30
0.0
 11
2974.6109622140620559
 21
89.6249265923660516
 31
0.0
  0
LINE
  5
7105
  8
0
 10
2974.6109622140620559
 20
89.6249265923660516
 30
0.0
 11
2974.5904897730620178
 21
89.6332849322660365
 31
0.0
  0
LINE
  5
7106
  8
0
 10
2974.5904897730620178
 20
89.6332849322660365
 30
0.0
 11
2974.5904897730620178
 21
89.6487044308913852
 31
0.0
  0
LINE
  5
7107
  8
0
 10
2974.6314346549620495
 20
89.6487044308660472
 30
0.0
 11
2974.6109616726589593
 21
89.6570625496258486
 31
0.0
  0
LINE
  5
7108
  8
0
 10
2974.6109616726589593
 20
89.6570625496258486
 30
0.0
 11
2974.5904897730620178
 21
89.6487044308913852
 31
0.0
  0
ARC
  5
7109
  8
0
 10
2974.6340542532689142
 20
89.6531333813458815
 30
0.0
 40
0.0051456678521577
 50
239.3968919046745043
 51
296.5706393297228942
  0
ARC
  5
710A
  8
0
 10
2974.5878701746551087
 20
89.6531333813458815
 30
0.0
 40
0.0051456678521577
 50
243.4293606702767079
 51
300.6031080953255241
  0
LINE
  5
710B
  8
0
 10
2974.5298598517620121
 20
89.6487211416517766
 30
0.0
 11
2974.5298598517620121
 21
89.6332849322660365
 31
0.0
  0
ARC
  5
710C
  8
0
 10
2974.5324794500688768
 20
89.6531333813458815
 30
0.0
 40
0.0051456678521577
 50
239.3968919046745043
 51
296.5706393297228942
  0
LINE
  5
710D
  8
0
 10
2974.539702371362182
 20
89.6487044308660472
 30
0.0
 11
2974.539702371362182
 21
89.6332849322660365
 31
0.0
  0
LINE
  5
710E
  8
0
 10
2974.539702371362182
 20
89.6332849322660365
 30
0.0
 11
2974.5601748122630852
 21
89.6249265923660516
 31
0.0
  0
LINE
  5
710F
  8
0
 10
2974.5601748122630852
 20
89.6249265923660516
 30
0.0
 11
2974.5806472532622138
 21
89.6332849322660365
 31
0.0
  0
LINE
  5
7110
  8
0
 10
2974.5806472532622138
 20
89.6332849322660365
 30
0.0
 11
2974.5806472532622138
 21
89.6487044308913852
 31
0.0
  0
LINE
  5
7111
  8
0
 10
2974.539702371362182
 20
89.6487044308660472
 30
0.0
 11
2974.5601753536661818
 21
89.6570625496258486
 31
0.0
  0
LINE
  5
7112
  8
0
 10
2974.5594032787389551
 20
89.6573777667790353
 30
0.0
 11
2974.5806472532622138
 21
89.6487044308913852
 31
0.0
  0
ARC
  5
7113
  8
0
 10
2974.5370827730548626
 20
89.6531333813458815
 30
0.0
 40
0.0051456678521577
 50
243.4293606702767079
 51
300.6031080953255241
  0
ARC
  5
7114
  8
0
 10
2974.5832668516700323
 20
89.6531333813458815
 30
0.0
 40
0.0051456678521577
 50
239.3968919046745043
 51
296.5706393297228942
  0
LINE
  5
7115
  8
0
 10
2974.6412777159662255
 20
89.5864993149945548
 30
0.0
 11
2974.6412777159662255
 21
89.5710798163945583
 31
0.0
  0
LINE
  5
7116
  8
0
 10
2974.6412777159662255
 20
89.5710798163945583
 30
0.0
 11
2974.6617501568662192
 21
89.562721476494545
 31
0.0
  0
LINE
  5
7117
  8
0
 10
2974.6617501568662192
 20
89.562721476494545
 30
0.0
 11
2974.682222597864893
 21
89.5710798163945583
 31
0.0
  0
LINE
  5
7118
  8
0
 10
2974.682222597864893
 20
89.5710798163945583
 30
0.0
 11
2974.682222597864893
 21
89.5864993150198927
 31
0.0
  0
LINE
  5
7119
  8
0
 10
2974.6412777159662255
 20
89.5864993149945548
 30
0.0
 11
2974.661750698268861
 21
89.5948574337543562
 31
0.0
  0
LINE
  5
711A
  8
0
 10
2974.661750698268861
 20
89.5948574337543562
 30
0.0
 11
2974.682222597864893
 21
89.5864993150198927
 31
0.0
  0
ARC
  5
711B
  8
0
 10
2974.638665579238932
 20
89.5908446607113262
 30
0.0
 40
0.0050700382321769
 50
243.0288612814505882
 51
301.0115234170564236
  0
LINE
  5
711C
  8
0
 10
2974.6412771745622194
 20
89.5242941992347454
 30
0.0
 11
2974.6412771745622194
 21
89.5088747006347489
 31
0.0
  0
LINE
  5
711D
  8
0
 10
2974.6412771745622194
 20
89.5088747006347489
 30
0.0
 11
2974.6617496154622131
 21
89.5005163607347356
 31
0.0
  0
LINE
  5
711E
  8
0
 10
2974.6617496154622131
 20
89.5005163607347356
 30
0.0
 11
2974.6822220564617965
 21
89.5088747006347489
 31
0.0
  0
LINE
  5
711F
  8
0
 10
2974.6822220564617965
 20
89.5088747006347489
 30
0.0
 11
2974.6822220564617965
 21
89.5242941992600834
 31
0.0
  0
LINE
  5
7120
  8
0
 10
2974.6412771745622194
 20
89.5242941992347454
 30
0.0
 11
2974.6617501568662192
 21
89.5326523179945468
 31
0.0
  0
LINE
  5
7121
  8
0
 10
2974.6617501568662192
 20
89.5326523179945468
 30
0.0
 11
2974.6822220564617965
 21
89.5242941992600834
 31
0.0
  0
ARC
  5
7122
  8
0
 10
2974.6386575762549001
 20
89.5287231497145939
 30
0.0
 40
0.0051456678521577
 50
243.4293606702767079
 51
300.6031080953255241
  0
LINE
  5
7123
  8
0
 10
2974.6666714167658938
 20
89.555396646594545
 30
0.0
 11
2974.6666714167658938
 21
89.5399771479945343
 31
0.0
  0
LINE
  5
7124
  8
0
 10
2974.6666714167658938
 20
89.5399771479945343
 30
0.0
 11
2974.6871438576658875
 21
89.5316188080945494
 31
0.0
  0
LINE
  5
7125
  8
0
 10
2974.6871438576658875
 20
89.5316188080945494
 30
0.0
 11
2974.7076162986659256
 21
89.5399771479945343
 31
0.0
  0
LINE
  5
7126
  8
0
 10
2974.7076162986659256
 20
89.5399771479945343
 30
0.0
 11
2974.7076162986659256
 21
89.555396646619883
 31
0.0
  0
LINE
  5
7127
  8
0
 10
2974.6666714167658938
 20
89.555396646594545
 30
0.0
 11
2974.6871443990689841
 21
89.5637547653543606
 31
0.0
  0
LINE
  5
7128
  8
0
 10
2974.6871443990689841
 20
89.5637547653543606
 30
0.0
 11
2974.7076162986659256
 21
89.555396646619883
 31
0.0
  0
ARC
  5
7129
  8
0
 10
2974.6640518184581197
 20
89.5598255970743935
 30
0.0
 40
0.0051456678521577
 50
243.4293606702767079
 51
300.6031080953255241
  0
LINE
  5
712A
  8
0
 10
2974.6158840151620097
 20
89.5553966466347333
 30
0.0
 11
2974.6158840151620097
 21
89.5399771480347653
 31
0.0
  0
LINE
  5
712B
  8
0
 10
2974.6158840151620097
 20
89.5399771480347653
 30
0.0
 11
2974.6363564560620034
 21
89.5316188081347519
 31
0.0
  0
LINE
  5
712C
  8
0
 10
2974.6363564560620034
 20
89.5316188081347519
 30
0.0
 11
2974.6568288970620415
 21
89.5399771480347653
 31
0.0
  0
LINE
  5
712D
  8
0
 10
2974.6568288970620415
 20
89.5399771480347653
 30
0.0
 11
2974.6568288970620415
 21
89.5553966466600855
 31
0.0
  0
LINE
  5
712E
  8
0
 10
2974.6158840151620097
 20
89.5553966466347333
 30
0.0
 11
2974.6363569974651
 21
89.5637547653945347
 31
0.0
  0
LINE
  5
712F
  8
0
 10
2974.6363569974651
 20
89.5637547653945347
 30
0.0
 11
2974.6568288970620415
 21
89.5553966466600855
 31
0.0
  0
ARC
  5
7130
  8
0
 10
2974.6132687436511333
 20
89.5598308741374041
 30
0.0
 40
0.0051480111327587
 50
243.5086253851036133
 51
300.531760013139376
  0
LINE
  5
7131
  8
0
 10
2974.5650960722618947
 20
89.5553968676347552
 30
0.0
 11
2974.5650960722618947
 21
89.5399773690347445
 31
0.0
  0
LINE
  5
7132
  8
0
 10
2974.5650960722618947
 20
89.5399773690347445
 30
0.0
 11
2974.5855685131618884
 21
89.5316190291347453
 31
0.0
  0
LINE
  5
7133
  8
0
 10
2974.5855685131618884
 20
89.5316190291347453
 30
0.0
 11
2974.6060409541619265
 21
89.5399773690347445
 31
0.0
  0
LINE
  5
7134
  8
0
 10
2974.6060409541619265
 20
89.5399773690347445
 30
0.0
 11
2974.6060409541619265
 21
89.5553968676600931
 31
0.0
  0
LINE
  5
7135
  8
0
 10
2974.5650960722618947
 20
89.5553968676347552
 30
0.0
 11
2974.5855690545658945
 21
89.5637549863945566
 31
0.0
  0
LINE
  5
7136
  8
0
 10
2974.5855690545658945
 20
89.5637549863945566
 30
0.0
 11
2974.6060409541619265
 21
89.5553968676600647
 31
0.0
  0
ARC
  5
7137
  8
0
 10
2974.5624764739550301
 20
89.5598258181146036
 30
0.0
 40
0.0051456678521577
 50
243.4293606702767079
 51
300.6031080953255241
  0
ARC
  5
7138
  8
0
 10
2974.659450429996923
 20
89.5598805480554887
 30
0.0
 40
0.0051940164278887
 50
239.6871183587795997
 51
296.2804114360249059
  0
ARC
  5
7139
  8
0
 10
2974.6086670583717932
 20
89.5598693752918962
 30
0.0
 40
0.0051864966826509
 50
239.579994728318411
 51
296.3907340646538273
  0
LINE
  5
713A
  8
0
 10
2974.631444846083923
 20
89.5864993149945548
 30
0.0
 11
2974.631444846083923
 21
89.5710798163945583
 31
0.0
  0
LINE
  5
713B
  8
0
 10
2974.631444846083923
 20
89.5710798163945583
 30
0.0
 11
2974.6109724051839294
 21
89.562721476494545
 31
0.0
  0
LINE
  5
713C
  8
0
 10
2974.6109724051839294
 20
89.562721476494545
 30
0.0
 11
2974.5904999641829818
 21
89.5710798163945583
 31
0.0
  0
LINE
  5
713D
  8
0
 10
2974.5904999641829818
 20
89.5710798163945583
 30
0.0
 11
2974.5904999641829818
 21
89.5864993150198927
 31
0.0
  0
LINE
  5
713E
  8
0
 10
2974.631444846083923
 20
89.5864993149945548
 30
0.0
 11
2974.6109718637799233
 21
89.5948574337543562
 31
0.0
  0
LINE
  5
713F
  8
0
 10
2974.6109718637799233
 20
89.5948574337543562
 30
0.0
 11
2974.5904999641829818
 21
89.5864993150198927
 31
0.0
  0
ARC
  5
7140
  8
0
 10
2974.6340644443907877
 20
89.5909282654743748
 30
0.0
 40
0.0051456678521577
 50
239.3968919046745043
 51
296.5706393297228942
  0
ARC
  5
7141
  8
0
 10
2974.5878693253580423
 20
89.5909711930021899
 30
0.0
 40
0.0051882514706553
 50
243.5491409570221037
 51
300.4667096803967752
  0
LINE
  5
7142
  8
0
 10
2974.529838928116078
 20
89.5864993149945548
 30
0.0
 11
2974.529838928116078
 21
89.5710798163945583
 31
0.0
  0
LINE
  5
7143
  8
0
 10
2974.529838928116078
 20
89.5710798163945583
 30
0.0
 11
2974.5093664872160844
 21
89.562721476494545
 31
0.0
  0
LINE
  5
7144
  8
0
 10
2974.5093664872160844
 20
89.562721476494545
 30
0.0
 11
2974.4888940462160463
 21
89.5710798163945583
 31
0.0
  0
LINE
  5
7145
  8
0
 10
2974.4888940462160463
 20
89.5710798163945583
 30
0.0
 11
2974.4888940462160463
 21
89.5864993150198927
 31
0.0
  0
LINE
  5
7146
  8
0
 10
2974.529838928116078
 20
89.5864993149945548
 30
0.0
 11
2974.5093659458129878
 21
89.5948574337543562
 31
0.0
  0
LINE
  5
7147
  8
0
 10
2974.5093659458129878
 20
89.5948574337543562
 30
0.0
 11
2974.4888940462160463
 21
89.5864993150198927
 31
0.0
  0
ARC
  5
7148
  8
0
 10
2974.5324510648429168
 20
89.5908446607113262
 30
0.0
 40
0.0050700382321769
 50
238.9884765829432069
 51
296.9711387185490139
  0
LINE
  5
7149
  8
0
 10
2974.5396717979979258
 20
89.5864993149945548
 30
0.0
 11
2974.5396717979979258
 21
89.5710798163945583
 31
0.0
  0
LINE
  5
714A
  8
0
 10
2974.5396717979979258
 20
89.5710798163945583
 30
0.0
 11
2974.5601442388979194
 21
89.562721476494545
 31
0.0
  0
LINE
  5
714B
  8
0
 10
2974.5601442388979194
 20
89.562721476494545
 30
0.0
 11
2974.5806166798979575
 21
89.5710798163945583
 31
0.0
  0
LINE
  5
714C
  8
0
 10
2974.5806166798979575
 20
89.5710798163945583
 30
0.0
 11
2974.5806166798979575
 21
89.5864993150198927
 31
0.0
  0
LINE
  5
714D
  8
0
 10
2974.5396717979979258
 20
89.5864993149945548
 30
0.0
 11
2974.5601447803019255
 21
89.5948574337543562
 31
0.0
  0
LINE
  5
714E
  8
0
 10
2974.5601447803019255
 20
89.5948574337543562
 30
0.0
 11
2974.5806166798979575
 21
89.5864993150198927
 31
0.0
  0
ARC
  5
714F
  8
0
 10
2974.5370521996910611
 20
89.5909282654743748
 30
0.0
 40
0.0051456678521577
 50
243.4293606702767079
 51
300.6031080953255241
  0
ARC
  5
7150
  8
0
 10
2974.5832473187238065
 20
89.5909711930021899
 30
0.0
 40
0.0051882514706533
 50
239.5332903195981942
 51
296.4508590429779247
  0
ARC
  5
7151
  8
0
 10
2974.4863045742390568
 20
89.5907579586781537
 30
0.0
 40
0.0049841158623258
 50
242.7733470346067861
 51
301.3017292393740831
  0
LINE
  5
7152
  8
0
 10
2974.4562928108180131
 20
89.5636969497819138
 30
0.0
 11
2974.4586820794361302
 21
89.562721476494545
 31
0.0
  0
LINE
  5
7153
  8
0
 10
2974.4586820794361302
 20
89.562721476494545
 30
0.0
 11
2974.4791545204361682
 21
89.5710798163945583
 31
0.0
  0
LINE
  5
7154
  8
0
 10
2974.4791545204361682
 20
89.5710798163945583
 30
0.0
 11
2974.4791545204361682
 21
89.5864993150198927
 31
0.0
  0
LINE
  5
7155
  8
0
 10
2974.4460642592098338
 20
89.5897059729908989
 30
0.0
 11
2974.4586826208401362
 21
89.5948574337543562
 31
0.0
  0
LINE
  5
7156
  8
0
 10
2974.4586826208401362
 20
89.5948574337543562
 30
0.0
 11
2974.4791545204361682
 21
89.5864993150198927
 31
0.0
  0
ARC
  5
7157
  8
0
 10
2974.4817439924131577
 20
89.5907579586781537
 30
0.0
 40
0.0049841158623272
 50
238.698270760652008
 51
297.2266529653940097
  0
LINE
  5
7158
  8
0
 10
2974.5044656097620646
 20
89.5553966466347333
 30
0.0
 11
2974.5044656097620646
 21
89.5399771480347653
 31
0.0
  0
LINE
  5
7159
  8
0
 10
2974.5044656097620646
 20
89.5399771480347653
 30
0.0
 11
2974.4839931688620709
 21
89.5316188081347519
 31
0.0
  0
LINE
  5
715A
  8
0
 10
2974.4839931688620709
 20
89.5316188081347519
 30
0.0
 11
2974.4768536160440817
 21
89.5345336930371616
 31
0.0
  0
LINE
  5
715B
  8
0
 10
2974.4635207278620328
 20
89.5517260070448344
 30
0.0
 11
2974.4635207278620328
 21
89.5553966466600855
 31
0.0
  0
LINE
  5
715C
  8
0
 10
2974.5044656097620646
 20
89.5553966466347333
 30
0.0
 11
2974.4839926274589743
 21
89.5637547653945347
 31
0.0
  0
LINE
  5
715D
  8
0
 10
2974.4839926274589743
 20
89.5637547653945347
 30
0.0
 11
2974.4635207278620328
 21
89.5553966466600855
 31
0.0
  0
ARC
  5
715E
  8
0
 10
2974.5070808812738505
 20
89.5598308741374041
 30
0.0
 40
0.0051480111327587
 50
239.4682399868605955
 51
296.4913746148964151
  0
LINE
  5
715F
  8
0
 10
2974.5552535526621796
 20
89.5553968676347552
 30
0.0
 11
2974.5552535526621796
 21
89.5399773690347445
 31
0.0
  0
LINE
  5
7160
  8
0
 10
2974.5552535526621796
 20
89.5399773690347445
 30
0.0
 11
2974.5347811117621859
 21
89.5316190291347453
 31
0.0
  0
LINE
  5
7161
  8
0
 10
2974.5347811117621859
 20
89.5316190291347453
 30
0.0
 11
2974.5143086707621478
 21
89.5399773690347445
 31
0.0
  0
LINE
  5
7162
  8
0
 10
2974.5143086707621478
 20
89.5399773690347445
 30
0.0
 11
2974.5143086707621478
 21
89.5553968676600931
 31
0.0
  0
LINE
  5
7163
  8
0
 10
2974.5552535526621796
 20
89.5553968676347552
 30
0.0
 11
2974.5347805703590893
 21
89.5637549863945566
 31
0.0
  0
LINE
  5
7164
  8
0
 10
2974.5347805703590893
 20
89.5637549863945566
 30
0.0
 11
2974.5143086707621478
 21
89.5553968676600647
 31
0.0
  0
ARC
  5
7165
  8
0
 10
2974.5578731509699537
 20
89.5598258181146036
 30
0.0
 40
0.0051456678521577
 50
239.3968919046745043
 51
296.5706393297228942
  0
ARC
  5
7166
  8
0
 10
2974.4608991949271513
 20
89.5598805480554887
 30
0.0
 40
0.0051940164278887
 50
277.0402043827031093
 51
300.3128816412203719
  0
ARC
  5
7167
  8
0
 10
2974.5116825665518263
 20
89.5598693752918962
 30
0.0
 40
0.0051864966826509
 50
243.6092659353460874
 51
300.4200052716814753
  0
LINE
  5
7168
  8
0
 10
2974.6314346549620495
 20
89.5242941992347454
 30
0.0
 11
2974.6314346549620495
 21
89.5088747006347489
 31
0.0
  0
LINE
  5
7169
  8
0
 10
2974.6314346549620495
 20
89.5088747006347489
 30
0.0
 11
2974.6109622140620559
 21
89.5005163607347356
 31
0.0
  0
LINE
  5
716A
  8
0
 10
2974.6109622140620559
 20
89.5005163607347356
 30
0.0
 11
2974.5904897730620178
 21
89.5088747006347489
 31
0.0
  0
LINE
  5
716B
  8
0
 10
2974.5904897730620178
 20
89.5088747006347489
 30
0.0
 11
2974.5904897730620178
 21
89.5242941992600834
 31
0.0
  0
LINE
  5
716C
  8
0
 10
2974.6314346549620495
 20
89.5242941992347454
 30
0.0
 11
2974.6109616726589593
 21
89.5326523179945468
 31
0.0
  0
LINE
  5
716D
  8
0
 10
2974.6109616726589593
 20
89.5326523179945468
 30
0.0
 11
2974.5904897730620178
 21
89.5242941992600834
 31
0.0
  0
ARC
  5
716E
  8
0
 10
2974.6340542532689142
 20
89.5287231497145939
 30
0.0
 40
0.0051456678521577
 50
239.3968919046745043
 51
296.5706393297228942
  0
LINE
  5
716F
  8
0
 10
2974.5298598517620121
 20
89.5242941992347454
 30
0.0
 11
2974.5298598517620121
 21
89.5088747006347489
 31
0.0
  0
LINE
  5
7170
  8
0
 10
2974.5298598517620121
 20
89.5088747006347489
 30
0.0
 11
2974.5129844922671509
 21
89.5019849510790806
 31
0.0
  0
LINE
  5
7171
  8
0
 10
2974.4889149698619804
 20
89.5221426426455764
 30
0.0
 11
2974.4889149698619804
 21
89.5242941992600834
 31
0.0
  0
LINE
  5
7172
  8
0
 10
2974.5298598517620121
 20
89.5242941992347454
 30
0.0
 11
2974.5093868694589219
 21
89.5326523179945468
 31
0.0
  0
LINE
  5
7173
  8
0
 10
2974.5093868694589219
 20
89.5326523179945468
 30
0.0
 11
2974.4889149698619804
 21
89.5242941992600834
 31
0.0
  0
ARC
  5
7174
  8
0
 10
2974.5324794500688768
 20
89.5287231497145939
 30
0.0
 40
0.0051456678521577
 50
239.3968919046745043
 51
296.5706393297228942
  0
LINE
  5
7175
  8
0
 10
2974.539702371362182
 20
89.5242941992347454
 30
0.0
 11
2974.539702371362182
 21
89.5088747006347489
 31
0.0
  0
LINE
  5
7176
  8
0
 10
2974.539702371362182
 20
89.5088747006347489
 30
0.0
 11
2974.5601748122630852
 21
89.5005163607347356
 31
0.0
  0
LINE
  5
7177
  8
0
 10
2974.5601748122630852
 20
89.5005163607347356
 30
0.0
 11
2974.5806472532622138
 21
89.5088747006347489
 31
0.0
  0
LINE
  5
7178
  8
0
 10
2974.5806472532622138
 20
89.5088747006347489
 30
0.0
 11
2974.5806472532622138
 21
89.5242941992600834
 31
0.0
  0
LINE
  5
7179
  8
0
 10
2974.539702371362182
 20
89.5242941992347454
 30
0.0
 11
2974.5601753536661818
 21
89.5326523179945468
 31
0.0
  0
LINE
  5
717A
  8
0
 10
2974.5601753536661818
 20
89.5326523179945468
 30
0.0
 11
2974.5806472532622138
 21
89.5242941992600834
 31
0.0
  0
ARC
  5
717B
  8
0
 10
2974.5370827730548626
 20
89.5287231497145939
 30
0.0
 40
0.0051456678521577
 50
243.4293606702767079
 51
300.6031080953255241
  0
ARC
  5
717C
  8
0
 10
2974.5878740037960597
 20
89.5287441733916012
 30
0.0
 40
0.0051618328746631
 50
243.4633437211464013
 51
300.4477249582557761
  0
ARC
  5
717D
  8
0
 10
2974.5832624169970586
 20
89.528744630890003
 30
0.0
 40
0.0051619204806386
 50
239.5606426935482887
 51
296.5272357051043741
  0
LINE
  5
717E
  8
0
 10
2974.6666708753618877
 20
89.4931915307347339
 30
0.0
 11
2974.6666708753618877
 21
89.4777720321347374
 31
0.0
  0
LINE
  5
717F
  8
0
 10
2974.6666708753618877
 20
89.4777720321347374
 30
0.0
 11
2974.6871433162618814
 21
89.4694136922347525
 31
0.0
  0
LINE
  5
7180
  8
0
 10
2974.6871433162618814
 20
89.4694136922347525
 30
0.0
 11
2974.7076157572619195
 21
89.4777720321347374
 31
0.0
  0
LINE
  5
7181
  8
0
 10
2974.7076157572619195
 20
89.4777720321347374
 30
0.0
 11
2974.7076157572619195
 21
89.493191530760086
 31
0.0
  0
LINE
  5
7182
  8
0
 10
2974.6666708753618877
 20
89.4931915307347339
 30
0.0
 11
2974.6871438576658875
 21
89.5015496494945637
 31
0.0
  0
LINE
  5
7183
  8
0
 10
2974.6871438576658875
 20
89.5015496494945637
 30
0.0
 11
2974.7076157572619195
 21
89.493191530760086
 31
0.0
  0
ARC
  5
7184
  8
0
 10
2974.6640512770550231
 20
89.4976204812145966
 30
0.0
 40
0.0051456678521577
 50
243.4293606702767079
 51
300.6031080953255241
  0
LINE
  5
7185
  8
0
 10
2974.6568283557621726
 20
89.4931915307347339
 30
0.0
 11
2974.6568283557621726
 21
89.4777720321347374
 31
0.0
  0
LINE
  5
7186
  8
0
 10
2974.6568283557621726
 20
89.4777720321347374
 30
0.0
 11
2974.6363559148621789
 21
89.4694136922347525
 31
0.0
  0
LINE
  5
7187
  8
0
 10
2974.6363559148621789
 20
89.4694136922347525
 30
0.0
 11
2974.6158834738621408
 21
89.4777720321347374
 31
0.0
  0
LINE
  5
7188
  8
0
 10
2974.6158834738621408
 20
89.4777720321347374
 30
0.0
 11
2974.6158834738621408
 21
89.493191530760086
 31
0.0
  0
LINE
  5
7189
  8
0
 10
2974.6568283557621726
 20
89.4931915307347339
 30
0.0
 11
2974.6363553734590823
 21
89.5015496494945637
 31
0.0
  0
LINE
  5
718A
  8
0
 10
2974.6363553734590823
 20
89.5015496494945637
 30
0.0
 11
2974.6158834738621408
 21
89.493191530760086
 31
0.0
  0
ARC
  5
718B
  8
0
 10
2974.6594479540699467
 20
89.4976204812145966
 30
0.0
 40
0.0051456678521577
 50
239.3968919046745043
 51
296.5706393297228942
  0
LINE
  5
718C
  8
0
 10
2974.5552535525621352
 20
89.4931915307347339
 30
0.0
 11
2974.5552535525621352
 21
89.4777720321347374
 31
0.0
  0
LINE
  5
718D
  8
0
 10
2974.5552535525621352
 20
89.4777720321347374
 30
0.0
 11
2974.5541626003368947
 21
89.4773266260613269
 31
0.0
  0
LINE
  5
718E
  8
0
 10
2974.5552535525621352
 20
89.4931915307347339
 30
0.0
 11
2974.5347805702590449
 21
89.5015496494945637
 31
0.0
  0
ARC
  5
718F
  8
0
 10
2974.5578731508699093
 20
89.4976204812145966
 30
0.0
 40
0.0051456678521577
 50
239.3968919046745043
 51
296.5706393297228942
  0
LINE
  5
7190
  8
0
 10
2974.5650960721618503
 20
89.4931915307347339
 30
0.0
 11
2974.5650960721618503
 21
89.4777720321347374
 31
0.0
  0
LINE
  5
7191
  8
0
 10
2974.5650960721618503
 20
89.4777720321347374
 30
0.0
 11
2974.585568513061844
 21
89.4694136922347525
 31
0.0
  0
LINE
  5
7192
  8
0
 10
2974.5826030084617742
 20
89.4682029575000968
 30
0.0
 11
2974.6060409540618821
 21
89.4777720321347374
 31
0.0
  0
LINE
  5
7193
  8
0
 10
2974.6060409540618821
 20
89.4777720321347374
 30
0.0
 11
2974.6060409540618821
 21
89.493191530760086
 31
0.0
  0
LINE
  5
7194
  8
0
 10
2974.5650960721618503
 20
89.4931915307347339
 30
0.0
 11
2974.5855690544658501
 21
89.5015496494945637
 31
0.0
  0
LINE
  5
7195
  8
0
 10
2974.5855690544658501
 20
89.5015496494945637
 30
0.0
 11
2974.6060409540618821
 21
89.493191530760086
 31
0.0
  0
ARC
  5
7196
  8
0
 10
2974.5624764738549857
 20
89.4976204812145966
 30
0.0
 40
0.0051456678521577
 50
243.4293606702767079
 51
300.6031080953255241
  0
ARC
  5
7197
  8
0
 10
2974.6132677045961827
 20
89.4976415048916039
 30
0.0
 40
0.0051618328746631
 50
243.4633437211464013
 51
300.4477249582557761
  0
ARC
  5
7198
  8
0
 10
2974.6086561177958174
 20
89.4976419623900057
 30
0.0
 40
0.0051619204806386
 50
239.5606426935482887
 51
296.5272357051043741
  0
LINE
  5
7199
  8
0
 10
2974.6666719581689904
 20
89.6176022045230525
 30
0.0
 11
2974.6666719581689904
 21
89.602182705923056
 31
0.0
  0
LINE
  5
719A
  8
0
 10
2974.6666719581689904
 20
89.602182705923056
 30
0.0
 11
2974.6871443990689841
 21
89.5938243660230569
 31
0.0
  0
LINE
  5
719B
  8
0
 10
2974.6871443990689841
 20
89.5938243660230569
 30
0.0
 11
2974.7076168400690221
 21
89.602182705923056
 31
0.0
  0
LINE
  5
719C
  8
0
 10
2974.7076168400690221
 20
89.602182705923056
 30
0.0
 11
2974.7076168400690221
 21
89.6176022045484046
 31
0.0
  0
LINE
  5
719D
  8
0
 10
2974.6666719581689904
 20
89.6176022045230525
 30
0.0
 11
2974.6871449404720806
 21
89.6259603232828681
 31
0.0
  0
LINE
  5
719E
  8
0
 10
2974.6871449404720806
 20
89.6259603232828681
 30
0.0
 11
2974.7076168400690221
 21
89.6176022045484046
 31
0.0
  0
ARC
  5
719F
  8
0
 10
2974.6640598214430611
 20
89.6219475502398382
 30
0.0
 40
0.0050700382321769
 50
243.0288612814505882
 51
301.0115234170564236
  0
LINE
  5
71A0
  8
0
 10
2974.6568390882871427
 20
89.6176022045230525
 30
0.0
 11
2974.6568390882871427
 21
89.602182705923056
 31
0.0
  0
LINE
  5
71A1
  8
0
 10
2974.6568390882871427
 20
89.602182705923056
 30
0.0
 11
2974.636366647387149
 21
89.5938243660230569
 31
0.0
  0
LINE
  5
71A2
  8
0
 10
2974.636366647387149
 20
89.5938243660230569
 30
0.0
 11
2974.6158942063871109
 21
89.602182705923056
 31
0.0
  0
LINE
  5
71A3
  8
0
 10
2974.6158942063871109
 20
89.602182705923056
 30
0.0
 11
2974.6158942063871109
 21
89.6176022045484046
 31
0.0
  0
LINE
  5
71A4
  8
0
 10
2974.6568390882871427
 20
89.6176022045230525
 30
0.0
 11
2974.6363661059831429
 21
89.6259603232828681
 31
0.0
  0
LINE
  5
71A5
  8
0
 10
2974.6363661059831429
 20
89.6259603232828681
 30
0.0
 11
2974.6158942063871109
 21
89.6176022045484046
 31
0.0
  0
ARC
  5
71A6
  8
0
 10
2974.6594586865940073
 20
89.622031155002901
 30
0.0
 40
0.0051456678521577
 50
239.3968919046745043
 51
296.5706393297228942
  0
ARC
  5
71A7
  8
0
 10
2974.6132635675598976
 20
89.6220740825306876
 30
0.0
 40
0.0051882514706553
 50
243.5491409570221037
 51
300.4667096803967752
  0
LINE
  5
71A8
  8
0
 10
2974.5552331703202071
 20
89.6176022045230525
 30
0.0
 11
2974.5552331703202071
 21
89.602182705923056
 31
0.0
  0
LINE
  5
71A9
  8
0
 10
2974.5552331703202071
 20
89.602182705923056
 30
0.0
 11
2974.5347607294188492
 21
89.5938243660230569
 31
0.0
  0
LINE
  5
71AA
  8
0
 10
2974.5347607294188492
 20
89.5938243660230569
 30
0.0
 11
2974.5142882884188111
 21
89.602182705923056
 31
0.0
  0
LINE
  5
71AB
  8
0
 10
2974.5142882884188111
 20
89.602182705923056
 30
0.0
 11
2974.5142882884188111
 21
89.6176022045484046
 31
0.0
  0
LINE
  5
71AC
  8
0
 10
2974.5552331703202071
 20
89.6176022045230525
 30
0.0
 11
2974.5347601880162074
 21
89.6259603232828681
 31
0.0
  0
LINE
  5
71AD
  8
0
 10
2974.5347601880162074
 20
89.6259603232828681
 30
0.0
 11
2974.5142882884188111
 21
89.6176022045484046
 31
0.0
  0
ARC
  5
71AE
  8
0
 10
2974.5578453070461364
 20
89.6219475502398382
 30
0.0
 40
0.0050700382321769
 50
238.9884765829432069
 51
296.9711387185490139
  0
LINE
  5
71AF
  8
0
 10
2974.5650660402011454
 20
89.6176022045230525
 30
0.0
 11
2974.5650660402011454
 21
89.602182705923056
 31
0.0
  0
LINE
  5
71B0
  8
0
 10
2974.5650660402011454
 20
89.602182705923056
 30
0.0
 11
2974.585538481101139
 21
89.5938243660230569
 31
0.0
  0
LINE
  5
71B1
  8
0
 10
2974.585538481101139
 20
89.5938243660230569
 30
0.0
 11
2974.6060109221011771
 21
89.602182705923056
 31
0.0
  0
LINE
  5
71B2
  8
0
 10
2974.6060109221011771
 20
89.602182705923056
 30
0.0
 11
2974.6060109221011771
 21
89.6176022045484046
 31
0.0
  0
LINE
  5
71B3
  8
0
 10
2974.5650660402011454
 20
89.6176022045230525
 30
0.0
 11
2974.5855390225051451
 21
89.6259603232828681
 31
0.0
  0
LINE
  5
71B4
  8
0
 10
2974.5855390225051451
 20
89.6259603232828681
 30
0.0
 11
2974.6060109221011771
 21
89.6176022045484046
 31
0.0
  0
ARC
  5
71B5
  8
0
 10
2974.562446441893826
 20
89.622031155002901
 30
0.0
 40
0.0051456678521577
 50
243.4293606702767079
 51
300.6031080953255241
  0
ARC
  5
71B6
  8
0
 10
2974.6086415609279356
 20
89.6220740825306876
 30
0.0
 40
0.0051882514706533
 50
239.5332903195981942
 51
296.4508590429779247
  0
ARC
  5
71B7
  8
0
 10
2974.5116988164418217
 20
89.6218608482066657
 30
0.0
 40
0.0049841158623258
 50
242.7733470346067861
 51
301.3017292393740831
  0
LINE
  5
71B8
  8
0
 10
2974.484076321638895
 20
89.5938243660230569
 30
0.0
 11
2974.5045487626389331
 21
89.602182705923056
 31
0.0
  0
LINE
  5
71B9
  8
0
 10
2974.5045487626389331
 20
89.602182705923056
 30
0.0
 11
2974.5045487626389331
 21
89.6176022045484046
 31
0.0
  0
LINE
  5
71BA
  8
0
 10
2974.4840768630419916
 20
89.6259603232828681
 30
0.0
 11
2974.5045487626389331
 21
89.6176022045484046
 31
0.0
  0
ARC
  5
71BB
  8
0
 10
2974.5071382346168321
 20
89.6218608482066657
 30
0.0
 40
0.0049841158623272
 50
238.698270760652008
 51
297.2266529653940097
  0
LINE
  5
71BC
  8
0
 10
2974.4840774044459977
 20
89.5938243660230569
 30
0.0
 11
2974.4636049634459596
 21
89.602182705923056
 31
0.0
  0
LINE
  5
71BD
  8
0
 10
2974.4636049634459596
 20
89.602182705923056
 30
0.0
 11
2974.4636049634459596
 21
89.6176022045484046
 31
0.0
  0
LINE
  5
71BE
  8
0
 10
2974.4840768630419916
 20
89.6259603232828681
 30
0.0
 11
2974.4636049634459596
 21
89.6176022045484046
 31
0.0
  0
ARC
  5
71BF
  8
0
 10
2974.4610154914689701
 20
89.6218608482066657
 30
0.0
 40
0.0049841158623272
 50
242.7733470346059903
 51
301.301729239347992
  0
LINE
  5
71C0
  8
0
 10
2974.5298598517620121
 20
89.6332849322660365
 30
0.0
 11
2974.5093874108620184
 21
89.6249265923660516
 31
0.0
  0
LINE
  5
71C1
  8
0
 10
2974.5093874108620184
 20
89.6249265923660516
 30
0.0
 11
2974.488850015936805
 21
89.6333114511840421
 31
0.0
  0
ARC
  5
71C2
  8
0
 10
2974.6387043521008309
 20
89.6348522613159986
 30
0.0
 40
0.0074367343835708
 50
192.1666015813628121
 51
251.5915612274087039
  0
ARC
  5
71C3
  8
0
 10
2974.6343056210830582
 20
89.6345849486022814
 30
0.0
 40
0.007091727602766
 50
286.8047169214767109
 51
349.4371214271487247
  0
ARC
  5
71C4
  8
0
 10
2974.5879169504009951
 20
89.6348522613286889
 30
0.0
 40
0.0074367343835708
 50
192.1666015813628121
 51
251.5915612274087039
  0
ARC
  5
71C5
  8
0
 10
2974.5835182193818582
 20
89.6345849486149433
 30
0.0
 40
0.007091727602766
 50
286.8047169214767109
 51
349.4371214271487247
  0
ARC
  5
71C6
  8
0
 10
2974.5371295489007935
 20
89.6348522613159986
 30
0.0
 40
0.0074367343835708
 50
192.1666015813628121
 51
251.5915612274087039
  0
ARC
  5
71C7
  8
0
 10
2974.5327308178821113
 20
89.6345849486022814
 30
0.0
 40
0.007091727602766
 50
286.8047169214767109
 51
349.4371214271487247
  0
ARC
  5
71C8
  8
0
 10
2974.5118184597781692
 20
89.6037500349856941
 30
0.0
 40
0.0074367343835708
 50
192.1666015813628121
 51
251.5915612274087039
  0
ARC
  5
71C9
  8
0
 10
2974.5076068012808719
 20
89.6031886562845159
 30
0.0
 40
0.0067567896599692
 50
286.0070354378108846
 51
351.4379776369249271
  0
ARC
  5
71CA
  8
0
 10
2974.562502867458079
 20
89.603750034973018
 30
0.0
 40
0.0074367343835708
 50
192.1666015813628121
 51
251.5915612274087039
  0
ARC
  5
71CB
  8
0
 10
2974.5581222250712017
 20
89.6034542880936584
 30
0.0
 40
0.0070592839428533
 50
286.730894031369985
 51
349.622722811630922
  0
ARC
  5
71CC
  8
0
 10
2974.6132806192399585
 20
89.6037500349856941
 30
0.0
 40
0.0074367343835708
 50
192.1666015813628121
 51
251.5915612274087039
  0
ARC
  5
71CD
  8
0
 10
2974.6088041427301505
 20
89.603604933191292
 30
0.0
 40
0.0072313023071549
 50
287.1144636256074136
 51
348.6573229530404774
  0
ARC
  5
71CE
  8
0
 10
2974.6641087854250145
 20
89.603750034973018
 30
0.0
 40
0.0074367343835708
 50
192.1666015813628121
 51
251.5915612274087039
  0
ARC
  5
71CF
  8
0
 10
2974.6597281430381372
 20
89.6034542880936584
 30
0.0
 40
0.0070592839428505
 50
286.7308940313698145
 51
349.6227228116547963
  0
ARC
  5
71D0
  8
0
 10
2974.4864242175749496
 20
89.5726471454571964
 30
0.0
 40
0.0074367343835708
 50
192.1666015813628121
 51
251.5915612274087039
  0
ARC
  5
71D1
  8
0
 10
2974.482212559078107
 20
89.572085766756004
 30
0.0
 40
0.006756789659969
 50
286.0070354378102024
 51
351.4379776369306114
  0
ARC
  5
71D2
  8
0
 10
2974.5371086252548594
 20
89.5726471454445203
 30
0.0
 40
0.0074367343835708
 50
192.1666015813628121
 51
251.5915612274087039
  0
ARC
  5
71D3
  8
0
 10
2974.5327279828679821
 20
89.5723513985651607
 30
0.0
 40
0.0070592839428505
 50
286.7308940313698145
 51
349.6227228116620154
  0
ARC
  5
71D4
  8
0
 10
2974.5878863770371936
 20
89.5726471454571964
 30
0.0
 40
0.0074367343835708
 50
192.1666015813628121
 51
251.5915612274087039
  0
ARC
  5
71D5
  8
0
 10
2974.5834099005269309
 20
89.5725020436627801
 30
0.0
 40
0.0072313023071524
 50
287.1144636256059925
 51
348.6573229530565072
  0
ARC
  5
71D6
  8
0
 10
2974.6387145432217949
 20
89.5726471454445203
 30
0.0
 40
0.0074367343835708
 50
192.1666015813628121
 51
251.5915612274087039
  0
ARC
  5
71D7
  8
0
 10
2974.6343339008340081
 20
89.5723513985651607
 30
0.0
 40
0.0070592839428505
 50
286.7308940313698145
 51
349.6227228116620154
  0
ARC
  5
71D8
  8
0
 10
2974.6894922950041291
 20
89.5726471454571964
 30
0.0
 40
0.0074367343835708
 50
192.1666015813628121
 51
251.5915612274087039
  0
ARC
  5
71D9
  8
0
 10
2974.6851336339400405
 20
89.572316845350926
 30
0.0
 40
0.00701987430943
 50
286.640266127135817
 51
349.8504478501292283
  0
ARC
  5
71DA
  8
0
 10
2974.6640985942008228
 20
89.541544477097375
 30
0.0
 40
0.0074367343835708
 50
192.1666015813628121
 51
251.5915612274087039
  0
ARC
  5
71DB
  8
0
 10
2974.6596998631830502
 20
89.5412771643836436
 30
0.0
 40
0.007091727602766
 50
286.8047169214767109
 51
349.4371214271487247
  0
ARC
  5
71DC
  8
0
 10
2974.6133106513011626
 20
89.5415446980973968
 30
0.0
 40
0.0074367343835708
 50
192.1666015813628121
 51
251.5915612274087039
  0
ARC
  5
71DD
  8
0
 10
2974.6089108242499606
 20
89.5412791082768962
 30
0.0
 40
0.0070936938171988
 50
286.8091683255285034
 51
349.4241109923830209
  0
ARC
  5
71DE
  8
0
 10
2974.5625232498009609
 20
89.5415446980847207
 30
0.0
 40
0.0074367343835708
 50
192.1666015813628121
 51
251.5915612274087039
  0
ARC
  5
71DF
  8
0
 10
2974.5581245187831883
 20
89.5412773853709894
 30
0.0
 40
0.007091727602766
 50
286.8047169214767109
 51
349.4371214271487247
  0
ARC
  5
71E0
  8
0
 10
2974.5117353069008459
 20
89.5415444770847273
 30
0.0
 40
0.0074367343835708
 50
192.1666015813628121
 51
251.5915612274087039
  0
ARC
  5
71E1
  8
0
 10
2974.5073356351340408
 20
89.541278643204663
 30
0.0
 40
0.0070934152800433
 50
286.8085377199079744
 51
349.4293282716498084
  0
ARC
  5
71E2
  8
0
 10
2974.5371295489007935
 20
89.5104420296847252
 30
0.0
 40
0.0074367343835708
 50
192.1666015813628121
 51
251.5915612274087039
  0
ARC
  5
71E3
  8
0
 10
2974.5327308178821113
 20
89.5101747169709654
 30
0.0
 40
0.007091727602766
 50
286.8047169214767109
 51
349.4371214271487247
  0
ARC
  5
71E4
  8
0
 10
2974.5879169504009951
 20
89.5104420296973871
 30
0.0
 40
0.0074367343835708
 50
192.1666015813628121
 51
251.5915612274087039
  0
ARC
  5
71E5
  8
0
 10
2974.5835182193818582
 20
89.5101747169836557
 30
0.0
 40
0.007091727602766
 50
286.8047169214767109
 51
349.4371214271487247
  0
ARC
  5
71E6
  8
0
 10
2974.6387043521008309
 20
89.5104420296847252
 30
0.0
 40
0.0074367343835708
 50
192.1666015813628121
 51
251.5915612274087039
  0
ARC
  5
71E7
  8
0
 10
2974.6343056210830582
 20
89.5101747169709654
 30
0.0
 40
0.007091727602766
 50
286.8047169214767109
 51
349.4371214271487247
  0
ARC
  5
71E8
  8
0
 10
2974.6894917536010325
 20
89.5104420296973871
 30
0.0
 40
0.0074367343835708
 50
192.1666015813628121
 51
251.5915612274087039
  0
ARC
  5
71E9
  8
0
 10
2974.6851091492681007
 20
89.5101603616779045
 30
0.0
 40
0.0070733319410123
 50
286.7132833664815053
 51
349.5239652503968273
  0
ARC
  5
71EA
  8
0
 10
2974.5625232497009165
 20
89.4793393611847137
 30
0.0
 40
0.0074367343835708
 50
192.1666015813628121
 51
201.4289554243769089
  0
ARC
  5
71EB
  8
0
 10
2974.5581245186831438
 20
89.4790720484709823
 30
0.0
 40
0.007091727602766
 50
307.0688570792743235
 51
349.4371214271487247
  0
ARC
  5
71EC
  8
0
 10
2974.6133106512011182
 20
89.4793393611973755
 30
0.0
 40
0.0074367343835708
 50
192.1666015813628121
 51
251.5915612274087039
  0
ARC
  5
71ED
  8
0
 10
2974.6089119201828908
 20
89.4790720484836584
 30
0.0
 40
0.007091727602766
 50
286.8047169214767109
 51
349.4371214271487247
  0
ARC
  5
71EE
  8
0
 10
2974.6640980529009539
 20
89.4793393611847137
 30
0.0
 40
0.0074367343835708
 50
192.1666015813628121
 51
251.5915612274087039
  0
ARC
  5
71EF
  8
0
 10
2974.6596993218831813
 20
89.4790720484709823
 30
0.0
 40
0.007091727602766
 50
286.8047169214767109
 51
349.4371214271487247
  0
ARC
  5
71F0
  8
0
 10
2974.4611351348039534
 20
89.6037500349856941
 30
0.0
 40
0.0074367343835708
 50
192.1666015813628121
 51
251.5915612274087039
  0
ARC
  5
71F1
  8
0
 10
2974.4569234763071108
 20
89.6031886562845159
 30
0.0
 40
0.0067567896599692
 50
286.0070354378108846
 51
351.4379776369249271
  0
LINE
  5
71F2
  8
0
 10
2974.5213919051820994
 20
89.4960837114552135
 30
0.0
 11
2974.5347805702590449
 21
89.5015496494945637
 31
0.0
  0
LINE
  5
71F3
  8
0
 10
2974.6920645538621102
 20
89.4620892296344152
 30
0.0
 11
2974.7125370171120267
 21
89.4704471364901082
 31
0.0
  0
ARC
  5
71F4
  8
0
 10
2974.6894449555547908
 20
89.4665181801142637
 30
0.0
 40
0.0051456678521577
 50
243.4293606702767079
 51
300.6031080953255241
  0
LINE
  5
71F5
  8
0
 10
2974.6822220342619403
 20
89.4620892296344152
 30
0.0
 11
2974.66174905195885
 21
89.4704473483942309
 31
0.0
  0
LINE
  5
71F6
  8
0
 10
2974.66174905195885
 20
89.4704473483942309
 30
0.0
 11
2974.6412771523619085
 21
89.4620892296597674
 31
0.0
  0
ARC
  5
71F7
  8
0
 10
2974.6848416325701692
 20
89.4665181801142637
 30
0.0
 40
0.0051456678521577
 50
239.3968919046745043
 51
296.5706393297228942
  0
ARC
  5
71F8
  8
0
 10
2974.6386613830959504
 20
89.466539203791271
 30
0.0
 40
0.0051618328746631
 50
243.4633437211464013
 51
300.4477249582557761
  0
ARC
  5
71F9
  8
0
 10
2974.6340538643921718
 20
89.4666583503206141
 30
0.0
 40
0.0052666019566772
 50
240.1777676319481998
 51
295.9109339224521023
  0
LINE
  5
71FA
  8
0
 10
2974.6314347271968472
 20
89.4620891910405902
 30
0.0
 11
2974.6109617448942117
 21
89.4704473098003916
 31
0.0
  0
LINE
  5
71FB
  8
0
 10
2974.6109617448942117
 20
89.4704473098003916
 30
0.0
 11
2974.5905749675680454
 21
89.4621239441695053
 31
0.0
  0
ARC
  5
71FC
  8
0
 10
2974.5884410966118594
 20
89.4690975929609635
 30
0.0
 40
0.0059062378759409
 50
188.7122976457301036
 51
243.1141460003381951
  0
LINE
  5
71FD
  8
0
 10
2974.5735408664181705
 20
89.6609249932672157
 30
0.0
 11
2974.5855685131618884
 21
89.6560970705160258
 31
0.0
  0
LINE
  5
71FE
  8
0
 10
2974.5855685131618884
 20
89.6560970705160258
 30
0.0
 11
2974.6060409540618821
 21
89.6643876006660463
 31
0.0
  0
LINE
  5
71FF
  8
0
 10
2974.6060409540618821
 20
89.6643876006660463
 30
0.0
 11
2974.6060409540618821
 21
89.6677049160502264
 31
0.0
  0
ARC
  5
7200
  8
0
 10
2974.6134570527451615
 20
89.666086191769395
 30
0.0
 40
0.0076081358702233
 50
192.9005708448781036
 51
250.8575919596322024
  0
ARC
  5
7201
  8
0
 10
2974.6084681546572028
 20
89.6660854927621216
 30
0.0
 40
0.0076072199260053
 50
289.1385882170943091
 51
347.1032501315287959
  0
LINE
  5
7202
  8
0
 10
2974.6158834737620964
 20
89.6643876006660463
 30
0.0
 11
2974.6158834737620964
 21
89.6693878931103256
 31
0.0
  0
LINE
  5
7203
  8
0
 10
2974.6158834737620964
 20
89.6643876006660463
 30
0.0
 11
2974.6363559147621345
 21
89.656029260866049
 31
0.0
  0
LINE
  5
7204
  8
0
 10
2974.6363559147621345
 20
89.656029260866049
 30
0.0
 11
2974.6568283556630377
 21
89.6643876006660463
 31
0.0
  0
LINE
  5
7205
  8
0
 10
2974.6568283556630377
 20
89.6643876006660463
 30
0.0
 11
2974.6568283556630377
 21
89.6745848845175715
 31
0.0
  0
LINE
  5
7206
  8
0
 10
2974.6666708753618877
 20
89.6754060887366222
 30
0.0
 11
2974.6666708753618877
 21
89.6643876006660463
 31
0.0
  0
LINE
  5
7207
  8
0
 10
2974.6666708753618877
 20
89.6643876006660463
 30
0.0
 11
2974.6871433162618814
 21
89.656029260866049
 31
0.0
  0
LINE
  5
7208
  8
0
 10
2974.6871433162618814
 20
89.656029260866049
 30
0.0
 11
2974.7076157572619195
 21
89.6643876006660463
 31
0.0
  0
LINE
  5
7209
  8
0
 10
2974.7076157572619195
 20
89.6643876006660463
 30
0.0
 11
2974.7076157572619195
 21
89.6770644343018546
 31
0.0
  0
ARC
  5
720A
  8
0
 10
2974.664244454450909
 20
89.6660861918185361
 30
0.0
 40
0.0076081359838892
 50
192.9005710293114078
 51
250.8575906220800107
  0
ARC
  5
720B
  8
0
 10
2974.6592555563588576
 20
89.6660854927159221
 30
0.0
 40
0.0076072198160569
 50
289.1385868923171074
 51
347.1032502989331192
  0
ARC
  5
720C
  8
0
 10
2974.6848416968568927
 20
89.6531345762157343
 30
0.0
 40
0.005146717730127
 50
239.4032603093075977
 51
296.5642703357589767
  0
LINE
  5
720D
  8
0
 10
2974.6871433162618814
 20
89.6485311805660388
 30
0.0
 11
2974.7125370171120267
 21
89.6588987366864671
 31
0.0
  0
ARC
  5
720E
  8
0
 10
2974.7148277636360945
 20
89.6659032046758995
 30
0.0
 40
0.0073695380758826
 50
191.868016858614908
 51
251.8901455832717033
  0
ARC
  5
720F
  8
0
 10
2974.6896381550141086
 20
89.6349835232063157
 30
0.0
 40
0.0076081357058089
 50
192.9005698695229967
 51
250.8575917818797905
  0
LINE
  5
7210
  8
0
 10
2974.6871433162618814
 20
89.6277960682660364
 30
0.0
 11
2974.7125370171120267
 21
89.6174285120456204
 31
0.0
  0
ARC
  5
7211
  8
0
 10
2974.7102362325517788
 20
89.6220279536042739
 30
0.0
 40
0.0051428077630313
 50
239.3807079857421058
 51
296.5756509819073017
  0
ARC
  5
7212
  8
0
 10
2974.6848341484228513
 20
89.5908424155242074
 30
0.0
 40
0.005067811984054
 50
238.9810783586507057
 51
296.977646074704694
  0
ARC
  5
7213
  8
0
 10
2974.689429871260927
 20
89.590905678826104
 30
0.0
 40
0.0051232712981666
 50
243.3655380402094011
 51
300.6757350220290164
  0
LINE
  5
7214
  8
0
 10
2974.7125370171120267
 20
89.5627129350813647
 30
0.0
 11
2974.6920436552618412
 21
89.5710798163945583
 31
0.0
  0
LINE
  5
7215
  8
0
 10
2974.6920436552618412
 20
89.5710798163945583
 30
0.0
 11
2974.6920436552618412
 21
89.5864993150198927
 31
0.0
  0
LINE
  5
7216
  8
0
 10
2974.7125370171120267
 20
89.5948661962076329
 30
0.0
 11
2974.6920436552618412
 21
89.5864993150198927
 31
0.0
  0
ARC
  5
7217
  8
0
 10
2974.6848422150092119
 20
89.5287205157340367
 30
0.0
 40
0.0051456678521577
 50
239.3903565728764136
 51
296.5641039979144011
  0
LINE
  5
7218
  8
0
 10
2974.6920646310750271
 20
89.5242907414145179
 30
0.0
 11
2974.7125370171120267
 21
89.5326458925359958
 31
0.0
  0
ARC
  5
7219
  8
0
 10
2974.6894455379638202
 20
89.5287199906649249
 30
0.0
 40
0.0051456678521577
 50
243.4228253384835909
 51
300.5965727635297071
  0
LINE
  5
721A
  8
0
 10
2974.6920645761620108
 20
89.5088742584660508
 30
0.0
 11
2974.6920646310750271
 21
89.5242907414145179
 31
0.0
  0
LINE
  5
721B
  8
0
 10
2974.4538654376660816
 20
89.602182705923056
 30
0.0
 11
2974.4538654376660816
 21
89.6166832853019883
 31
0.0
  0
ARC
  5
721C
  8
0
 10
2974.456454909643071
 20
89.6218608482066657
 30
0.0
 40
0.0049841158623272
 50
250.4280466597840871
 51
297.2266529653940097
  0
LINE
  5
721D
  8
0
 10
2974.4440048881569965
 20
89.5982425858940559
 30
0.0
 11
2974.4538654376660816
 21
89.602182705471904
 31
0.0
  0
LINE
  5
721E
  8
0
 10
2974.6920646310750271
 20
89.508877274117566
 30
0.0
 11
2974.7125370171120267
 21
89.5005221229961023
 31
0.0
  0
ARC
  5
721F
  8
0
 10
2974.7102460924811567
 20
89.4975489388938712
 30
0.0
 40
0.0050897611936194
 50
238.8828561537943926
 51
296.750391455922113
  0
ARC
  5
7220
  8
0
 10
2974.7145873106410363
 20
89.4790720484709823
 30
0.0
 40
0.007091727602766
 50
190.5628785728503942
 51
253.1952830785232891
  0
LINE
  5
7221
  8
0
 10
2974.6314346548620051
 20
89.4539335485660274
 30
0.0
 11
2974.6314346548620051
 21
89.4620892205714568
 31
0.0
  0
ARC
  5
7222
  8
0
 10
2974.6349940782761223
 20
89.4541050009598138
 30
0.0
 40
0.0035635503309306
 50
182.7577251799793032
 51
222.0512436548708877
  0
LINE
  5
7223
  8
0
 10
2974.6412771745622194
 20
89.4519465557660567
 30
0.0
 11
2974.6412771745622194
 21
89.4620892387234221
 31
0.0
  0
ARC
  5
7224
  8
0
 10
2974.6386088560370808
 20
89.4520500302616881
 30
0.0
 40
0.0026703240860892
 50
263.0659267930433884
 51
357.7792446196327205
  0
ARC
  5
7225
  8
0
 10
2974.6370518416611048
 20
89.4556813561836464
 30
0.0
 40
0.0061508791795614
 50
220.1155496850288955
 51
242.5217669169178123
  0
LINE
  5
7226
  8
0
 10
2974.6822220564617965
 20
89.4465418175660432
 30
0.0
 11
2974.6822220564617965
 21
89.4620892165038271
 31
0.0
  0
LINE
  5
7227
  8
0
 10
2974.6920645761620108
 20
89.4459022556660557
 30
0.0
 11
2974.6920645761620108
 21
89.4620892387384288
 31
0.0
  0
ARC
  5
7228
  8
0
 10
2974.6864401526840993
 20
89.4468711023487657
 30
0.0
 40
0.0042309294732415
 50
184.4637300181352089
 51
239.5686487405833986
  0
ARC
  5
7229
  8
0
 10
2974.6885154096430597
 20
89.4461374115738863
 30
0.0
 40
0.0035569483102443
 50
292.7990382284435213
 51
356.2093136919614835
  0
ARC
  5
722A
  8
0
 10
2974.7139788442191275
 20
89.6032727969933092
 30
0.0
 40
0.006454718842883
 50
189.7228697582000052
 51
257.0926202808054768
  0
LINE
  5
722B
  8
0
 10
2975.2046630013619506
 20
89.3806696965660166
 30
0.0
 11
2975.2046630013619506
 21
90.2454912633660484
 31
0.0
  0
ARC
  5
722C
  8
0
 10
2974.7141212768428886
 20
89.0605225441393458
 30
0.0
 40
0.6681660815540966
 50
71.1090910325728061
 51
89.8641483251203965
  0
ARC
  5
722D
  8
0
 10
2974.8080030260271087
 20
89.2851965345328438
 30
0.0
 40
0.4255019781261177
 50
31.4955913312258815
 51
73.2752402079702705
  0
ARC
  5
722E
  8
0
 10
2974.9445782445959594
 20
89.3791930046491245
 30
0.0
 40
0.2600889488634659
 50
0.3253066668964359
 51
29.5571828747649903
  0
ARC
  5
722F
  8
0
 10
2974.9241302926698154
 20
89.3848388270811967
 30
0.0
 40
0.2805636867013405
 50
325.2483403741280199
 51
359.1485627467441191
  0
ARC
  5
7230
  8
0
 10
2974.7832245606969082
 20
89.5027854843746553
 30
0.0
 40
0.4638648851086489
 50
286.2242448629870069
 51
323.1988099000365082
  0
ARC
  5
7231
  8
0
 10
2974.7139923583708878
 20
89.6904653240727754
 30
0.0
 40
0.6635622797752134
 50
270.1256626261716747
 51
287.4364397921032719
  0
ARC
  5
7232
  8
0
 10
2974.7188002437551404
 20
89.0936013875921162
 30
0.0
 40
0.6072576529549034
 50
62.1697022711896565
 51
89.4090435687841421
  0
ARC
  5
7233
  8
0
 10
2974.8416493416830235
 20
89.3174278987467289
 30
0.0
 40
0.3519919833069911
 50
15.7339742334962693
 51
62.8444699319914619
  0
ARC
  5
7234
  8
0
 10
2974.9407057507128229
 20
89.366576012762394
 30
0.0
 40
0.244177018327302
 50
330.4592936258284226
 51
10.9308815247756002
  0
ARC
  5
7235
  8
0
 10
2974.8400675317470814
 20
89.4264739432487374
 30
0.0
 40
0.3612736176522701
 50
300.47720278717361
 51
330.0639652775982995
  0
ARC
  5
7236
  8
0
 10
2974.7188519625460685
 20
89.6357380737791658
 30
0.0
 40
0.6031062435735699
 50
270.6892737931736974
 51
300.3185046794296227
  0
ARC
  5
7237
  8
0
 10
2974.7138770536371339
 20
89.0823455055808893
 30
0.0
 40
0.5947297111625685
 50
73.4944248147361208
 51
89.8709018554061174
  0
ARC
  5
7238
  8
0
 10
2974.7435477929070657
 20
89.182816498839685
 30
0.0
 40
0.4899692132314993
 50
56.8957375435903003
 51
73.483127811551384
  0
ARC
  5
7239
  8
0
 10
2974.8518288839818524
 20
89.3375469157506927
 30
0.0
 40
0.3012793980064867
 50
20.1384663524329817
 51
58.0742337904557289
  0
ARC
  5
723A
  8
0
 10
2974.9279670811838514
 20
89.3732036742400737
 30
0.0
 40
0.2176409975782441
 50
338.5425532827866277
 51
18.22601533880988
  0
ARC
  5
723B
  8
0
 10
2974.8396487067070666
 20
89.4162680019224467
 30
0.0
 40
0.3156870280182769
 50
298.9231356075538883
 51
337.1318704932907053
  0
ARC
  5
723C
  8
0
 10
2974.7183868056299616
 20
89.6210676950713037
 30
0.0
 40
0.5536338956902522
 50
270.6054080732210991
 51
299.6567313210244947
  0
ARC
  5
723D
  8
0
 10
2974.8229030566699294
 20
89.6318818389551666
 30
0.0
 40
0.1617037760283428
 50
344.8300731482361243
 51
352.2965246389063054
  0
ARC
  5
723E
  8
0
 10
2974.8587512279727889
 20
89.6219831230419004
 30
0.0
 40
0.1245145689802165
 50
327.198556267555773
 51
344.9096526825065894
  0
ARC
  5
723F
  8
0
 10
2974.8212597224478486
 20
89.6467596297524381
 30
0.0
 40
0.169451111334122
 50
314.0394326536383005
 51
327.0241793399235917
  0
ARC
  5
7240
  8
0
 10
2974.7673144737100301
 20
89.6993043690678462
 30
0.0
 40
0.2447340865129666
 50
298.9675322451496982
 51
314.5667868562018157
  0
ARC
  5
7241
  8
0
 10
2974.7311014934130071
 20
89.7609818333327922
 30
0.0
 40
0.3162389856858779
 50
285.0437344979131922
 51
299.2956985839795152
  0
ARC
  5
7242
  8
0
 10
2974.7132231055229568
 20
89.8229602506768856
 30
0.0
 40
0.380735550279578
 50
270.1032474944223054
 51
285.2211248235379912
  0
ARC
  5
7243
  8
0
 10
2974.7944481813028688
 20
89.6639286319423121
 30
0.0
 40
0.2205600190451004
 50
298.4119854785341772
 51
342.436342520295284
  0
ARC
  5
7244
  8
0
 10
2974.7156434974272088
 20
89.7996452211446723
 30
0.0
 40
0.3774550649140225
 50
270.4715534036096756
 51
299.1311358113587744
  0
ARC
  5
7245
  8
0
 10
2974.8283808468900133
 20
89.620795991784604
 30
0.0
 40
0.3040666868839473
 50
299.9433763169507756
 51
336.2346130576614769
  0
ARC
  5
7246
  8
0
 10
2974.7187746932117989
 20
89.8053533689815993
 30
0.0
 40
0.5187062818998698
 50
270.6890240997336718
 51
300.2587538648139116
  0
ARC
  5
7247
  8
0
 10
2974.7985284183059775
 20
89.6594688897705652
 30
0.0
 40
0.3693011168744893
 50
293.4059611928026925
 51
330.2735743525356042
  0
ARC
  5
7248
  8
0
 10
2974.7155479422967801
 20
89.8402112868646441
 30
0.0
 40
0.5681509431779125
 50
270.3036413388315964
 51
293.8450055210620917
  0
LINE
  5
7249
  8
0
 10
2974.7837968596618339
 20
89.6487044308660472
 30
0.0
 11
2974.7837968596618339
 21
89.6332849322660365
 31
0.0
  0
LINE
  5
724A
  8
0
 10
2974.7837968596618339
 20
89.6332849322660365
 30
0.0
 11
2974.7633244187618402
 21
89.6249265923660516
 31
0.0
  0
LINE
  5
724B
  8
0
 10
2974.7633244187618402
 20
89.6249265923660516
 30
0.0
 11
2974.7428519777618021
 21
89.6332849322660365
 31
0.0
  0
LINE
  5
724C
  8
0
 10
2974.7428519777618021
 20
89.6332849322660365
 30
0.0
 11
2974.7428519777618021
 21
89.6487044308913852
 31
0.0
  0
LINE
  5
724D
  8
0
 10
2974.7837968596618339
 20
89.6487044308660472
 30
0.0
 11
2974.7633238773591984
 21
89.6570625496258486
 31
0.0
  0
LINE
  5
724E
  8
0
 10
2974.7633238773591984
 20
89.6570625496258486
 30
0.0
 11
2974.7428519777618021
 21
89.6487044308913852
 31
0.0
  0
ARC
  5
724F
  8
0
 10
2974.7864164579691533
 20
89.6531333813458815
 30
0.0
 40
0.0051456678521577
 50
239.3968919046745043
 51
296.5706393297228942
  0
LINE
  5
7250
  8
0
 10
2974.7936393792620038
 20
89.6487044308660472
 30
0.0
 11
2974.7936393792620038
 21
89.6332849322660365
 31
0.0
  0
LINE
  5
7251
  8
0
 10
2974.7936393792620038
 20
89.6332849322660365
 30
0.0
 11
2974.8141118201619975
 21
89.6249265923660516
 31
0.0
  0
LINE
  5
7252
  8
0
 10
2974.8141118201619975
 20
89.6249265923660516
 30
0.0
 11
2974.8345842611620355
 21
89.6332849322660365
 31
0.0
  0
LINE
  5
7253
  8
0
 10
2974.8345842611620355
 20
89.6332849322660365
 30
0.0
 11
2974.8345842611620355
 21
89.6487044308913852
 31
0.0
  0
LINE
  5
7254
  8
0
 10
2974.7936393792620038
 20
89.6487044308660472
 30
0.0
 11
2974.8141123615660035
 21
89.6570625496258486
 31
0.0
  0
LINE
  5
7255
  8
0
 10
2974.8141123615660035
 20
89.6570625496258486
 30
0.0
 11
2974.8345842611620355
 21
89.6487044308913852
 31
0.0
  0
ARC
  5
7256
  8
0
 10
2974.7910197809551391
 20
89.6531333813458815
 30
0.0
 40
0.0051456678521577
 50
243.4293606702767079
 51
300.6031080953255241
  0
ARC
  5
7257
  8
0
 10
2974.8372038595698541
 20
89.6531333813458815
 30
0.0
 40
0.0051456678521577
 50
239.3968919046745043
 51
296.5706393297228942
  0
LINE
  5
7258
  8
0
 10
2974.8952141824620412
 20
89.6487211416517766
 30
0.0
 11
2974.8952141824620412
 21
89.6332849322660365
 31
0.0
  0
ARC
  5
7259
  8
0
 10
2974.8925945841551766
 20
89.6531333813458815
 30
0.0
 40
0.0051456678521577
 50
243.4293606702767079
 51
300.6031080953255241
  0
LINE
  5
725A
  8
0
 10
2974.8853716628618713
 20
89.6487044308660472
 30
0.0
 11
2974.8853716628618713
 21
89.6332849322660365
 31
0.0
  0
LINE
  5
725B
  8
0
 10
2974.8853716628618713
 20
89.6332849322660365
 30
0.0
 11
2974.8648992219618776
 21
89.6249265923660516
 31
0.0
  0
LINE
  5
725C
  8
0
 10
2974.8648992219618776
 20
89.6249265923660516
 30
0.0
 11
2974.8444267809618395
 21
89.6332849322660365
 31
0.0
  0
LINE
  5
725D
  8
0
 10
2974.8444267809618395
 20
89.6332849322660365
 30
0.0
 11
2974.8444267809618395
 21
89.6487044308913852
 31
0.0
  0
LINE
  5
725E
  8
0
 10
2974.8853716628618713
 20
89.6487044308660472
 30
0.0
 11
2974.8648986805587811
 21
89.6570625496258486
 31
0.0
  0
LINE
  5
725F
  8
0
 10
2974.8656707554860077
 20
89.6573777667790353
 30
0.0
 11
2974.8444267809618395
 21
89.6487044308913852
 31
0.0
  0
ARC
  5
7260
  8
0
 10
2974.8879912611691907
 20
89.6531333813458815
 30
0.0
 40
0.0051456678521577
 50
239.3968919046745043
 51
296.5706393297228942
  0
ARC
  5
7261
  8
0
 10
2974.8418071825549305
 20
89.6531333813458815
 30
0.0
 40
0.0051456678521577
 50
243.4293606702767079
 51
300.6031080953255241
  0
LINE
  5
7262
  8
0
 10
2974.783796318259192
 20
89.5864993149945548
 30
0.0
 11
2974.783796318259192
 21
89.5710798163945583
 31
0.0
  0
LINE
  5
7263
  8
0
 10
2974.783796318259192
 20
89.5710798163945583
 30
0.0
 11
2974.7633238773591984
 21
89.562721476494545
 31
0.0
  0
LINE
  5
7264
  8
0
 10
2974.7633238773591984
 20
89.562721476494545
 30
0.0
 11
2974.7428514363591603
 21
89.5710798163945583
 31
0.0
  0
LINE
  5
7265
  8
0
 10
2974.7428514363591603
 20
89.5710798163945583
 30
0.0
 11
2974.7428514363591603
 21
89.5864993150198927
 31
0.0
  0
LINE
  5
7266
  8
0
 10
2974.783796318259192
 20
89.5864993149945548
 30
0.0
 11
2974.7633233359561018
 21
89.5948574337543562
 31
0.0
  0
LINE
  5
7267
  8
0
 10
2974.7633233359561018
 20
89.5948574337543562
 30
0.0
 11
2974.7428514363591603
 21
89.5864993150198927
 31
0.0
  0
ARC
  5
7268
  8
0
 10
2974.7864084549851214
 20
89.5908446607113262
 30
0.0
 40
0.0050700382321769
 50
238.9884765829432069
 51
296.9711387185490139
  0
LINE
  5
7269
  8
0
 10
2974.7837968596618339
 20
89.5242941992347454
 30
0.0
 11
2974.7837968596618339
 21
89.5088747006347489
 31
0.0
  0
LINE
  5
726A
  8
0
 10
2974.7837968596618339
 20
89.5088747006347489
 30
0.0
 11
2974.7633244187618402
 21
89.5005163607347356
 31
0.0
  0
LINE
  5
726B
  8
0
 10
2974.7633244187618402
 20
89.5005163607347356
 30
0.0
 11
2974.7428519777618021
 21
89.5088747006347489
 31
0.0
  0
LINE
  5
726C
  8
0
 10
2974.7428519777618021
 20
89.5088747006347489
 30
0.0
 11
2974.7428519777618021
 21
89.5242941992600834
 31
0.0
  0
LINE
  5
726D
  8
0
 10
2974.7837968596618339
 20
89.5242941992347454
 30
0.0
 11
2974.7633238773591984
 21
89.5326523179945468
 31
0.0
  0
LINE
  5
726E
  8
0
 10
2974.7633238773591984
 20
89.5326523179945468
 30
0.0
 11
2974.7428519777618021
 21
89.5242941992600834
 31
0.0
  0
ARC
  5
726F
  8
0
 10
2974.7864164579691533
 20
89.5287231497145939
 30
0.0
 40
0.0051456678521577
 50
239.3968919046745043
 51
296.5706393297228942
  0
LINE
  5
7270
  8
0
 10
2974.758402617459069
 20
89.555396646594545
 30
0.0
 11
2974.758402617459069
 21
89.5399771479945343
 31
0.0
  0
LINE
  5
7271
  8
0
 10
2974.758402617459069
 20
89.5399771479945343
 30
0.0
 11
2974.7379301765590753
 21
89.5316188080945494
 31
0.0
  0
LINE
  5
7272
  8
0
 10
2974.7379301765590753
 20
89.5316188080945494
 30
0.0
 11
2974.7174577355590372
 21
89.5399771479945343
 31
0.0
  0
LINE
  5
7273
  8
0
 10
2974.7174577355590372
 20
89.5399771479945343
 30
0.0
 11
2974.7174577355590372
 21
89.555396646619883
 31
0.0
  0
LINE
  5
7274
  8
0
 10
2974.758402617459069
 20
89.555396646594545
 30
0.0
 11
2974.7379296351559788
 21
89.5637547653543606
 31
0.0
  0
LINE
  5
7275
  8
0
 10
2974.7379296351559788
 20
89.5637547653543606
 30
0.0
 11
2974.7174577355590372
 21
89.555396646619883
 31
0.0
  0
ARC
  5
7276
  8
0
 10
2974.7610222157659337
 20
89.5598255970743935
 30
0.0
 40
0.0051456678521577
 50
239.3968919046745043
 51
296.5706393297228942
  0
LINE
  5
7277
  8
0
 10
2974.8091900190620436
 20
89.5553966466347333
 30
0.0
 11
2974.8091900190620436
 21
89.5399771480347653
 31
0.0
  0
LINE
  5
7278
  8
0
 10
2974.8091900190620436
 20
89.5399771480347653
 30
0.0
 11
2974.7887175781620499
 21
89.5316188081347519
 31
0.0
  0
LINE
  5
7279
  8
0
 10
2974.7887175781620499
 20
89.5316188081347519
 30
0.0
 11
2974.7682451371620118
 21
89.5399771480347653
 31
0.0
  0
LINE
  5
727A
  8
0
 10
2974.7682451371620118
 20
89.5399771480347653
 30
0.0
 11
2974.7682451371620118
 21
89.5553966466600855
 31
0.0
  0
LINE
  5
727B
  8
0
 10
2974.8091900190620436
 20
89.5553966466347333
 30
0.0
 11
2974.7887170367589533
 21
89.5637547653945347
 31
0.0
  0
LINE
  5
727C
  8
0
 10
2974.7887170367589533
 20
89.5637547653945347
 30
0.0
 11
2974.7682451371620118
 21
89.5553966466600855
 31
0.0
  0
ARC
  5
727D
  8
0
 10
2974.8118052905738296
 20
89.5598308741374041
 30
0.0
 40
0.0051480111327587
 50
239.4682399868605955
 51
296.4913746148964151
  0
LINE
  5
727E
  8
0
 10
2974.8599779619621586
 20
89.5553968676347552
 30
0.0
 11
2974.8599779619621586
 21
89.5399773690347445
 31
0.0
  0
LINE
  5
727F
  8
0
 10
2974.8599779619621586
 20
89.5399773690347445
 30
0.0
 11
2974.8395055210621649
 21
89.5316190291347453
 31
0.0
  0
LINE
  5
7280
  8
0
 10
2974.8395055210621649
 20
89.5316190291347453
 30
0.0
 11
2974.8190330800621268
 21
89.5399773690347445
 31
0.0
  0
LINE
  5
7281
  8
0
 10
2974.8190330800621268
 20
89.5399773690347445
 30
0.0
 11
2974.8190330800621268
 21
89.5553968676600931
 31
0.0
  0
LINE
  5
7282
  8
0
 10
2974.8599779619621586
 20
89.5553968676347552
 30
0.0
 11
2974.8395049796590683
 21
89.5637549863945566
 31
0.0
  0
LINE
  5
7283
  8
0
 10
2974.8395049796590683
 20
89.5637549863945566
 30
0.0
 11
2974.8190330800621268
 21
89.5553968676600647
 31
0.0
  0
ARC
  5
7284
  8
0
 10
2974.8625975602690232
 20
89.5598258181146036
 30
0.0
 40
0.0051456678521577
 50
239.3968919046745043
 51
296.5706393297228942
  0
ARC
  5
7285
  8
0
 10
2974.7656236042271303
 20
89.5598805480554887
 30
0.0
 40
0.0051940164278887
 50
243.7195885639750941
 51
300.3128816412203719
  0
ARC
  5
7286
  8
0
 10
2974.8164069758518053
 20
89.5598693752918962
 30
0.0
 40
0.0051864966826509
 50
243.6092659353460874
 51
300.4200052716814753
  0
LINE
  5
7287
  8
0
 10
2974.7936291881410398
 20
89.5864993149945548
 30
0.0
 11
2974.7936291881410398
 21
89.5710798163945583
 31
0.0
  0
LINE
  5
7288
  8
0
 10
2974.7936291881410398
 20
89.5710798163945583
 30
0.0
 11
2974.8141016290410334
 21
89.562721476494545
 31
0.0
  0
LINE
  5
7289
  8
0
 10
2974.8141016290410334
 20
89.562721476494545
 30
0.0
 11
2974.8345740700410715
 21
89.5710798163945583
 31
0.0
  0
LINE
  5
728A
  8
0
 10
2974.8345740700410715
 20
89.5710798163945583
 30
0.0
 11
2974.8345740700410715
 21
89.5864993150198927
 31
0.0
  0
LINE
  5
728B
  8
0
 10
2974.7936291881410398
 20
89.5864993149945548
 30
0.0
 11
2974.81410217044413
 21
89.5948574337543562
 31
0.0
  0
LINE
  5
728C
  8
0
 10
2974.81410217044413
 20
89.5948574337543562
 30
0.0
 11
2974.8345740700410715
 21
89.5864993150198927
 31
0.0
  0
ARC
  5
728D
  8
0
 10
2974.7910095898341751
 20
89.5909282654743748
 30
0.0
 40
0.0051456678521577
 50
243.4293606702767079
 51
300.6031080953255241
  0
ARC
  5
728E
  8
0
 10
2974.8372047088669206
 20
89.5909711930021899
 30
0.0
 40
0.0051882514706553
 50
239.5332903196031111
 51
296.4508590429779247
  0
LINE
  5
728F
  8
0
 10
2974.8952351061079753
 20
89.5864993149945548
 30
0.0
 11
2974.8952351061079753
 21
89.5710798163945583
 31
0.0
  0
LINE
  5
7290
  8
0
 10
2974.8952351061079753
 20
89.5710798163945583
 30
0.0
 11
2974.915707547007969
 21
89.562721476494545
 31
0.0
  0
LINE
  5
7291
  8
0
 10
2974.915707547007969
 20
89.562721476494545
 30
0.0
 11
2974.9361799880080071
 21
89.5710798163945583
 31
0.0
  0
LINE
  5
7292
  8
0
 10
2974.9361799880080071
 20
89.5710798163945583
 30
0.0
 11
2974.9361799880080071
 21
89.5864993150198927
 31
0.0
  0
LINE
  5
7293
  8
0
 10
2974.8952351061079753
 20
89.5864993149945548
 30
0.0
 11
2974.9157080884110655
 21
89.5948574337543562
 31
0.0
  0
LINE
  5
7294
  8
0
 10
2974.9157080884110655
 20
89.5948574337543562
 30
0.0
 11
2974.9361799880080071
 21
89.5864993150198927
 31
0.0
  0
ARC
  5
7295
  8
0
 10
2974.8926229693811365
 20
89.5908446607113262
 30
0.0
 40
0.0050700382321769
 50
243.0288612814505882
 51
301.0115234170568215
  0
LINE
  5
7296
  8
0
 10
2974.8854022362261276
 20
89.5864993149945548
 30
0.0
 11
2974.8854022362261276
 21
89.5710798163945583
 31
0.0
  0
LINE
  5
7297
  8
0
 10
2974.8854022362261276
 20
89.5710798163945583
 30
0.0
 11
2974.8649297953261339
 21
89.562721476494545
 31
0.0
  0
LINE
  5
7298
  8
0
 10
2974.8649297953261339
 20
89.562721476494545
 30
0.0
 11
2974.8444573543260958
 21
89.5710798163945583
 31
0.0
  0
LINE
  5
7299
  8
0
 10
2974.8444573543260958
 20
89.5710798163945583
 30
0.0
 11
2974.8444573543260958
 21
89.5864993150198927
 31
0.0
  0
LINE
  5
729A
  8
0
 10
2974.8854022362261276
 20
89.5864993149945548
 30
0.0
 11
2974.8649292539230373
 21
89.5948574337543562
 31
0.0
  0
LINE
  5
729B
  8
0
 10
2974.8649292539230373
 20
89.5948574337543562
 30
0.0
 11
2974.8444573543260958
 21
89.5864993150198927
 31
0.0
  0
ARC
  5
729C
  8
0
 10
2974.8880218345339017
 20
89.5909282654743748
 30
0.0
 40
0.0051456678521577
 50
239.3968919046745043
 51
296.5706393297228942
  0
ARC
  5
729D
  8
0
 10
2974.841826715499792
 20
89.5909711930021899
 30
0.0
 40
0.0051882514706533
 50
243.5491409570221037
 51
300.4667096804017774
  0
ARC
  5
729E
  8
0
 10
2974.9387694599849965
 20
89.5907579586781537
 30
0.0
 40
0.0049841158623258
 50
238.6982707606258884
 51
297.2266529653932139
  0
LINE
  5
729F
  8
0
 10
2974.9687812234060402
 20
89.5636969497819138
 30
0.0
 11
2974.9663919547879232
 21
89.562721476494545
 31
0.0
  0
LINE
  5
72A0
  8
0
 10
2974.9663919547879232
 20
89.562721476494545
 30
0.0
 11
2974.9459195137887946
 21
89.5710798163945583
 31
0.0
  0
LINE
  5
72A1
  8
0
 10
2974.9459195137887946
 20
89.5710798163945583
 30
0.0
 11
2974.9459195137887946
 21
89.5864993150198927
 31
0.0
  0
LINE
  5
72A2
  8
0
 10
2974.9790097750128552
 20
89.5897059729908989
 30
0.0
 11
2974.9663914133848266
 21
89.5948574337543562
 31
0.0
  0
LINE
  5
72A3
  8
0
 10
2974.9663914133848266
 20
89.5948574337543562
 30
0.0
 11
2974.9459195137887946
 21
89.5864993150198927
 31
0.0
  0
ARC
  5
72A4
  8
0
 10
2974.9433300418108956
 20
89.5907579586781537
 30
0.0
 40
0.0049841158623272
 50
242.7733470346059903
 51
301.301729239347992
  0
LINE
  5
72A5
  8
0
 10
2974.9206084244619888
 20
89.5553966466347333
 30
0.0
 11
2974.9206084244619888
 21
89.5399771480347653
 31
0.0
  0
LINE
  5
72A6
  8
0
 10
2974.9206084244619888
 20
89.5399771480347653
 30
0.0
 11
2974.9410808653619824
 21
89.5316188081347519
 31
0.0
  0
LINE
  5
72A7
  8
0
 10
2974.9410808653619824
 20
89.5316188081347519
 30
0.0
 11
2974.9482204181799716
 21
89.5345336930371616
 31
0.0
  0
LINE
  5
72A8
  8
0
 10
2974.9615533063620205
 20
89.5517260070448344
 30
0.0
 11
2974.9615533063620205
 21
89.5553966466600855
 31
0.0
  0
LINE
  5
72A9
  8
0
 10
2974.9206084244619888
 20
89.5553966466347333
 30
0.0
 11
2974.941081406765079
 21
89.5637547653945347
 31
0.0
  0
LINE
  5
72AA
  8
0
 10
2974.941081406765079
 20
89.5637547653945347
 30
0.0
 11
2974.9615533063620205
 21
89.5553966466600855
 31
0.0
  0
ARC
  5
72AB
  8
0
 10
2974.9179931529511123
 20
89.5598308741374041
 30
0.0
 40
0.0051480111327587
 50
243.5086253851036133
 51
300.531760013139376
  0
LINE
  5
72AC
  8
0
 10
2974.8698204815618737
 20
89.5553968676347552
 30
0.0
 11
2974.8698204815618737
 21
89.5399773690347445
 31
0.0
  0
LINE
  5
72AD
  8
0
 10
2974.8698204815618737
 20
89.5399773690347445
 30
0.0
 11
2974.8902929224618674
 21
89.5316190291347453
 31
0.0
  0
LINE
  5
72AE
  8
0
 10
2974.8902929224618674
 20
89.5316190291347453
 30
0.0
 11
2974.9107653634619055
 21
89.5399773690347445
 31
0.0
  0
LINE
  5
72AF
  8
0
 10
2974.9107653634619055
 20
89.5399773690347445
 30
0.0
 11
2974.9107653634619055
 21
89.5553968676600931
 31
0.0
  0
LINE
  5
72B0
  8
0
 10
2974.8698204815618737
 20
89.5553968676347552
 30
0.0
 11
2974.890293463864964
 21
89.5637549863945566
 31
0.0
  0
LINE
  5
72B1
  8
0
 10
2974.890293463864964
 20
89.5637549863945566
 30
0.0
 11
2974.9107653634619055
 21
89.5553968676600647
 31
0.0
  0
ARC
  5
72B2
  8
0
 10
2974.8672008832540996
 20
89.5598258181146036
 30
0.0
 40
0.0051456678521577
 50
243.4293606702767079
 51
300.6031080953255241
  0
ARC
  5
72B3
  8
0
 10
2974.9641748392969021
 20
89.5598805480554887
 30
0.0
 40
0.0051940164278887
 50
239.6871183587795997
 51
262.9597956172968907
  0
ARC
  5
72B4
  8
0
 10
2974.913391467672227
 20
89.5598693752918962
 30
0.0
 40
0.0051864966826509
 50
239.579994728318411
 51
296.3907340646538273
  0
LINE
  5
72B5
  8
0
 10
2974.7936393792620038
 20
89.5242941992347454
 30
0.0
 11
2974.7936393792620038
 21
89.5088747006347489
 31
0.0
  0
LINE
  5
72B6
  8
0
 10
2974.7936393792620038
 20
89.5088747006347489
 30
0.0
 11
2974.8141118201619975
 21
89.5005163607347356
 31
0.0
  0
LINE
  5
72B7
  8
0
 10
2974.8141118201619975
 20
89.5005163607347356
 30
0.0
 11
2974.8345842611620355
 21
89.5088747006347489
 31
0.0
  0
LINE
  5
72B8
  8
0
 10
2974.8345842611620355
 20
89.5088747006347489
 30
0.0
 11
2974.8345842611620355
 21
89.5242941992600834
 31
0.0
  0
LINE
  5
72B9
  8
0
 10
2974.7936393792620038
 20
89.5242941992347454
 30
0.0
 11
2974.8141123615660035
 21
89.5326523179945468
 31
0.0
  0
LINE
  5
72BA
  8
0
 10
2974.8141123615660035
 20
89.5326523179945468
 30
0.0
 11
2974.8345842611620355
 21
89.5242941992600834
 31
0.0
  0
ARC
  5
72BB
  8
0
 10
2974.7910197809551391
 20
89.5287231497145939
 30
0.0
 40
0.0051456678521577
 50
243.4293606702767079
 51
300.6031080953255241
  0
LINE
  5
72BC
  8
0
 10
2974.8952141824620412
 20
89.5242941992347454
 30
0.0
 11
2974.8952141824620412
 21
89.5088747006347489
 31
0.0
  0
LINE
  5
72BD
  8
0
 10
2974.8952141824620412
 20
89.5088747006347489
 30
0.0
 11
2974.9120895419569024
 21
89.5019849510790806
 31
0.0
  0
LINE
  5
72BE
  8
0
 10
2974.936159064362073
 20
89.5221426426455764
 30
0.0
 11
2974.936159064362073
 21
89.5242941992600834
 31
0.0
  0
LINE
  5
72BF
  8
0
 10
2974.8952141824620412
 20
89.5242941992347454
 30
0.0
 11
2974.9156871647651315
 21
89.5326523179945468
 31
0.0
  0
LINE
  5
72C0
  8
0
 10
2974.9156871647651315
 20
89.5326523179945468
 30
0.0
 11
2974.936159064362073
 21
89.5242941992600834
 31
0.0
  0
ARC
  5
72C1
  8
0
 10
2974.8925945841551766
 20
89.5287231497145939
 30
0.0
 40
0.0051456678521577
 50
243.4293606702767079
 51
300.6031080953255241
  0
LINE
  5
72C2
  8
0
 10
2974.8853716628618713
 20
89.5242941992347454
 30
0.0
 11
2974.8853716628618713
 21
89.5088747006347489
 31
0.0
  0
LINE
  5
72C3
  8
0
 10
2974.8853716628618713
 20
89.5088747006347489
 30
0.0
 11
2974.8648992219618776
 21
89.5005163607347356
 31
0.0
  0
LINE
  5
72C4
  8
0
 10
2974.8648992219618776
 20
89.5005163607347356
 30
0.0
 11
2974.8444267809618395
 21
89.5088747006347489
 31
0.0
  0
LINE
  5
72C5
  8
0
 10
2974.8444267809618395
 20
89.5088747006347489
 30
0.0
 11
2974.8444267809618395
 21
89.5242941992600834
 31
0.0
  0
LINE
  5
72C6
  8
0
 10
2974.8853716628618713
 20
89.5242941992347454
 30
0.0
 11
2974.8648986805587811
 21
89.5326523179945468
 31
0.0
  0
LINE
  5
72C7
  8
0
 10
2974.8648986805587811
 20
89.5326523179945468
 30
0.0
 11
2974.8444267809618395
 21
89.5242941992600834
 31
0.0
  0
ARC
  5
72C8
  8
0
 10
2974.8879912611691907
 20
89.5287231497145939
 30
0.0
 40
0.0051456678521577
 50
239.3968919046745043
 51
296.5706393297228942
  0
ARC
  5
72C9
  8
0
 10
2974.8372000304279936
 20
89.5287441733916012
 30
0.0
 40
0.0051618328746631
 50
239.5522750417441102
 51
296.5366562788536271
  0
ARC
  5
72CA
  8
0
 10
2974.8418116172279042
 20
89.528744630890003
 30
0.0
 40
0.0051619204806386
 50
243.4727642948955122
 51
300.4393573064517113
  0
LINE
  5
72CB
  8
0
 10
2974.7584031588621656
 20
89.4931915307347339
 30
0.0
 11
2974.7584031588621656
 21
89.4777720321347374
 31
0.0
  0
LINE
  5
72CC
  8
0
 10
2974.7584031588621656
 20
89.4777720321347374
 30
0.0
 11
2974.7379307179621719
 21
89.4694136922347525
 31
0.0
  0
LINE
  5
72CD
  8
0
 10
2974.7379307179621719
 20
89.4694136922347525
 30
0.0
 11
2974.7174582769621338
 21
89.4777720321347374
 31
0.0
  0
LINE
  5
72CE
  8
0
 10
2974.7174582769621338
 20
89.4777720321347374
 30
0.0
 11
2974.7174582769621338
 21
89.493191530760086
 31
0.0
  0
LINE
  5
72CF
  8
0
 10
2974.7584031588621656
 20
89.4931915307347339
 30
0.0
 11
2974.7379301765590753
 21
89.5015496494945637
 31
0.0
  0
LINE
  5
72D0
  8
0
 10
2974.7379301765590753
 20
89.5015496494945637
 30
0.0
 11
2974.7174582769621338
 21
89.493191530760086
 31
0.0
  0
ARC
  5
72D1
  8
0
 10
2974.7610227571690302
 20
89.4976204812145966
 30
0.0
 40
0.0051456678521577
 50
239.3968919046745043
 51
296.5706393297228942
  0
LINE
  5
72D2
  8
0
 10
2974.7682456784618807
 20
89.4931915307347339
 30
0.0
 11
2974.7682456784618807
 21
89.4777720321347374
 31
0.0
  0
LINE
  5
72D3
  8
0
 10
2974.7682456784618807
 20
89.4777720321347374
 30
0.0
 11
2974.7887181193618744
 21
89.4694136922347525
 31
0.0
  0
LINE
  5
72D4
  8
0
 10
2974.7887181193618744
 20
89.4694136922347525
 30
0.0
 11
2974.8091905603619125
 21
89.4777720321347374
 31
0.0
  0
LINE
  5
72D5
  8
0
 10
2974.8091905603619125
 20
89.4777720321347374
 30
0.0
 11
2974.8091905603619125
 21
89.493191530760086
 31
0.0
  0
LINE
  5
72D6
  8
0
 10
2974.7682456784618807
 20
89.4931915307347339
 30
0.0
 11
2974.7887186607658805
 21
89.5015496494945637
 31
0.0
  0
LINE
  5
72D7
  8
0
 10
2974.7887186607658805
 20
89.5015496494945637
 30
0.0
 11
2974.8091905603619125
 21
89.493191530760086
 31
0.0
  0
ARC
  5
72D8
  8
0
 10
2974.7656260801541066
 20
89.4976204812145966
 30
0.0
 40
0.0051456678521577
 50
243.4293606702767079
 51
300.6031080953255241
  0
LINE
  5
72D9
  8
0
 10
2974.8698204816619182
 20
89.4931915307347339
 30
0.0
 11
2974.8698204816619182
 21
89.4777720321347374
 31
0.0
  0
LINE
  5
72DA
  8
0
 10
2974.8698204816619182
 20
89.4777720321347374
 30
0.0
 11
2974.8709114338871586
 21
89.4773266260613269
 31
0.0
  0
LINE
  5
72DB
  8
0
 10
2974.8698204816619182
 20
89.4931915307347339
 30
0.0
 11
2974.8902934639659179
 21
89.5015496494945637
 31
0.0
  0
ARC
  5
72DC
  8
0
 10
2974.8672008833550535
 20
89.4976204812145966
 30
0.0
 40
0.0051456678521577
 50
243.4293606702767079
 51
300.6031080953255241
  0
LINE
  5
72DD
  8
0
 10
2974.859977962062203
 20
89.4931915307347339
 30
0.0
 11
2974.859977962062203
 21
89.4777720321347374
 31
0.0
  0
LINE
  5
72DE
  8
0
 10
2974.859977962062203
 20
89.4777720321347374
 30
0.0
 11
2974.8395055211622093
 21
89.4694136922347525
 31
0.0
  0
LINE
  5
72DF
  8
0
 10
2974.8424710257618244
 20
89.4682029575000968
 30
0.0
 11
2974.8190330801630807
 21
89.4777720321347374
 31
0.0
  0
LINE
  5
72E0
  8
0
 10
2974.8190330801630807
 20
89.4777720321347374
 30
0.0
 11
2974.8190330801630807
 21
89.493191530760086
 31
0.0
  0
LINE
  5
72E1
  8
0
 10
2974.859977962062203
 20
89.4931915307347339
 30
0.0
 11
2974.8395049797591128
 21
89.5015496494945637
 31
0.0
  0
LINE
  5
72E2
  8
0
 10
2974.8395049797591128
 20
89.5015496494945637
 30
0.0
 11
2974.8190330801630807
 21
89.493191530760086
 31
0.0
  0
ARC
  5
72E3
  8
0
 10
2974.8625975603690677
 20
89.4976204812145966
 30
0.0
 40
0.0051456678521577
 50
239.3968919046745043
 51
296.5706393297228942
  0
ARC
  5
72E4
  8
0
 10
2974.8118063296287801
 20
89.4976415048916039
 30
0.0
 40
0.0051618328746631
 50
239.5522750417441102
 51
296.5366562788536271
  0
ARC
  5
72E5
  8
0
 10
2974.8164179164277812
 20
89.4976419623900057
 30
0.0
 40
0.0051619204806386
 50
243.4727642948955122
 51
300.4393573064517113
  0
LINE
  5
72E6
  8
0
 10
2974.7584020760550629
 20
89.6176022045230525
 30
0.0
 11
2974.7584020760550629
 21
89.602182705923056
 31
0.0
  0
LINE
  5
72E7
  8
0
 10
2974.7584020760550629
 20
89.602182705923056
 30
0.0
 11
2974.7379296351559788
 21
89.5938243660230569
 31
0.0
  0
LINE
  5
72E8
  8
0
 10
2974.7379296351559788
 20
89.5938243660230569
 30
0.0
 11
2974.7174571941559407
 21
89.602182705923056
 31
0.0
  0
LINE
  5
72E9
  8
0
 10
2974.7174571941559407
 20
89.602182705923056
 30
0.0
 11
2974.7174571941559407
 21
89.6176022045484046
 31
0.0
  0
LINE
  5
72EA
  8
0
 10
2974.7584020760550629
 20
89.6176022045230525
 30
0.0
 11
2974.7379290937519727
 21
89.6259603232828681
 31
0.0
  0
LINE
  5
72EB
  8
0
 10
2974.7379290937519727
 20
89.6259603232828681
 30
0.0
 11
2974.7174571941559407
 21
89.6176022045484046
 31
0.0
  0
ARC
  5
72EC
  8
0
 10
2974.7610142127819017
 20
89.6219475502398382
 30
0.0
 40
0.0050700382321769
 50
238.9884765829432069
 51
296.9711387185490139
  0
LINE
  5
72ED
  8
0
 10
2974.7682349459369107
 20
89.6176022045230525
 30
0.0
 11
2974.7682349459369107
 21
89.602182705923056
 31
0.0
  0
LINE
  5
72EE
  8
0
 10
2974.7682349459369107
 20
89.602182705923056
 30
0.0
 11
2974.7887073868369043
 21
89.5938243660230569
 31
0.0
  0
LINE
  5
72EF
  8
0
 10
2974.7887073868369043
 20
89.5938243660230569
 30
0.0
 11
2974.8091798278378519
 21
89.602182705923056
 31
0.0
  0
LINE
  5
72F0
  8
0
 10
2974.8091798278378519
 20
89.602182705923056
 30
0.0
 11
2974.8091798278378519
 21
89.6176022045484046
 31
0.0
  0
LINE
  5
72F1
  8
0
 10
2974.7682349459369107
 20
89.6176022045230525
 30
0.0
 11
2974.7887079282409104
 21
89.6259603232828681
 31
0.0
  0
LINE
  5
72F2
  8
0
 10
2974.7887079282409104
 20
89.6259603232828681
 30
0.0
 11
2974.8091798278378519
 21
89.6176022045484046
 31
0.0
  0
ARC
  5
72F3
  8
0
 10
2974.765615347630046
 20
89.622031155002901
 30
0.0
 40
0.0051456678521577
 50
243.4293606702767079
 51
300.6031080953255241
  0
ARC
  5
72F4
  8
0
 10
2974.8118104666641557
 20
89.6220740825306876
 30
0.0
 40
0.0051882514706553
 50
239.5332903196031111
 51
296.4508590429779247
  0
LINE
  5
72F5
  8
0
 10
2974.8698408639052104
 20
89.6176022045230525
 30
0.0
 11
2974.8698408639052104
 21
89.602182705923056
 31
0.0
  0
LINE
  5
72F6
  8
0
 10
2974.8698408639052104
 20
89.602182705923056
 30
0.0
 11
2974.8903133048052041
 21
89.5938243660230569
 31
0.0
  0
LINE
  5
72F7
  8
0
 10
2974.8903133048052041
 20
89.5938243660230569
 30
0.0
 11
2974.9107857458047874
 21
89.602182705923056
 31
0.0
  0
LINE
  5
72F8
  8
0
 10
2974.9107857458047874
 20
89.602182705923056
 30
0.0
 11
2974.9107857458047874
 21
89.6176022045484046
 31
0.0
  0
LINE
  5
72F9
  8
0
 10
2974.8698408639052104
 20
89.6176022045230525
 30
0.0
 11
2974.8903138462078459
 21
89.6259603232828681
 31
0.0
  0
LINE
  5
72FA
  8
0
 10
2974.8903138462078459
 20
89.6259603232828681
 30
0.0
 11
2974.9107857458047874
 21
89.6176022045484046
 31
0.0
  0
ARC
  5
72FB
  8
0
 10
2974.8672287271788264
 20
89.6219475502398382
 30
0.0
 40
0.0050700382321769
 50
243.0288612814505882
 51
301.0115234170568215
  0
LINE
  5
72FC
  8
0
 10
2974.860007994022908
 20
89.6176022045230525
 30
0.0
 11
2974.860007994022908
 21
89.602182705923056
 31
0.0
  0
LINE
  5
72FD
  8
0
 10
2974.860007994022908
 20
89.602182705923056
 30
0.0
 11
2974.8395355531229143
 21
89.5938243660230569
 31
0.0
  0
LINE
  5
72FE
  8
0
 10
2974.8395355531229143
 20
89.5938243660230569
 30
0.0
 11
2974.8190631121228762
 21
89.602182705923056
 31
0.0
  0
LINE
  5
72FF
  8
0
 10
2974.8190631121228762
 20
89.602182705923056
 30
0.0
 11
2974.8190631121228762
 21
89.6176022045484046
 31
0.0
  0
LINE
  5
7300
  8
0
 10
2974.860007994022908
 20
89.6176022045230525
 30
0.0
 11
2974.8395350117189082
 21
89.6259603232828681
 31
0.0
  0
LINE
  5
7301
  8
0
 10
2974.8395350117189082
 20
89.6259603232828681
 30
0.0
 11
2974.8190631121228762
 21
89.6176022045484046
 31
0.0
  0
ARC
  5
7302
  8
0
 10
2974.8626275923302273
 20
89.622031155002901
 30
0.0
 40
0.0051456678521577
 50
239.3968919046745043
 51
296.5706393297228942
  0
ARC
  5
7303
  8
0
 10
2974.8164324732970272
 20
89.6220740825306876
 30
0.0
 40
0.0051882514706533
 50
243.5491409570221037
 51
300.4667096804017774
  0
ARC
  5
7304
  8
0
 10
2974.9133752177817769
 20
89.6218608482066657
 30
0.0
 40
0.0049841158623258
 50
238.6982707606258884
 51
297.2266529653932139
  0
LINE
  5
7305
  8
0
 10
2974.9409977125851583
 20
89.5938243660230569
 30
0.0
 11
2974.9205252715851202
 21
89.602182705923056
 31
0.0
  0
LINE
  5
7306
  8
0
 10
2974.9205252715851202
 20
89.602182705923056
 30
0.0
 11
2974.9205252715851202
 21
89.6176022045484046
 31
0.0
  0
LINE
  5
7307
  8
0
 10
2974.9409971711820617
 20
89.6259603232828681
 30
0.0
 11
2974.9205252715851202
 21
89.6176022045484046
 31
0.0
  0
ARC
  5
7308
  8
0
 10
2974.9179357996081308
 20
89.6218608482066657
 30
0.0
 40
0.0049841158623272
 50
242.7733470346059903
 51
301.301729239347992
  0
LINE
  5
7309
  8
0
 10
2974.9409966297789651
 20
89.5938243660230569
 30
0.0
 11
2974.9614690707790032
 21
89.602182705923056
 31
0.0
  0
LINE
  5
730A
  8
0
 10
2974.9614690707790032
 20
89.602182705923056
 30
0.0
 11
2974.9614690707790032
 21
89.6176022045484046
 31
0.0
  0
LINE
  5
730B
  8
0
 10
2974.9409971711820617
 20
89.6259603232828681
 30
0.0
 11
2974.9614690707790032
 21
89.6176022045484046
 31
0.0
  0
ARC
  5
730C
  8
0
 10
2974.9640585427559927
 20
89.6218608482066657
 30
0.0
 40
0.0049841158623272
 50
238.698270760652008
 51
297.2266529653940097
  0
LINE
  5
730D
  8
0
 10
2974.8952141824620412
 20
89.6332849322660365
 30
0.0
 11
2974.9156866233620349
 21
89.6249265923660516
 31
0.0
  0
LINE
  5
730E
  8
0
 10
2974.9156866233620349
 20
89.6249265923660516
 30
0.0
 11
2974.9362240182867936
 21
89.6333114511840421
 31
0.0
  0
ARC
  5
730F
  8
0
 10
2974.7863696821232224
 20
89.6348522613159986
 30
0.0
 40
0.0074367343835708
 50
288.4084387725914098
 51
347.8333984186364205
  0
ARC
  5
7310
  8
0
 10
2974.7907684131409951
 20
89.6345849486022814
 30
0.0
 40
0.007091727602766
 50
190.5628785728503942
 51
253.1952830785232891
  0
ARC
  5
7311
  8
0
 10
2974.8371570838239677
 20
89.6348522613286889
 30
0.0
 40
0.0074367343835708
 50
288.4084387725914098
 51
347.8333984186364205
  0
ARC
  5
7312
  8
0
 10
2974.8415558148408309
 20
89.6345849486149433
 30
0.0
 40
0.007091727602766
 50
190.5628785728503942
 51
253.1952830785232891
  0
ARC
  5
7313
  8
0
 10
2974.8879444853241694
 20
89.6348522613159986
 30
0.0
 40
0.0074367343835708
 50
288.4084387725914098
 51
347.8333984186364205
  0
ARC
  5
7314
  8
0
 10
2974.892343216341942
 20
89.6345849486022814
 30
0.0
 40
0.007091727602766
 50
190.5628785728503942
 51
253.1952830785232891
  0
ARC
  5
7315
  8
0
 10
2974.9132555744458841
 20
89.6037500349856941
 30
0.0
 40
0.0074367343835708
 50
288.4084387725914098
 51
347.8333984186364205
  0
ARC
  5
7316
  8
0
 10
2974.9174672329431814
 20
89.6031886562845159
 30
0.0
 40
0.0067567896599692
 50
188.5620223630749877
 51
253.992964562189087
  0
ARC
  5
7317
  8
0
 10
2974.8625711667659743
 20
89.603750034973018
 30
0.0
 40
0.0074367343835708
 50
288.4084387725914098
 51
347.8333984186364205
  0
ARC
  5
7318
  8
0
 10
2974.8669518091528516
 20
89.6034542880936584
 30
0.0
 40
0.0070592839428533
 50
190.3772771883691064
 51
253.2691059686299866
  0
ARC
  5
7319
  8
0
 10
2974.8117934149840949
 20
89.6037500349856941
 30
0.0
 40
0.0074367343835708
 50
288.4084387725914098
 51
347.8333984186364205
  0
ARC
  5
731A
  8
0
 10
2974.8162698914939028
 20
89.603604933191292
 30
0.0
 40
0.0072313023071549
 50
191.3426770469594089
 51
252.8855363743925864
  0
ARC
  5
731B
  8
0
 10
2974.7609652487990388
 20
89.603750034973018
 30
0.0
 40
0.0074367343835708
 50
288.4084387725914098
 51
347.8333984186364205
  0
ARC
  5
731C
  8
0
 10
2974.7653458911859161
 20
89.6034542880936584
 30
0.0
 40
0.0070592839428505
 50
190.3772771883452037
 51
253.269105968630214
  0
ARC
  5
731D
  8
0
 10
2974.9386498166500132
 20
89.5726471454571964
 30
0.0
 40
0.0074367343835708
 50
288.4084387725914098
 51
347.8333984186364205
  0
ARC
  5
731E
  8
0
 10
2974.9428614751468558
 20
89.572085766756004
 30
0.0
 40
0.006756789659969
 50
188.5620223630685928
 51
253.9929645621897976
  0
ARC
  5
731F
  8
0
 10
2974.887965408969194
 20
89.5726471454445203
 30
0.0
 40
0.0074367343835708
 50
288.4084387725914098
 51
347.8333984186364205
  0
ARC
  5
7320
  8
0
 10
2974.8923460513569808
 20
89.5723513985651607
 30
0.0
 40
0.0070592839428505
 50
190.377277188338013
 51
253.269105968630214
  0
ARC
  5
7321
  8
0
 10
2974.837187657188224
 20
89.5726471454571964
 30
0.0
 40
0.0074367343835708
 50
288.4084387725914098
 51
347.8333984186364205
  0
ARC
  5
7322
  8
0
 10
2974.8416641336971225
 20
89.5725020436627801
 30
0.0
 40
0.0072313023071524
 50
191.3426770469434928
 51
252.8855363743940075
  0
ARC
  5
7323
  8
0
 10
2974.7863594910018037
 20
89.5726471454445203
 30
0.0
 40
0.0074367343835708
 50
288.4084387725914098
 51
347.8333984186364205
  0
ARC
  5
7324
  8
0
 10
2974.7907401333900452
 20
89.5723513985651607
 30
0.0
 40
0.0070592839428505
 50
190.377277188338013
 51
253.269105968630214
  0
ARC
  5
7325
  8
0
 10
2974.7355817392199242
 20
89.5726471454571964
 30
0.0
 40
0.0074367343835708
 50
288.4084387725914098
 51
347.8333984186364205
  0
ARC
  5
7326
  8
0
 10
2974.7399404002849224
 20
89.572316845350926
 30
0.0
 40
0.00701987430943
 50
190.1495521498708001
 51
253.3597338728642967
  0
ARC
  5
7327
  8
0
 10
2974.76097544002414
 20
89.541544477097375
 30
0.0
 40
0.0074367343835708
 50
288.4084387725914098
 51
347.8333984186364205
  0
ARC
  5
7328
  8
0
 10
2974.7653741710419126
 20
89.5412771643836436
 30
0.0
 40
0.007091727602766
 50
190.5628785728503942
 51
253.1952830785232891
  0
ARC
  5
7329
  8
0
 10
2974.8117633829238002
 20
89.5415446980973968
 30
0.0
 40
0.0074367343835708
 50
288.4084387725914098
 51
347.8333984186364205
  0
ARC
  5
732A
  8
0
 10
2974.8161632099740928
 20
89.5412791082768962
 30
0.0
 40
0.0070936938171988
 50
190.5758890076170928
 51
253.1908316744712977
  0
ARC
  5
732B
  8
0
 10
2974.8625507844240019
 20
89.5415446980847207
 30
0.0
 40
0.0074367343835708
 50
288.4084387725914098
 51
347.8333984186364205
  0
ARC
  5
732C
  8
0
 10
2974.8669495154408651
 20
89.5412773853709894
 30
0.0
 40
0.007091727602766
 50
190.5628785728503942
 51
253.1952830785232891
  0
ARC
  5
732D
  8
0
 10
2974.9133387273232074
 20
89.5415444770847273
 30
0.0
 40
0.0074367343835708
 50
288.4084387725914098
 51
347.8333984186364205
  0
ARC
  5
732E
  8
0
 10
2974.9177383990900125
 20
89.541278643204663
 30
0.0
 40
0.0070934152800433
 50
190.5706717283501916
 51
253.1914622800921109
  0
ARC
  5
732F
  8
0
 10
2974.8879444853241694
 20
89.5104420296847252
 30
0.0
 40
0.0074367343835708
 50
288.4084387725914098
 51
347.8333984186364205
  0
ARC
  5
7330
  8
0
 10
2974.892343216341942
 20
89.5101747169709654
 30
0.0
 40
0.007091727602766
 50
190.5628785728503942
 51
253.1952830785232891
  0
ARC
  5
7331
  8
0
 10
2974.8371570838239677
 20
89.5104420296973871
 30
0.0
 40
0.0074367343835708
 50
288.4084387725914098
 51
347.8333984186364205
  0
ARC
  5
7332
  8
0
 10
2974.8415558148408309
 20
89.5101747169836557
 30
0.0
 40
0.007091727602766
 50
190.5628785728503942
 51
253.1952830785232891
  0
ARC
  5
7333
  8
0
 10
2974.7863696821232224
 20
89.5104420296847252
 30
0.0
 40
0.0074367343835708
 50
288.4084387725914098
 51
347.8333984186364205
  0
ARC
  5
7334
  8
0
 10
2974.7907684131409951
 20
89.5101747169709654
 30
0.0
 40
0.007091727602766
 50
190.5628785728503942
 51
253.1952830785232891
  0
ARC
  5
7335
  8
0
 10
2974.7355822806239303
 20
89.5104420296973871
 30
0.0
 40
0.0074367343835708
 50
288.4084387725914098
 51
347.8333984186364205
  0
ARC
  5
7336
  8
0
 10
2974.7399648849559526
 20
89.5101603616779045
 30
0.0
 40
0.0070733319410123
 50
190.4760347496032011
 51
253.2867166335184947
  0
ARC
  5
7337
  8
0
 10
2974.8625507845240463
 20
89.4793393611847137
 30
0.0
 40
0.0074367343835708
 50
338.5710445756230911
 51
347.8333984186364205
  0
ARC
  5
7338
  8
0
 10
2974.866949515541819
 20
89.4790720484709823
 30
0.0
 40
0.007091727602766
 50
190.5628785728503942
 51
232.9311429207255912
  0
ARC
  5
7339
  8
0
 10
2974.8117633830229352
 20
89.4793393611973755
 30
0.0
 40
0.0074367343835708
 50
288.4084387725914098
 51
347.8333984186364205
  0
ARC
  5
733A
  8
0
 10
2974.8161621140420721
 20
89.4790720484836584
 30
0.0
 40
0.007091727602766
 50
190.5628785728503942
 51
253.1952830785232891
  0
ARC
  5
733B
  8
0
 10
2974.7609759813240089
 20
89.4793393611847137
 30
0.0
 40
0.0074367343835708
 50
288.4084387725914098
 51
347.8333984186364205
  0
ARC
  5
733C
  8
0
 10
2974.7653747123417816
 20
89.4790720484709823
 30
0.0
 40
0.007091727602766
 50
190.5628785728503942
 51
253.1952830785232891
  0
ARC
  5
733D
  8
0
 10
2974.9639388994200999
 20
89.6037500349856941
 30
0.0
 40
0.0074367343835708
 50
288.4084387725914098
 51
347.8333984186364205
  0
ARC
  5
733E
  8
0
 10
2974.9681505579169425
 20
89.6031886562845159
 30
0.0
 40
0.0067567896599692
 50
188.5620223630749877
 51
253.992964562189087
  0
LINE
  5
733F
  8
0
 10
2974.9036821290419539
 20
89.4960837114552135
 30
0.0
 11
2974.8902934639659179
 21
89.5015496494945637
 31
0.0
  0
LINE
  5
7340
  8
0
 10
2974.7330094803619431
 20
89.4620892296344152
 30
0.0
 11
2974.7125370171120267
 21
89.4704471364901082
 31
0.0
  0
ARC
  5
7341
  8
0
 10
2974.7356290786688078
 20
89.4665181801142637
 30
0.0
 40
0.0051456678521577
 50
239.3968919046745043
 51
296.5706393297228942
  0
LINE
  5
7342
  8
0
 10
2974.7428519999630225
 20
89.4620892296344152
 30
0.0
 11
2974.7633249822652033
 21
89.4704473483942309
 31
0.0
  0
LINE
  5
7343
  8
0
 10
2974.7633249822652033
 20
89.4704473483942309
 30
0.0
 11
2974.7837968818621448
 21
89.4620892296597674
 31
0.0
  0
ARC
  5
7344
  8
0
 10
2974.7402324016547936
 20
89.4665181801142637
 30
0.0
 40
0.0051456678521577
 50
243.4293606702767079
 51
300.6031080953255241
  0
ARC
  5
7345
  8
0
 10
2974.7864126511290124
 20
89.466539203791271
 30
0.0
 40
0.0051618328746631
 50
239.5522750417441102
 51
296.5366562788536271
  0
ARC
  5
7346
  8
0
 10
2974.791020169832791
 20
89.4666583503206141
 30
0.0
 40
0.0052666019566772
 50
244.0890660775478977
 51
299.8222323680518002
  0
LINE
  5
7347
  8
0
 10
2974.7936393070272061
 20
89.4620891910405902
 30
0.0
 11
2974.8141122893312058
 21
89.4704473098003916
 31
0.0
  0
LINE
  5
7348
  8
0
 10
2974.8141122893312058
 20
89.4704473098003916
 30
0.0
 11
2974.8344990666560079
 21
89.4621239441695053
 31
0.0
  0
ARC
  5
7349
  8
0
 10
2974.8366329376131034
 20
89.4690975929609635
 30
0.0
 40
0.0059062378759409
 50
296.8858539996385844
 51
351.2877023542698112
  0
LINE
  5
734A
  8
0
 10
2974.8515331678058828
 20
89.6609249932672157
 30
0.0
 11
2974.8395055210621649
 21
89.6560970705160258
 31
0.0
  0
LINE
  5
734B
  8
0
 10
2974.8395055210621649
 20
89.6560970705160258
 30
0.0
 11
2974.8190330801630807
 21
89.6643876006660463
 31
0.0
  0
LINE
  5
734C
  8
0
 10
2974.8190330801630807
 20
89.6643876006660463
 30
0.0
 11
2974.8190330801630807
 21
89.6677049160502264
 31
0.0
  0
ARC
  5
734D
  8
0
 10
2974.8116169814788918
 20
89.666086191769395
 30
0.0
 40
0.0076081358702233
 50
289.1424080403677976
 51
347.0994291551219249
  0
ARC
  5
734E
  8
0
 10
2974.8166058795668505
 20
89.6660854927621216
 30
0.0
 40
0.0076072199260053
 50
192.8967498684710904
 51
250.8614117829056056
  0
LINE
  5
734F
  8
0
 10
2974.8091905604619569
 20
89.6643876006660463
 30
0.0
 11
2974.8091905604619569
 21
89.6693878931103256
 31
0.0
  0
LINE
  5
7350
  8
0
 10
2974.8091905604619569
 20
89.6643876006660463
 30
0.0
 11
2974.7887181194619188
 21
89.656029260866049
 31
0.0
  0
LINE
  5
7351
  8
0
 10
2974.7887181194619188
 20
89.656029260866049
 30
0.0
 11
2974.7682456785619252
 21
89.6643876006660463
 31
0.0
  0
LINE
  5
7352
  8
0
 10
2974.7682456785619252
 20
89.6643876006660463
 30
0.0
 11
2974.7682456785619252
 21
89.6745848845175715
 31
0.0
  0
LINE
  5
7353
  8
0
 10
2974.7584031588621656
 20
89.6754060887366222
 30
0.0
 11
2974.7584031588621656
 21
89.6643876006660463
 31
0.0
  0
LINE
  5
7354
  8
0
 10
2974.7584031588621656
 20
89.6643876006660463
 30
0.0
 11
2974.7379307179621719
 21
89.656029260866049
 31
0.0
  0
LINE
  5
7355
  8
0
 10
2974.7379307179621719
 20
89.656029260866049
 30
0.0
 11
2974.7174582769621338
 21
89.6643876006660463
 31
0.0
  0
LINE
  5
7356
  8
0
 10
2974.7174582769621338
 20
89.6643876006660463
 30
0.0
 11
2974.7174582769621338
 21
89.6770644343018546
 31
0.0
  0
ARC
  5
7357
  8
0
 10
2974.7608295797731444
 20
89.6660861918185361
 30
0.0
 40
0.0076081359838892
 50
289.1424093779199893
 51
347.099428970688507
  0
ARC
  5
7358
  8
0
 10
2974.7658184778661052
 20
89.6660854927159221
 30
0.0
 40
0.0076072198160569
 50
192.8967497010669092
 51
250.8614131076828926
  0
ARC
  5
7359
  8
0
 10
2974.7402323373680701
 20
89.6531345762157343
 30
0.0
 40
0.005146717730127
 50
243.4357296642409949
 51
300.5967396906924023
  0
LINE
  5
735A
  8
0
 10
2974.7379307179621719
 20
89.6485311805660388
 30
0.0
 11
2974.7125370171120267
 21
89.6588987366864671
 31
0.0
  0
ARC
  5
735B
  8
0
 10
2974.7102462705879589
 20
89.6659032046758995
 30
0.0
 40
0.0073695380758826
 50
288.1098544167282967
 51
348.131983141385092
  0
ARC
  5
735C
  8
0
 10
2974.7354358792099447
 20
89.6349835232063157
 30
0.0
 40
0.0076081357058089
 50
289.1424082181201811
 51
347.0994301304770033
  0
LINE
  5
735D
  8
0
 10
2974.7379307179621719
 20
89.6277960682660364
 30
0.0
 11
2974.7125370171120267
 21
89.6174285120456204
 31
0.0
  0
ARC
  5
735E
  8
0
 10
2974.714837801673184
 20
89.6220279536042739
 30
0.0
 40
0.0051428077630313
 50
243.4243490180926131
 51
300.6192920142578942
  0
ARC
  5
735F
  8
0
 10
2974.7402398858021115
 20
89.5908424155242074
 30
0.0
 40
0.005067811984054
 50
243.022353925295306
 51
301.0189216413493227
  0
ARC
  5
7360
  8
0
 10
2974.7356441629631263
 20
89.590905678826104
 30
0.0
 40
0.0051232712981666
 50
239.3242649779710121
 51
296.6344619597904853
  0
LINE
  5
7361
  8
0
 10
2974.7125370171120267
 20
89.5627129350813647
 30
0.0
 11
2974.7330303789622121
 21
89.5710798163945583
 31
0.0
  0
LINE
  5
7362
  8
0
 10
2974.7330303789622121
 20
89.5710798163945583
 30
0.0
 11
2974.7330303789622121
 21
89.5864993150198927
 31
0.0
  0
LINE
  5
7363
  8
0
 10
2974.7125370171120267
 20
89.5948661962076329
 30
0.0
 11
2974.7330303789622121
 21
89.5864993150198927
 31
0.0
  0
ARC
  5
7364
  8
0
 10
2974.7402318192148414
 20
89.5287205157340367
 30
0.0
 40
0.0051456678521577
 50
243.435896002085201
 51
300.6096434271236149
  0
LINE
  5
7365
  8
0
 10
2974.7330094031499357
 20
89.5242907414145179
 30
0.0
 11
2974.7125370171120267
 21
89.5326458925359958
 31
0.0
  0
ARC
  5
7366
  8
0
 10
2974.7356284962597783
 20
89.5287199906649249
 30
0.0
 40
0.0051456678521577
 50
239.4034272364702929
 51
296.5771746615163806
  0
LINE
  5
7367
  8
0
 10
2974.7330094580620425
 20
89.5088742584660508
 30
0.0
 11
2974.7330094031499357
 21
89.5242907414145179
 31
0.0
  0
LINE
  5
7368
  8
0
 10
2974.9712085965588813
 20
89.602182705923056
 30
0.0
 11
2974.9712085965588813
 21
89.6166832853019883
 31
0.0
  0
ARC
  5
7369
  8
0
 10
2974.9686191245809823
 20
89.6218608482066657
 30
0.0
 40
0.0049841158623272
 50
242.7733470346059903
 51
289.5719533402158845
  0
LINE
  5
736A
  8
0
 10
2974.9810691460679664
 20
89.5982425858940559
 30
0.0
 11
2974.9712085965588813
 21
89.602182705471904
 31
0.0
  0
LINE
  5
736B
  8
0
 10
2974.7330094031499357
 20
89.508877274117566
 30
0.0
 11
2974.7125370171120267
 21
89.5005221229961023
 31
0.0
  0
ARC
  5
736C
  8
0
 10
2974.7148279417428967
 20
89.4975489388938712
 30
0.0
 40
0.0050897611936194
 50
243.2496085440778018
 51
301.1171438462055789
  0
ARC
  5
736D
  8
0
 10
2974.710486723583017
 20
89.4790720484709823
 30
0.0
 40
0.007091727602766
 50
286.8047169214767109
 51
349.4371214271487247
  0
LINE
  5
736E
  8
0
 10
2974.7936393793620482
 20
89.4539335485660274
 30
0.0
 11
2974.7936393793620482
 21
89.4620892205714568
 31
0.0
  0
ARC
  5
736F
  8
0
 10
2974.7900799559488405
 20
89.4541050009598138
 30
0.0
 40
0.0035635503309306
 50
317.9487563451290839
 51
357.2422748200207252
  0
LINE
  5
7370
  8
0
 10
2974.7837968596618339
 20
89.4519465557660567
 30
0.0
 11
2974.7837968596618339
 21
89.4620892387234221
 31
0.0
  0
ARC
  5
7371
  8
0
 10
2974.7864651781869725
 20
89.4520500302616881
 30
0.0
 40
0.0026703240860892
 50
182.2207553803671942
 51
276.9340732069566116
  0
ARC
  5
7372
  8
0
 10
2974.788022192563858
 20
89.4556813561836464
 30
0.0
 40
0.0061508791795614
 50
297.4782330830822161
 51
319.8844503149711045
  0
LINE
  5
7373
  8
0
 10
2974.7428519777618021
 20
89.4465418175660432
 30
0.0
 11
2974.7428519777618021
 21
89.4620892165038271
 31
0.0
  0
LINE
  5
7374
  8
0
 10
2974.7330094580620425
 20
89.4459022556660557
 30
0.0
 11
2974.7330094580620425
 21
89.4620892387384288
 31
0.0
  0
ARC
  5
7375
  8
0
 10
2974.738633881539954
 20
89.4468711023487657
 30
0.0
 40
0.0042309294732415
 50
300.4313512594166014
 51
355.5362699818647911
  0
ARC
  5
7376
  8
0
 10
2974.7365586245809936
 20
89.4461374115738863
 30
0.0
 40
0.0035569483102443
 50
183.7906863080384881
 51
247.2009617715563934
  0
ARC
  5
7377
  8
0
 10
2974.7110951900058353
 20
89.6032727969933092
 30
0.0
 40
0.006454718842883
 50
282.9073797191945232
 51
350.2771302418000232
  0
LINE
  5
7378
  8
0
 10
2975.6804975257377919
 20
88.3979075335660411
 30
0.0
 11
2976.0134053743631739
 21
88.3979075335660411
 31
0.0
  0
LINE
  5
7379
  8
0
 10
2975.6770332049641183
 20
88.1813721004660636
 30
0.0
 11
2976.0134053743631739
 21
88.1813721004660636
 31
0.0
  0
ARC
  5
737A
  8
0
 10
2975.6973473897392068
 20
88.0738672881545739
 30
0.0
 40
0.3244780401863453
 50
92.9766591285067818
 51
121.157246363976796
  0
ARC
  5
737B
  8
0
 10
2975.7292545051091111
 20
88.0153467264662623
 30
0.0
 40
0.1740445029312982
 50
107.4603464148728023
 51
149.4550359264511883
  0
ARC
  5
737C
  8
0
 10
2975.8673969549281537
 20
87.9210836638463746
 30
0.0
 40
0.3410995000654807
 50
147.6109946905642971
 51
172.1841869779306933
  0
ARC
  5
737D
  8
0
 10
2975.9973518456281454
 20
88.3002703766863988
 30
0.0
 40
0.0989481186703399
 50
6.1977726949052681
 51
80.6629530594018718
  0
ARC
  5
737E
  8
0
 10
2976.0037185062428762
 20
88.2741683297109461
 30
0.0
 40
0.0933004586058074
 50
275.959441909809982
 51
350.4340842219543788
  0
LINE
  5
737F
  8
0
 10
2976.0957216285310096
 20
88.3109528857511776
 30
0.0
 11
2976.0957216285310096
 21
88.2586634574063282
 31
0.0
  0
ARC
  5
7380
  8
0
 10
2974.5932726865880795
 20
89.6538107259051458
 30
0.0
 40
0.2090108104880524
 50
200.1210401708675022
 51
225.3841147981486017
  0
ARC
  5
7381
  8
0
 10
2974.4350519262529815
 20
89.5066843065638977
 30
0.0
 40
0.0115410665824029
 50
295.5184463565437909
 51
351.7601852543048153
  0
ARC
  5
7382
  8
0
 10
2974.5809037127751253
 20
89.6526809158510218
 30
0.0
 40
0.2392013905746765
 50
204.4841950660783141
 51
225.2867032882830074
  0
LINE
  5
7383
  8
0
 10
2974.412611268512137
 20
89.482695744566044
 30
0.0
 11
2974.4400238369121325
 21
89.4962691098658922
 31
0.0
  0
LINE
  5
7384
  8
0
 10
2974.412611268512137
 20
89.482695744566044
 30
0.0
 11
2974.412611268512137
 21
89.4576422813660486
 31
0.0
  0
LINE
  5
7385
  8
0
 10
2974.4464738530118666
 20
89.5050302790659202
 30
0.0
 11
2974.4464738530118666
 21
89.4744093795660547
 31
0.0
  0
LINE
  5
7386
  8
0
 10
2974.4147667004381219
 20
89.4559258277724467
 30
0.0
 11
2974.4432488450120218
 21
89.4700287949660407
 31
0.0
  0
ARC
  5
7387
  8
0
 10
2974.4145020816258693
 20
89.4578050991028704
 30
0.0
 40
0.0018978102772914
 50
184.9215936651320931
 51
278.0150813613399237
  0
ARC
  5
7388
  8
0
 10
2974.4406852104348218
 20
89.4752935810954995
 30
0.0
 40
0.0058557830592327
 50
295.9633000075413065
 51
351.3153324514896099
  0
LINE
  5
7389
  8
0
 10
2974.5262375840120512
 20
89.4180045248660349
 30
0.0
 11
2974.5262375840120512
 21
89.4486254243512349
 31
0.0
  0
ARC
  5
738A
  8
0
 10
2974.7042684719372119
 20
89.8156558763075736
 30
0.0
 40
0.4079293440140045
 50
244.1239458724244002
 51
263.2236956034863056
  0
ARC
  5
738B
  8
0
 10
2974.6012874563812147
 20
89.4117531602587832
 30
0.0
 40
0.0548607128111372
 50
347.1219267833284903
 51
358.770670154895015
  0
LINE
  5
738C
  8
0
 10
2974.6547682335130958
 20
89.3995259656660437
 30
0.0
 11
2974.6489571724118832
 21
89.3762210415660405
 31
0.0
  0
LINE
  5
738D
  8
0
 10
2974.6489571724118832
 20
89.3762210415660405
 30
0.0
 11
2974.6491535743220993
 21
89.3500016039985496
 31
0.0
  0
LINE
  5
738E
  8
0
 10
2974.6491535743220993
 20
89.3500016039985496
 30
0.0
 11
2974.6554518075331544
 21
89.3744298938802046
 31
0.0
  0
LINE
  5
738F
  8
0
 10
2974.6561355420130894
 20
89.4105761671581831
 30
0.0
 11
2974.6561355420130894
 21
89.3799560139660656
 31
0.0
  0
ARC
  5
7390
  8
0
 10
2974.628465610800049
 20
89.3805741941604026
 30
0.0
 40
0.0276768358022138
 50
347.1733794474179717
 51
358.7201549331828119
  0
ARC
  5
7391
  8
0
 10
2974.5177931197940779
 20
89.4187343295851349
 30
0.0
 40
0.0084759418871633
 50
316.8750371138423816
 51
355.0605406187273161
  0
LINE
  5
7392
  8
0
 10
2974.5239794090120995
 20
89.4129402449660375
 30
0.0
 11
2974.5047849220441094
 21
89.3935554705220454
 31
0.0
  0
ARC
  5
7393
  8
0
 10
2974.6480766918421068
 20
89.6928290381702027
 30
0.0
 40
0.3332372431303504
 50
225.2129660831284923
 51
244.1993235226485979
  0
ARC
  5
7394
  8
0
 10
2974.5034028304089588
 20
89.3937562064055555
 30
0.0
 40
0.0010131888910091
 50
248.8910451968376094
 51
305.9919369312552817
  0
ARC
  5
7395
  8
0
 10
2974.5020491795557973
 20
89.3962226844930541
 30
0.0
 40
0.0038207744571876
 50
300.6721634985099172
 51
315.726672379428976
  0
ARC
  5
7396
  8
0
 10
2974.712552435834823
 20
89.8605042832876393
 30
0.0
 40
0.5144243396286907
 50
262.9207353171361774
 51
269.9982826811312862
  0
ARC
  5
7397
  8
0
 10
2974.6562783555477836
 20
89.6864994515664051
 30
0.0
 40
0.2983288922071434
 50
225.3103908201964032
 51
244.1575930226748028
  0
ARC
  5
7398
  8
0
 10
2974.7125332012369654
 20
89.8337532486224859
 30
0.0
 40
0.457288340271024
 50
262.9156380088427909
 51
270.000478102507202
  0
ARC
  5
7399
  8
0
 10
2974.7052812897468357
 20
89.8422490935793263
 30
0.0
 40
0.4694193769508189
 50
246.9391752025638027
 51
263.1086606508512205
  0
ARC
  5
739A
  8
0
 10
2974.8318013475368389
 20
89.6538107259051458
 30
0.0
 40
0.2090108104880524
 50
314.6158852018514267
 51
339.8789598457872216
  0
ARC
  5
739B
  8
0
 10
2974.9900221078719369
 20
89.5066843065638977
 30
0.0
 40
0.0115410665824029
 50
188.2398147456950994
 51
244.4815536434564933
  0
ARC
  5
739C
  8
0
 10
2974.8441703213488836
 20
89.6526809158509934
 30
0.0
 40
0.239201390574643
 50
314.7132967117165094
 51
335.5158049516703045
  0
LINE
  5
739D
  8
0
 10
2975.0124627656118719
 20
89.482695744566044
 30
0.0
 11
2974.9850501972118764
 21
89.4962691098658922
 31
0.0
  0
LINE
  5
739E
  8
0
 10
2975.0124627656118719
 20
89.482695744566044
 30
0.0
 11
2975.0124627656118719
 21
89.4576422813660486
 31
0.0
  0
LINE
  5
739F
  8
0
 10
2974.9786001811121423
 20
89.5050302790659202
 30
0.0
 11
2974.9786001811121423
 21
89.4744093795660547
 31
0.0
  0
LINE
  5
73A0
  8
0
 10
2975.0103073336867965
 20
89.4559258277724467
 30
0.0
 11
2974.9818251891119871
 21
89.4700287949660407
 31
0.0
  0
ARC
  5
73A1
  8
0
 10
2975.0105719524981396
 20
89.4578050991028704
 30
0.0
 40
0.0018978102772914
 50
261.98491863866019
 51
355.0784063348669974
  0
ARC
  5
73A2
  8
0
 10
2974.9843888236900966
 20
89.4752935810954995
 30
0.0
 40
0.0058557830592327
 50
188.6846675485103049
 51
244.0366999924586082
  0
LINE
  5
73A3
  8
0
 10
2974.8988364501119577
 20
89.4180045248660349
 30
0.0
 11
2974.8988364501119577
 21
89.4486254243512349
 31
0.0
  0
ARC
  5
73A4
  8
0
 10
2974.720805562186797
 20
89.8156558763075736
 30
0.0
 40
0.4079293440140045
 50
276.7763043965136944
 51
295.8760541275756282
  0
LINE
  5
73A5
  8
0
 10
2974.7703058006118226
 20
89.3995259656660437
 30
0.0
 11
2974.7761168617121257
 21
89.3762210415660405
 31
0.0
  0
LINE
  5
73A6
  8
0
 10
2974.7761168617121257
 20
89.3762210415660405
 30
0.0
 11
2974.7759204598019096
 21
89.3500016039985496
 31
0.0
  0
LINE
  5
73A7
  8
0
 10
2974.7759204598019096
 20
89.3500016039985496
 30
0.0
 11
2974.7696222265922188
 21
89.3744298938802046
 31
0.0
  0
LINE
  5
73A8
  8
0
 10
2974.768938492111829
 20
89.4105761671581831
 30
0.0
 11
2974.768938492111829
 21
89.3799560139660656
 31
0.0
  0
ARC
  5
73A9
  8
0
 10
2974.7966084233239599
 20
89.3805741941604026
 30
0.0
 40
0.0276768358022138
 50
181.2798450668171029
 51
192.8266205525819998
  0
ARC
  5
73AA
  8
0
 10
2974.9072809143308405
 20
89.4187343295851349
 30
0.0
 40
0.0084759418871633
 50
184.9394593812727123
 51
223.12496288615759
  0
LINE
  5
73AB
  8
0
 10
2974.9010946251119094
 20
89.4129402449660375
 30
0.0
 11
2974.9202891120798995
 21
89.3935554705220454
 31
0.0
  0
ARC
  5
73AC
  8
0
 10
2974.7769973422819021
 20
89.6928290381702027
 30
0.0
 40
0.3332372431303504
 50
295.8006764773509758
 51
314.7870339168715077
  0
ARC
  5
73AD
  8
0
 10
2974.9216712037150501
 20
89.3937562064055555
 30
0.0
 40
0.0010131888910091
 50
234.0080630687446899
 51
291.108954803162419
  0
ARC
  5
73AE
  8
0
 10
2974.9230248545682116
 20
89.3962226844930541
 30
0.0
 40
0.0038207744571876
 50
224.2733276205709103
 51
239.3278365014899975
  0
ARC
  5
73AF
  8
0
 10
2974.7125215982891859
 20
89.8605042832876393
 30
0.0
 40
0.5144243396286907
 50
270.0017173188687138
 51
277.0792646828638226
  0
ARC
  5
73B0
  8
0
 10
2974.7687956785762253
 20
89.6864994515664051
 30
0.0
 40
0.2983288922071434
 50
295.8424069773251972
 51
314.6896091798030284
  0
ARC
  5
73B1
  8
0
 10
2974.712540832887953
 20
89.8337532486224859
 30
0.0
 40
0.457288340271024
 50
269.999521897492798
 51
277.0843619911572091
  0
ARC
  5
73B2
  8
0
 10
2974.7197927443771732
 20
89.8422490935793263
 30
0.0
 40
0.4694193769508189
 50
276.8913393491487227
 51
293.0608247974362257
  0
LINE
  5
75C8
  8
0
 10
2973.7751999564620746
 20
85.8795767473660447
 30
0.0
 11
2975.6498740777619787
 21
85.8795767473660447
 31
0.0
  0
ENDSEC
  0
EOF
