  0
SECTION
  2
HEADER
  9
$ACADVER
  1
AC1009
  9
$INSBASE
 10
3377.0098851940929308
 20
157.4167836107712048
 30
0.0
  9
$EXTMIN
 10
3367.5959203458278353
 20
150.1309344501555927
 30
-0.0000000349181948
  9
$EXTMAX
 10
3386.4560656686021503
 20
157.4215257249113904
 30
0.0000000814935746
  9
$LIMMIN
 10
0.0
 20
0.0
  9
$LIMMAX
 10
11.6929133858000007
 20
8.2677165353999982
  9
$ORTHOMODE
 70
     0
  9
$REGENMODE
 70
     1
  9
$FILLMODE
 70
     1
  9
$QTEXTMODE
 70
     0
  9
$MIRRTEXT
 70
     0
  9
$DRAGMODE
 70
     2
  9
$LTSCALE
 40
0.6431102362
  9
$OSMODE
 70
     7
  9
$ATTMODE
 70
     1
  9
$TEXTSIZE
 40
0.2
  9
$TRACEWID
 40
0.05
  9
$TEXTSTYLE
  7
STANDARD
  9
$CLAYER
  8
0
  9
$CELTYPE
  6
BYLAYER
  9
$CECOLOR
 62
   256
  9
$DIMSCALE
 40
1.0
  9
$DIMASZ
 40
0.1875
  9
$DIMEXO
 40
0.0625
  9
$DIMDLI
 40
0.4443307087
  9
$DIMRND
 40
0.0
  9
$DIMDLE
 40
0.0
  9
$DIMEXE
 40
0.125
  9
$DIMTP
 40
0.01
  9
$DIMTM
 40
0.01
  9
$DIMTXT
 40
2.0
  9
$DIMCEN
 40
0.1052362205
  9
$DIMTSZ
 40
0.0
  9
$DIMTOL
 70
     1
  9
$DIMLIM
 70
     0
  9
$DIMTIH
 70
     1
  9
$DIMTOH
 70
     1
  9
$DIMSE1
 70
     0
  9
$DIMSE2
 70
     0
  9
$DIMTAD
 70
     0
  9
$DIMZIN
 70
     0
  9
$DIMBLK
  1

  9
$DIMASO
 70
     1
  9
$DIMSHO
 70
     1
  9
$DIMPOST
  1
\X
  9
$DIMAPOST
  1

  9
$DIMALT
 70
     1
  9
$DIMALTD
 70
     2
  9
$DIMALTF
 40
25.3999999999999986
  9
$DIMLFAC
 40
1.0
  9
$DIMTOFL
 70
     0
  9
$DIMTVP
 40
0.0
  9
$DIMTIX
 70
     0
  9
$DIMSOXD
 70
     0
  9
$DIMSAH
 70
     0
  9
$DIMBLK1
  1

  9
$DIMBLK2
  1

  9
$DIMSTYLE
  2
STANDARD
  9
$DIMCLRD
 70
     0
  9
$DIMCLRE
 70
     0
  9
$DIMCLRT
 70
     0
  9
$DIMTFAC
 40
1.0
  9
$DIMGAP
 40
0.09
  9
$LUNITS
 70
     2
  9
$LUPREC
 70
     4
  9
$SKETCHINC
 40
0.1
  9
$FILLETRAD
 40
0.0
  9
$AUNITS
 70
     0
  9
$AUPREC
 70
     0
  9
$MENU
  1
.
  9
$ELEVATION
 40
0.0
  9
$PELEVATION
 40
0.0
  9
$THICKNESS
 40
0.0
  9
$LIMCHECK
 70
     0
  9
$BLIPMODE
 70
     0
  9
$CHAMFERA
 40
0.0
  9
$CHAMFERB
 40
0.0
  9
$SKPOLY
 70
     0
  9
$TDCREATE
 40
2458060.468368056230247
  9
$TDUPDATE
 40
2459394.4615277778357267
  9
$TDINDWG
 40
0.6102153935
  9
$TDUSRTIMER
 40
0.6102153935
  9
$USRTIMER
 70
     1
  9
$ANGBASE
 50
0.0
  9
$ANGDIR
 70
     0
  9
$PDMODE
 70
     0
  9
$PDSIZE
 40
0.3125
  9
$PLINEWID
 40
0.0
  9
$COORDS
 70
     1
  9
$SPLFRAME
 70
     0
  9
$SPLINETYPE
 70
     6
  9
$SPLINESEGS
 70
     8
  9
$ATTDIA
 70
     1
  9
$ATTREQ
 70
     1
  9
$HANDLING
 70
     1
  9
$HANDSEED
  5
1D0C7
  9
$SURFTAB1
 70
     6
  9
$SURFTAB2
 70
     6
  9
$SURFTYPE
 70
     6
  9
$SURFU
 70
     6
  9
$SURFV
 70
     6
  9
$UCSNAME
  2

  9
$UCSORG
 10
0.0
 20
0.0
 30
0.0
  9
$UCSXDIR
 10
1.0
 20
0.0
 30
0.0
  9
$UCSYDIR
 10
0.0
 20
1.0
 30
0.0
  9
$PUCSNAME
  2

  9
$PUCSORG
 10
0.0
 20
0.0
 30
0.0
  9
$PUCSXDIR
 10
1.0
 20
0.0
 30
0.0
  9
$PUCSYDIR
 10
0.0
 20
1.0
 30
0.0
  9
$USERI1
 70
     0
  9
$USERI2
 70
     0
  9
$USERI3
 70
     0
  9
$USERI4
 70
     0
  9
$USERI5
 70
     0
  9
$USERR1
 40
0.0
  9
$USERR2
 40
0.0
  9
$USERR3
 40
0.0
  9
$USERR4
 40
0.0
  9
$USERR5
 40
0.0
  9
$WORLDVIEW
 70
     1
  9
$SHADEDGE
 70
     3
  9
$SHADEDIF
 70
    70
  9
$TILEMODE
 70
     1
  9
$MAXACTVP
 70
    64
  9
$PLIMCHECK
 70
     0
  9
$PEXTMIN
 10
1.0000000000000000E+20
 20
1.0000000000000000E+20
 30
1.0000000000000000E+20
  9
$PEXTMAX
 10
-1.0000000000000000E+20
 20
-1.0000000000000000E+20
 30
-1.0000000000000000E+20
  9
$PLIMMIN
 10
0.0
 20
0.0
  9
$PLIMMAX
 10
12.0
 20
9.0
  9
$UNITMODE
 70
     0
  9
$VISRETAIN
 70
     1
  9
$PLINEGEN
 70
     0
  9
$PSLTSCALE
 70
     1
  0
ENDSEC
  0
SECTION
  2
TABLES
  0
TABLE
  2
VPORT
 70
     1
  0
VPORT
  2
*ACTIVE
 70
     0
 10
0.0
 20
0.0
 11
1.0
 21
1.0
 12
73.3328777728402201
 22
-41.4852814883542393
 13
0.0
 23
0.0
 14
1.0
 24
1.0
 15
0.0
 25
0.0
 16
0.0
 26
0.0
 36
96.5995694866707311
 17
3303.693115234375
 27
195.2615115758877096
 37
0.0
 40
8.0650732771535854
 41
2.3461538461538458
 42
50.0
 43
0.0
 44
0.0
 50
0.0
 51
0.0
 71
     0
 72
   100
 73
     1
 74
     1
 75
     0
 76
     0
 77
     0
 78
     0
  0
ENDTAB
  0
TABLE
  2
LTYPE
 70
     2
  0
LTYPE
  2
CONTINUOUS
 70
     0
  3
Solid line
 72
    65
 73
     0
 40
0.0
  0
LTYPE
  2
PHANTOM2
 70
     0
  3
___ _ _ ___ _ _ ___ _ _ ___ _ _
 72
    65
 73
     6
 40
1.25
 49
0.625
 49
-0.125
 49
0.125
 49
-0.125
 49
0.125
 49
-0.125
  0
ENDTAB
  0
TABLE
  2
LAYER
 70
     2
  0
LAYER
  2
0
 70
     0
 62
   255
  6
CONTINUOUS
  0
LAYER
  2
DEFPOINTS
 70
     0
 62
     7
  6
CONTINUOUS
  0
ENDTAB
  0
TABLE
  2
STYLE
 70
     1
  0
STYLE
  2
STANDARD
 70
     0
 40
0.0
 41
0.8
 50
0.0
 71
     0
 42
0.2
  3
txt
  4

  0
ENDTAB
  0
TABLE
  2
VIEW
 70
     0
  0
ENDTAB
  0
TABLE
  2
UCS
 70
     0
  0
ENDTAB
  0
TABLE
  2
APPID
 70
     9
  0
APPID
  2
ACAD
 70
     0
  0
APPID
  2
ACAD_MLEADERVER
 70
     0
  0
APPID
  2
ACAD_EXEMPT_FROM_CAD_STANDARDS
 70
     0
  0
APPID
  2
ACAD_NAV_VCDISPLAY
 70
     0
  0
APPID
  2
ACAECLAYERSTANDARD
 70
     0
  0
APPID
  2
ACCMTRANSPARENCY
 70
     0
  0
APPID
  2
ACAD_DSTYLE_DIMJAG
 70
     0
  0
APPID
  2
ACAD_DSTYLE_DIMTALN
 70
     0
  0
APPID
  2
ACDBATTR
 70
     0
  0
ENDTAB
  0
TABLE
  2
DIMSTYLE
 70
     1
  0
DIMSTYLE
  2
STANDARD
 70
     0
  3

  4

  5

  6

  7

 40
1.0
 41
0.1875
 42
0.0625
 43
0.38
 44
0.125
 45
0.0
 46
0.0
 47
0.01
 48
0.01
140
0.15625
141
0.09
142
0.0
143
25.3999999999999986
144
1.0
145
0.0
146
1.0
147
0.09
 71
     1
 72
     0
 73
     1
 74
     1
 75
     0
 76
     0
 77
     0
 78
     4
170
     0
171
     2
172
     0
173
     0
174
     0
175
     0
176
     0
177
     0
178
     0
  0
ENDTAB
  0
ENDSEC
  0
SECTION
  2
BLOCKS
  0
BLOCK
  8
0
  2
$MODEL_SPACE
 70
     0
 10
0.0
 20
0.0
 30
0.0
  3
$MODEL_SPACE
  1

  0
ENDBLK
  5
21
  8
0
  0
BLOCK
 67
     1
  8
0
  2
$PAPER_SPACE
 70
     0
 10
0.0
 20
0.0
 30
0.0
  3
$PAPER_SPACE
  1

  0
ENDBLK
  5
1D
 67
     1
  8
0
  0
ENDSEC
  0
SECTION
  2
ENTITIES
  0
ATTDEF
  5
1BFF3
  8
DEFPOINTS
 10
3377.0098895190631083
 20
157.4201335420781902
 30
0.0
 40
0.001
  1
K-77842T-8
  3

  2
MODELNUMBER
 70
     0
1001
ACDBATTR
1070
     0
1070
     1
  0
ATTDEF
  5
1BFF4
  8
DEFPOINTS
 10
3377.0098895190631083
 20
157.4184668754116103
 30
0.0
 40
0.001
  1
MODERNLIFE
  3

  2
TRADENAME
 70
     0
1001
ACDBATTR
1070
     0
1070
     1
  0
ATTDEF
  5
1BFF5
  8
DEFPOINTS
 10
3377.0098895190631083
 20
157.4168002087448883
 30
0.0
 40
0.001
  1
BATHROOM SINK
  3

  2
PRODUCT
 70
     0
1001
ACDBATTR
1070
     0
1070
     1
  0
LINE
  5
1CFEA
  8
0
 10
3367.8482806935858207
 20
157.4167836107712048
 30
0.0
 11
3386.3512027442598082
 21
157.4167836107712048
 31
0.0
  0
LINE
  5
1CFEB
  8
0
 10
3368.0042191190600533
 20
155.2940055420712042
 30
0.0
 11
3386.3512027442598082
 21
155.2940055420712042
 31
0.0
  0
LINE
  5
1CFEC
  8
0
 10
3386.3512027442598082
 20
152.2986733745711945
 30
0.0
 11
3370.2692246288611386
 21
152.2986733745711945
 31
0.0
  0
LINE
  5
1CFED
  8
0
 10
3380.1701132615608003
 20
150.1358695070711917
 30
0.0
 11
3377.4142077497608625
 21
150.1358695070711917
 31
0.0
  0
LINE
  5
1CFEE
  8
0
 10
3368.0042191190600533
 20
155.2940055420712042
 30
0.0
 11
3367.6709509617598997
 21
157.1839187184712046
 31
0.0
  0
ARC
  5
1CFEF
  8
0
 10
3367.8717637128688693
 20
157.2149490492134021
 30
0.0
 40
0.2031960689429585
 50
96.6364033865011578
 51
188.7840817457291962
  0
LINE
  5
1CFF0
  8
0
 10
3370.2692246288611386
 20
152.2986733745711945
 30
0.0
 11
3370.0071670206830277
 21
155.2940055420712042
 31
0.0
  0
ARC
  5
1CFF1
  8
0
 10
3376.9685176387720276
 20
160.2942913222493928
 30
0.0
 40
8.7902680363976771
 50
214.6696104396642113
 51
218.0176468763293087
  0
LINE
  5
1CFF2
  8
0
 10
3386.3512027442598082
 20
157.4167836107712048
 30
0.0
 11
3386.3512027442598082
 21
152.2986733745711945
 31
0.0
  0
LINE
  5
1CFF3
  8
0
 10
3377.4142077497608625
 20
150.1358695070711917
 30
0.0
 11
3377.2942044924611764
 21
151.5075130141711952
 31
0.0
  0
ARC
  5
1CFF4
  8
0
 10
3377.0981034359779187
 20
151.4903566451143888
 30
0.0
 40
0.1968501088465736
 50
4.9999274267847529
 51
84.8664998373290871
  0
ARC
  5
1CFF5
  8
0
 10
3379.0089396172970737
 20
173.2709310312401954
 30
0.0
 40
21.6673840295812994
 50
260.6657381173254748
 51
264.9872964364976724
  0
ARC
  5
1CFF6
  8
0
 10
3377.4759997655851294
 20
164.5718765080613935
 30
0.0
 40
12.8352839903968903
 50
252.9810780568190864
 51
261.1197615410105755
  0
LINE
  5
1CFF7
  8
0
 10
3380.1701132615608003
 20
150.1358695070711917
 30
0.0
 11
3380.2907370010598243
 21
151.5146051582711948
 31
0.0
  0
ARC
  5
1CFF8
  8
0
 10
3380.4868380242519379
 20
151.4974485418329948
 30
0.0
 40
0.1968500972432798
 50
100.4577350811980949
 51
174.9999999991327968
  0
ARC
  5
1CFF9
  8
0
 10
3380.2382068429569699
 20
152.8041247090604031
 30
0.0
 40
1.1332737291012689
 50
280.8281327701388932
 51
307.7049372052949252
  0
ARC
  5
1CFFA
  8
0
 10
3379.9849922614439492
 20
153.1268195728528099
 30
0.0
 40
1.5434481926553749
 50
307.8154624884334112
 51
327.5505112096636253
  0
ARC
  5
1CFFB
  8
0
 10
3378.2954366855210537
 20
504.6222708847179774
 30
0.0
 40
352.9378253664174849
 50
269.8084844290488036
 51
270.3499529150917056
  0
ENDSEC
  0
EOF
