  0
SECTION
  2
HEADER
  9
$ACADVER
  1
AC1009
  9
$INSBASE
 10
3336.8617286036578662
 20
136.9292400022386005
 30
0.0
  9
$EXTMIN
 10
3312.5265813969131159
 20
129.6409542476772003
 30
-0.0000000349181948
  9
$EXTMAX
 10
3361.249254217977068
 20
136.9438751910628014
 30
0.0000000814935746
  9
$LIMMIN
 10
0.0
 20
0.0
  9
$LIMMAX
 10
11.6929133858000007
 20
8.2677165353999982
  9
$ORTHOMODE
 70
     0
  9
$REGENMODE
 70
     1
  9
$FILLMODE
 70
     1
  9
$QTEXTMODE
 70
     0
  9
$MIRRTEXT
 70
     0
  9
$DRAGMODE
 70
     2
  9
$LTSCALE
 40
0.6431102362
  9
$OSMODE
 70
     7
  9
$ATTMODE
 70
     1
  9
$TEXTSIZE
 40
0.2
  9
$TRACEWID
 40
0.05
  9
$TEXTSTYLE
  7
STANDARD
  9
$CLAYER
  8
0
  9
$CELTYPE
  6
BYLAYER
  9
$CECOLOR
 62
   256
  9
$DIMSCALE
 40
1.0
  9
$DIMASZ
 40
0.1875
  9
$DIMEXO
 40
0.0625
  9
$DIMDLI
 40
0.4443307087
  9
$DIMRND
 40
0.0
  9
$DIMDLE
 40
0.0
  9
$DIMEXE
 40
0.125
  9
$DIMTP
 40
0.01
  9
$DIMTM
 40
0.01
  9
$DIMTXT
 40
2.0
  9
$DIMCEN
 40
0.1052362205
  9
$DIMTSZ
 40
0.0
  9
$DIMTOL
 70
     1
  9
$DIMLIM
 70
     0
  9
$DIMTIH
 70
     1
  9
$DIMTOH
 70
     1
  9
$DIMSE1
 70
     0
  9
$DIMSE2
 70
     0
  9
$DIMTAD
 70
     0
  9
$DIMZIN
 70
     0
  9
$DIMBLK
  1

  9
$DIMASO
 70
     1
  9
$DIMSHO
 70
     1
  9
$DIMPOST
  1
\X
  9
$DIMAPOST
  1

  9
$DIMALT
 70
     1
  9
$DIMALTD
 70
     2
  9
$DIMALTF
 40
25.3999999999999986
  9
$DIMLFAC
 40
1.0
  9
$DIMTOFL
 70
     0
  9
$DIMTVP
 40
0.0
  9
$DIMTIX
 70
     0
  9
$DIMSOXD
 70
     0
  9
$DIMSAH
 70
     0
  9
$DIMBLK1
  1

  9
$DIMBLK2
  1

  9
$DIMSTYLE
  2
STANDARD
  9
$DIMCLRD
 70
     0
  9
$DIMCLRE
 70
     0
  9
$DIMCLRT
 70
     0
  9
$DIMTFAC
 40
1.0
  9
$DIMGAP
 40
0.09
  9
$LUNITS
 70
     2
  9
$LUPREC
 70
     4
  9
$SKETCHINC
 40
0.1
  9
$FILLETRAD
 40
0.0
  9
$AUNITS
 70
     0
  9
$AUPREC
 70
     0
  9
$MENU
  1
.
  9
$ELEVATION
 40
0.0
  9
$PELEVATION
 40
0.0
  9
$THICKNESS
 40
0.0
  9
$LIMCHECK
 70
     0
  9
$BLIPMODE
 70
     0
  9
$CHAMFERA
 40
0.0
  9
$CHAMFERB
 40
0.0
  9
$SKPOLY
 70
     0
  9
$TDCREATE
 40
2458060.468368056230247
  9
$TDUPDATE
 40
2459394.5086111109703779
  9
$TDINDWG
 40
0.653722338
  9
$TDUSRTIMER
 40
0.653722338
  9
$USRTIMER
 70
     1
  9
$ANGBASE
 50
0.0
  9
$ANGDIR
 70
     0
  9
$PDMODE
 70
     0
  9
$PDSIZE
 40
0.3125
  9
$PLINEWID
 40
0.0
  9
$COORDS
 70
     1
  9
$SPLFRAME
 70
     0
  9
$SPLINETYPE
 70
     6
  9
$SPLINESEGS
 70
     8
  9
$ATTDIA
 70
     1
  9
$ATTREQ
 70
     1
  9
$HANDLING
 70
     1
  9
$HANDSEED
  5
1CFA2
  9
$SURFTAB1
 70
     6
  9
$SURFTAB2
 70
     6
  9
$SURFTYPE
 70
     6
  9
$SURFU
 70
     6
  9
$SURFV
 70
     6
  9
$UCSNAME
  2

  9
$UCSORG
 10
0.0
 20
0.0
 30
0.0
  9
$UCSXDIR
 10
1.0
 20
0.0
 30
0.0
  9
$UCSYDIR
 10
0.0
 20
1.0
 30
0.0
  9
$PUCSNAME
  2

  9
$PUCSORG
 10
0.0
 20
0.0
 30
0.0
  9
$PUCSXDIR
 10
1.0
 20
0.0
 30
0.0
  9
$PUCSYDIR
 10
0.0
 20
1.0
 30
0.0
  9
$USERI1
 70
     0
  9
$USERI2
 70
     0
  9
$USERI3
 70
     0
  9
$USERI4
 70
     0
  9
$USERI5
 70
     0
  9
$USERR1
 40
0.0
  9
$USERR2
 40
0.0
  9
$USERR3
 40
0.0
  9
$USERR4
 40
0.0
  9
$USERR5
 40
0.0
  9
$WORLDVIEW
 70
     1
  9
$SHADEDGE
 70
     3
  9
$SHADEDIF
 70
    70
  9
$TILEMODE
 70
     1
  9
$MAXACTVP
 70
    64
  9
$PLIMCHECK
 70
     0
  9
$PEXTMIN
 10
1.0000000000000000E+20
 20
1.0000000000000000E+20
 30
1.0000000000000000E+20
  9
$PEXTMAX
 10
-1.0000000000000000E+20
 20
-1.0000000000000000E+20
 30
-1.0000000000000000E+20
  9
$PLIMMIN
 10
0.0
 20
0.0
  9
$PLIMMAX
 10
12.0
 20
9.0
  9
$UNITMODE
 70
     0
  9
$VISRETAIN
 70
     1
  9
$PLINEGEN
 70
     0
  9
$PSLTSCALE
 70
     1
  0
ENDSEC
  0
SECTION
  2
TABLES
  0
TABLE
  2
VPORT
 70
     1
  0
VPORT
  2
*ACTIVE
 70
     0
 10
0.0
 20
0.0
 11
1.0
 21
1.0
 12
33.1948025730698717
 22
-61.9690968565177513
 13
0.0
 23
0.0
 14
1.0
 24
1.0
 15
0.0
 25
0.0
 16
0.0
 26
0.0
 36
96.5995694866707311
 17
3303.693115234375
 27
195.2615115758877096
 37
0.0
 40
20.8350423517760817
 41
2.3461538461538458
 42
50.0
 43
0.0
 44
0.0
 50
0.0
 51
0.0
 71
     0
 72
   100
 73
     1
 74
     1
 75
     0
 76
     0
 77
     0
 78
     0
  0
ENDTAB
  0
TABLE
  2
LTYPE
 70
     2
  0
LTYPE
  2
CONTINUOUS
 70
     0
  3
Solid line
 72
    65
 73
     0
 40
0.0
  0
LTYPE
  2
PHANTOM2
 70
     0
  3
___ _ _ ___ _ _ ___ _ _ ___ _ _
 72
    65
 73
     6
 40
1.25
 49
0.625
 49
-0.125
 49
0.125
 49
-0.125
 49
0.125
 49
-0.125
  0
ENDTAB
  0
TABLE
  2
LAYER
 70
     2
  0
LAYER
  2
0
 70
     0
 62
   255
  6
CONTINUOUS
  0
LAYER
  2
DEFPOINTS
 70
     0
 62
     7
  6
CONTINUOUS
  0
ENDTAB
  0
TABLE
  2
STYLE
 70
     1
  0
STYLE
  2
STANDARD
 70
     0
 40
0.0
 41
0.8
 50
0.0
 71
     0
 42
0.2
  3
txt
  4

  0
ENDTAB
  0
TABLE
  2
VIEW
 70
     0
  0
ENDTAB
  0
TABLE
  2
UCS
 70
     0
  0
ENDTAB
  0
TABLE
  2
APPID
 70
     9
  0
APPID
  2
ACAD
 70
     0
  0
APPID
  2
ACAD_MLEADERVER
 70
     0
  0
APPID
  2
ACAD_EXEMPT_FROM_CAD_STANDARDS
 70
     0
  0
APPID
  2
ACAD_NAV_VCDISPLAY
 70
     0
  0
APPID
  2
ACAECLAYERSTANDARD
 70
     0
  0
APPID
  2
ACCMTRANSPARENCY
 70
     0
  0
APPID
  2
ACAD_DSTYLE_DIMJAG
 70
     0
  0
APPID
  2
ACAD_DSTYLE_DIMTALN
 70
     0
  0
APPID
  2
ACDBATTR
 70
     0
  0
ENDTAB
  0
TABLE
  2
DIMSTYLE
 70
     1
  0
DIMSTYLE
  2
STANDARD
 70
     0
  3

  4

  5

  6

  7

 40
1.0
 41
0.1875
 42
0.0625
 43
0.38
 44
0.125
 45
0.0
 46
0.0
 47
0.01
 48
0.01
140
0.15625
141
0.09
142
0.0
143
25.3999999999999986
144
1.0
145
0.0
146
1.0
147
0.09
 71
     1
 72
     0
 73
     1
 74
     1
 75
     0
 76
     0
 77
     0
 78
     4
170
     0
171
     2
172
     0
173
     0
174
     0
175
     0
176
     0
177
     0
178
     0
  0
ENDTAB
  0
ENDSEC
  0
SECTION
  2
BLOCKS
  0
BLOCK
  8
0
  2
$MODEL_SPACE
 70
     0
 10
0.0
 20
0.0
 30
0.0
  3
$MODEL_SPACE
  1

  0
ENDBLK
  5
21
  8
0
  0
BLOCK
 67
     1
  8
0
  2
$PAPER_SPACE
 70
     0
 10
0.0
 20
0.0
 30
0.0
  3
$PAPER_SPACE
  1

  0
ENDBLK
  5
1D
 67
     1
  8
0
  0
ENDSEC
  0
SECTION
  2
ENTITIES
  0
ATTDEF
  5
1BFF3
  8
DEFPOINTS
 10
3336.8617282974619229
 20
136.9325812199930112
 30
0.0
 40
0.001
  1
K-77842T-8
  3

  2
MODELNUMBER
 70
     0
1001
ACDBATTR
1070
     0
1070
     1
  0
ATTDEF
  5
1BFF4
  8
DEFPOINTS
 10
3336.8617282974619229
 20
136.9309145533262893
 30
0.0
 40
0.001
  1
MODERNLIFE
  3

  2
TRADENAME
 70
     0
1001
ACDBATTR
1070
     0
1070
     1
  0
ATTDEF
  5
1BFF5
  8
DEFPOINTS
 10
3336.8617282974619229
 20
136.9292478866595957
 30
0.0
 40
0.001
  1
BATHROOM SINK
  3

  2
PRODUCT
 70
     0
1001
ACDBATTR
1070
     0
1070
     1
  0
LINE
  5
1CEB9
  8
0
 10
3312.9071067544159632
 20
136.9292400022386005
 30
0.0
 11
3360.8163504529002239
 21
136.9292400022386005
 31
0.0
  0
ARC
  5
1CEBA
  8
0
 10
3312.9414617394440938
 20
136.7186685210567987
 30
0.0
 40
0.2133556038247302
 50
99.2662323312275703
 51
189.7857323437613957
  0
LINE
  5
1CEBB
  8
0
 10
3313.0619886843610402
 20
134.8064619335385999
 30
0.0
 11
3360.6614685229537827
 21
134.8064619335385999
 31
0.0
  0
LINE
  5
1CEBC
  8
0
 10
3358.3964626220581522
 20
131.8111297660385901
 30
0.0
 11
3315.3269945852580349
 21
131.8111297660385901
 31
0.0
  0
LINE
  5
1CEBD
  8
0
 10
3338.2396813595578351
 20
129.6483258985385874
 30
0.0
 11
3335.4837758477578973
 21
129.6483258985385874
 31
0.0
  0
LINE
  5
1CEBE
  8
0
 10
3315.3269945852580349
 20
131.8111297660385901
 30
0.0
 11
3315.0649369770580961
 21
134.8064619335385999
 31
0.0
  0
LINE
  5
1CEBF
  8
0
 10
3313.0619886843610402
 20
134.8064619335385999
 30
0.0
 11
3312.7312104056568387
 21
136.6824057257385903
 31
0.0
  0
LINE
  5
1CEC0
  8
0
 10
3335.4837758477578973
 20
129.6483258985385874
 30
0.0
 11
3335.3639581958577764
 21
131.0178479260385984
 31
0.0
  0
ARC
  5
1CEC1
  8
0
 10
3335.1678689454929554
 20
131.0006923395860099
 30
0.0
 40
0.1968382794451052
 50
5.0000000018570931
 51
86.8821694241361655
  0
ARC
  5
1CEC2
  8
0
 10
3336.3793886101548196
 20
170.9870793382889929
 30
0.0
 40
39.8079555772026978
 50
264.7946937161950132
 51
268.2714008927601981
  0
ARC
  5
1CEC3
  8
0
 10
3334.7289377271458761
 20
152.6444008684387939
 30
0.0
 40
21.3911952719529701
 50
256.8853659765812836
 51
264.7398074484215726
  0
LINE
  5
1CEC4
  8
0
 10
3331.0983736755651989
 20
134.3927851473644921
 30
0.0
 11
3342.6250835317500787
 21
134.3927851473644921
 31
0.0
  0
ARC
  5
1CEC5
  8
0
 10
3330.4819507538968537
 20
142.7073908083432912
 30
0.0
 40
8.2873795986055701
 50
252.4337793586406065
 51
266.9408928870881255
  0
ARC
  5
1CEC6
  8
0
 10
3331.7491938955058686
 20
166.4197600635309016
 30
0.0
 40
32.0335868931257508
 50
266.9408928870881255
 51
268.8358525769801872
  0
ARC
  5
1CEC7
  8
0
 10
3331.7491938955058686
 20
166.4197600635309016
 30
0.0
 40
32.0335868931257508
 50
271.1641474230196991
 51
271.166188815615385
  0
ARC
  5
1CEC8
  8
0
 10
3360.7819954678711838
 20
136.7186685210567987
 30
0.0
 40
0.2133556038247302
 50
350.2142676562385759
 51
80.7337676687724439
  0
LINE
  5
1CEC9
  8
0
 10
3358.3964626220581522
 20
131.8111297660385901
 30
0.0
 11
3358.658520230258091
 21
134.8064619335385999
 31
0.0
  0
LINE
  5
1CECA
  8
0
 10
3360.6614685229537827
 20
134.8064619335385999
 30
0.0
 11
3360.9922468016579842
 21
136.6824057257385903
 31
0.0
  0
LINE
  5
1CECB
  8
0
 10
3338.2396813595578351
 20
129.6483258985385874
 30
0.0
 11
3338.3594990114579559
 21
131.0178479260385984
 31
0.0
  0
ARC
  5
1CECC
  8
0
 10
3338.555588261820958
 20
131.0006923395860099
 30
0.0
 40
0.1968382794451052
 50
93.1178305758638203
 51
174.9999999981428971
  0
ARC
  5
1CECD
  8
0
 10
3337.3440685971600033
 20
170.9870793382889929
 30
0.0
 40
39.8079555772026978
 50
271.7285991072398019
 51
275.2053062838049868
  0
ARC
  5
1CECE
  8
0
 10
3338.9945194801689468
 20
152.6444008684387939
 30
0.0
 40
21.3911952719529701
 50
275.2601925515784274
 51
283.1146340234186027
  0
ARC
  5
1CECF
  8
0
 10
3343.2415064534188787
 20
142.7073908083432912
 30
0.0
 40
8.2873795986055701
 50
273.0591071129118745
 51
287.5662206413593935
  0
ARC
  5
1CED0
  8
0
 10
3341.9742633118098638
 20
166.4197600635309016
 30
0.0
 40
32.0335868931257508
 50
271.1641474230196991
 51
273.0591071129118745
  0
ARC
  5
1CED1
  8
0
 10
3341.9742633118098638
 20
166.4197600635309016
 30
0.0
 40
32.0335868931257508
 50
268.833811184384615
 51
268.8358525769801872
  0
ARC
  5
1CED2
  8
0
 10
3336.8617286036578662
 20
-735.5324994169700403
 30
0.0
 40
866.7313729808086009
 50
89.8887340789293461
 51
90.1112659210706539
  0
ENDSEC
  0
EOF
