  0
SECTION
  2
HEADER
  9
$ACADVER
  1
AC1009
  9
$INSBASE
 10
3479.0735119449141166
 20
201.2526404708457051
 30
0.0
  9
$EXTMIN
 10
3477.723509147715049
 20
201.2477543632529944
 30
0.0
  9
$EXTMAX
 10
3480.4235147421140937
 20
206.4950462441265984
 30
0.0
  9
$LIMMIN
 10
0.0
 20
0.0
  9
$LIMMAX
 10
11.6929133858000007
 20
8.2677165353999982
  9
$ORTHOMODE
 70
     0
  9
$REGENMODE
 70
     1
  9
$FILLMODE
 70
     1
  9
$QTEXTMODE
 70
     0
  9
$MIRRTEXT
 70
     0
  9
$DRAGMODE
 70
     2
  9
$LTSCALE
 40
0.6431102362
  9
$OSMODE
 70
  2039
  9
$ATTMODE
 70
     1
  9
$TEXTSIZE
 40
0.2
  9
$TRACEWID
 40
0.05
  9
$TEXTSTYLE
  7
STANDARD
  9
$CLAYER
  8
0
  9
$CELTYPE
  6
BYLAYER
  9
$CECOLOR
 62
   256
  9
$DIMSCALE
 40
1.0
  9
$DIMASZ
 40
0.1875
  9
$DIMEXO
 40
0.0625
  9
$DIMDLI
 40
0.4443307087
  9
$DIMRND
 40
0.0
  9
$DIMDLE
 40
0.0
  9
$DIMEXE
 40
0.125
  9
$DIMTP
 40
0.01
  9
$DIMTM
 40
0.01
  9
$DIMTXT
 40
2.0
  9
$DIMCEN
 40
0.1052362205
  9
$DIMTSZ
 40
0.0
  9
$DIMTOL
 70
     1
  9
$DIMLIM
 70
     0
  9
$DIMTIH
 70
     1
  9
$DIMTOH
 70
     1
  9
$DIMSE1
 70
     0
  9
$DIMSE2
 70
     0
  9
$DIMTAD
 70
     0
  9
$DIMZIN
 70
     0
  9
$DIMBLK
  1

  9
$DIMASO
 70
     1
  9
$DIMSHO
 70
     1
  9
$DIMPOST
  1
\X
  9
$DIMAPOST
  1

  9
$DIMALT
 70
     1
  9
$DIMALTD
 70
     2
  9
$DIMALTF
 40
25.3999999999999986
  9
$DIMLFAC
 40
1.0
  9
$DIMTOFL
 70
     0
  9
$DIMTVP
 40
0.0
  9
$DIMTIX
 70
     0
  9
$DIMSOXD
 70
     0
  9
$DIMSAH
 70
     0
  9
$DIMBLK1
  1

  9
$DIMBLK2
  1

  9
$DIMSTYLE
  2
STANDARD
  9
$DIMCLRD
 70
     0
  9
$DIMCLRE
 70
     0
  9
$DIMCLRT
 70
     0
  9
$DIMTFAC
 40
1.0
  9
$DIMGAP
 40
0.09
  9
$LUNITS
 70
     2
  9
$LUPREC
 70
     4
  9
$SKETCHINC
 40
0.1
  9
$FILLETRAD
 40
0.0
  9
$AUNITS
 70
     0
  9
$AUPREC
 70
     0
  9
$MENU
  1
.
  9
$ELEVATION
 40
0.0
  9
$PELEVATION
 40
0.0
  9
$THICKNESS
 40
0.0
  9
$LIMCHECK
 70
     0
  9
$BLIPMODE
 70
     0
  9
$CHAMFERA
 40
0.0
  9
$CHAMFERB
 40
0.0
  9
$SKPOLY
 70
     0
  9
$TDCREATE
 40
2458060.468368056230247
  9
$TDUPDATE
 40
2459150.4801388890482485
  9
$TDINDWG
 40
0.5413380786999999
  9
$TDUSRTIMER
 40
0.5413380786999999
  9
$USRTIMER
 70
     1
  9
$ANGBASE
 50
0.0
  9
$ANGDIR
 70
     0
  9
$PDMODE
 70
     0
  9
$PDSIZE
 40
0.3125
  9
$PLINEWID
 40
0.0
  9
$COORDS
 70
     1
  9
$SPLFRAME
 70
     0
  9
$SPLINETYPE
 70
     6
  9
$SPLINESEGS
 70
     8
  9
$ATTDIA
 70
     1
  9
$ATTREQ
 70
     1
  9
$HANDLING
 70
     1
  9
$HANDSEED
  5
962F
  9
$SURFTAB1
 70
     6
  9
$SURFTAB2
 70
     6
  9
$SURFTYPE
 70
     6
  9
$SURFU
 70
     6
  9
$SURFV
 70
     6
  9
$UCSNAME
  2

  9
$UCSORG
 10
0.0
 20
0.0
 30
0.0
  9
$UCSXDIR
 10
1.0
 20
0.0
 30
0.0
  9
$UCSYDIR
 10
0.0
 20
1.0
 30
0.0
  9
$PUCSNAME
  2

  9
$PUCSORG
 10
0.0
 20
0.0
 30
0.0
  9
$PUCSXDIR
 10
1.0
 20
0.0
 30
0.0
  9
$PUCSYDIR
 10
0.0
 20
1.0
 30
0.0
  9
$USERI1
 70
     0
  9
$USERI2
 70
     0
  9
$USERI3
 70
     0
  9
$USERI4
 70
     0
  9
$USERI5
 70
     0
  9
$USERR1
 40
0.0
  9
$USERR2
 40
0.0
  9
$USERR3
 40
0.0
  9
$USERR4
 40
0.0
  9
$USERR5
 40
0.0
  9
$WORLDVIEW
 70
     1
  9
$SHADEDGE
 70
     3
  9
$SHADEDIF
 70
    70
  9
$TILEMODE
 70
     1
  9
$MAXACTVP
 70
    64
  9
$PLIMCHECK
 70
     0
  9
$PEXTMIN
 10
1.0000000000000000E+20
 20
1.0000000000000000E+20
 30
1.0000000000000000E+20
  9
$PEXTMAX
 10
-1.0000000000000000E+20
 20
-1.0000000000000000E+20
 30
-1.0000000000000000E+20
  9
$PLIMMIN
 10
0.0
 20
0.0
  9
$PLIMMAX
 10
12.0
 20
9.0
  9
$UNITMODE
 70
     0
  9
$VISRETAIN
 70
     1
  9
$PLINEGEN
 70
     0
  9
$PSLTSCALE
 70
     1
  0
ENDSEC
  0
SECTION
  2
TABLES
  0
TABLE
  2
VPORT
 70
     1
  0
VPORT
  2
*ACTIVE
 70
     0
 10
0.0
 20
0.0
 11
1.0
 21
1.0
 12
0.0000256167891166
 22
0.0013683369070634
 13
0.0
 23
0.0
 14
1.0
 24
1.0
 15
0.0
 25
0.0
 16
0.0
 26
0.0
 36
22.5917180599440499
 17
3479.073486328125
 27
203.8700319667827046
 37
0.0
 40
5.2909586649031217
 41
2.6486111111111108
 42
50.0
 43
0.0
 44
0.0
 50
0.0
 51
0.0
 71
     0
 72
   100
 73
     1
 74
     1
 75
     0
 76
     0
 77
     0
 78
     0
  0
ENDTAB
  0
TABLE
  2
LTYPE
 70
     2
  0
LTYPE
  2
CONTINUOUS
 70
     0
  3
Solid line
 72
    65
 73
     0
 40
0.0
  0
LTYPE
  2
PHANTOM2
 70
     0
  3
___ _ _ ___ _ _ ___ _ _ ___ _ _
 72
    65
 73
     6
 40
1.25
 49
0.625
 49
-0.125
 49
0.125
 49
-0.125
 49
0.125
 49
-0.125
  0
ENDTAB
  0
TABLE
  2
LAYER
 70
     2
  0
LAYER
  2
0
 70
     0
 62
   255
  6
CONTINUOUS
  0
LAYER
  2
DEFPOINTS
 70
     0
 62
     7
  6
CONTINUOUS
  0
ENDTAB
  0
TABLE
  2
STYLE
 70
     1
  0
STYLE
  2
STANDARD
 70
     0
 40
0.0
 41
0.8
 50
0.0
 71
     0
 42
0.2
  3
txt
  4

  0
ENDTAB
  0
TABLE
  2
VIEW
 70
     0
  0
ENDTAB
  0
TABLE
  2
UCS
 70
     0
  0
ENDTAB
  0
TABLE
  2
APPID
 70
     9
  0
APPID
  2
ACAD
 70
     0
  0
APPID
  2
ACAD_MLEADERVER
 70
     0
  0
APPID
  2
ACAD_EXEMPT_FROM_CAD_STANDARDS
 70
     0
  0
APPID
  2
ACAD_NAV_VCDISPLAY
 70
     0
  0
APPID
  2
ACAECLAYERSTANDARD
 70
     0
  0
APPID
  2
ACCMTRANSPARENCY
 70
     0
  0
APPID
  2
ACAD_DSTYLE_DIMJAG
 70
     0
  0
APPID
  2
ACAD_DSTYLE_DIMTALN
 70
     0
  0
APPID
  2
ACDBATTR
 70
     0
  0
ENDTAB
  0
TABLE
  2
DIMSTYLE
 70
     1
  0
DIMSTYLE
  2
STANDARD
 70
     0
  3

  4

  5

  6

  7

 40
1.0
 41
0.1875
 42
0.0625
 43
0.38
 44
0.125
 45
0.0
 46
0.0
 47
0.01
 48
0.01
140
0.15625
141
0.09
142
0.0
143
25.3999999999999986
144
1.0
145
0.0
146
1.0
147
0.09
 71
     1
 72
     0
 73
     1
 74
     1
 75
     0
 76
     0
 77
     0
 78
     4
170
     0
171
     2
172
     0
173
     0
174
     0
175
     0
176
     0
177
     0
178
     0
  0
ENDTAB
  0
ENDSEC
  0
SECTION
  2
BLOCKS
  0
BLOCK
  8
0
  2
$MODEL_SPACE
 70
     0
 10
0.0
 20
0.0
 30
0.0
  3
$MODEL_SPACE
  1

  0
ENDBLK
  5
21
  8
0
  0
BLOCK
 67
     1
  8
0
  2
$PAPER_SPACE
 70
     0
 10
0.0
 20
0.0
 30
0.0
  3
$PAPER_SPACE
  1

  0
ENDBLK
  5
1D
 67
     1
  8
0
  0
BLOCK
  8
0
  2
_FILLED
 70
     0
 10
0.0
 20
0.0
 30
0.0
  3
_FILLED
  1

  0
SOLID
  5
6F59
  8
0
  6
BYBLOCK
 62
     0
 10
0.0
 20
0.0
 30
0.0
 11
-1.0
 21
0.1666666667
 31
0.0
 12
-1.0
 22
-0.1666666667
 32
0.0
 13
-1.0
 23
-0.1666666667
 33
0.0
  0
ENDBLK
  5
6F5A
  8
0
  6
BYBLOCK
 62
     0
  0
BLOCK
  8
0
  2
_CLOSED
 70
     0
 10
0.0
 20
0.0
 30
0.0
  3
_CLOSED
  1

  0
LINE
  5
8A02
  8
0
  6
BYBLOCK
 62
     0
 10
0.0
 20
0.0
 30
0.0
 11
-1.0
 21
0.1666666667
 31
0.0
  0
LINE
  5
8A03
  8
0
  6
BYBLOCK
 62
     0
 10
-1.0
 20
0.1666666667
 30
0.0
 11
-1.0
 21
-0.1666666667
 31
0.0
  0
LINE
  5
8A04
  8
0
  6
BYBLOCK
 62
     0
 10
-1.0
 20
-0.1666666667
 30
0.0
 11
0.0
 21
0.0
 31
0.0
  0
LINE
  5
8A05
  8
0
  6
BYBLOCK
 62
     0
 10
-1.0
 20
0.0
 30
0.0
 11
0.0
 21
0.0
 31
0.0
  0
ENDBLK
  5
8A06
  8
0
  6
BYBLOCK
 62
     0
  0
ENDSEC
  0
SECTION
  2
ENTITIES
  0
ATTDEF
  5
3930
  8
DEFPOINTS
 10
3479.0742197192171261
 20
201.2510876965862963
 30
0.0
 40
0.001
  1
K-77368T
  3

  2
MODELNUMBER
 70
     0
1001
ACDBATTR
1070
     0
1070
     1
  0
ATTDEF
  5
3931
  8
DEFPOINTS
 10
3479.0742197192171261
 20
201.2494210299196027
 30
0.0
 40
0.001
  1
ARTIFACTS
  3

  2
TRADENAME
 70
     0
1001
ACDBATTR
1070
     0
1070
     1
  0
ATTDEF
  5
3932
  8
DEFPOINTS
 10
3479.0742197192171261
 20
201.2477543632529944
 30
0.0
 40
0.001
  1
BATH SPOUT
  3

  2
PRODUCT
 70
     0
1001
ACDBATTR
1070
     0
1070
     1
  0
LINE
  5
90F8
  8
0
 10
3477.723509147715049
 20
201.2526404708457051
 30
0.0
 11
3480.4235147421140937
 21
201.2526404708457051
 31
0.0
  0
ARC
  5
90F9
  8
0
 10
3478.0296786379981313
 20
201.2486082826818858
 30
0.0
 40
0.3061960406697382
 50
113.6893989470423065
 51
179.2454701856601105
  0
ARC
  5
90FA
  8
0
 10
3478.1600584066381998
 20
200.9653000866227046
 30
0.0
 40
0.6180406598430852
 50
102.8374962593912016
 51
114.205448550596202
  0
ARC
  5
90FB
  8
0
 10
3478.0162581929339467
 20
201.5969330557317107
 30
0.0
 40
0.0297548984752531
 50
282.5783328664252849
 51
0.5029744523478215
  0
ARC
  5
90FC
  8
0
 10
3478.0734235271811485
 20
201.7057650281419114
 30
0.0
 40
0.031918488326505
 50
96.2818875232024851
 51
149.1820584457859979
  0
ARC
  5
90FD
  8
0
 10
3479.0923271841711539
 20
206.7852582694519015
 30
0.0
 40
2.7191099850230098
 50
265.3851546303648092
 51
269.6035311520922164
  0
ARC
  5
90FE
  8
0
 10
3478.9349215741099215
 20
205.0027502344622974
 30
0.0
 40
0.9298140262814492
 50
251.6792760295950018
 51
266.2158138328607038
  0
ARC
  5
90FF
  8
0
 10
3478.6329076490078478
 20
204.1549336397189052
 30
0.0
 40
0.0283255609202596
 50
110.3119086349618954
 51
195.1881563249540079
  0
ARC
  5
9100
  8
0
 10
3478.6677583095161026
 20
204.1927541100953931
 30
0.0
 40
0.0769024885647542
 50
216.0362253414517966
 51
250.9419863656061978
  0
ARC
  5
9101
  8
0
 10
3478.8754961738050042
 20
203.5979269373268039
 30
0.0
 40
0.6358234360079819
 50
95.2382791701558915
 51
113.3906976526617001
  0
ARC
  5
9102
  8
0
 10
3479.0644437843138803
 20
202.113082727511113
 30
0.0
 40
2.1323656380682752
 50
92.0962095866634769
 51
96.6516370416004662
  0
ARC
  5
9103
  8
0
 10
3479.0718484701219495
 20
202.2923748960012063
 30
0.0
 40
1.9386678391908001
 50
89.9508373251458977
 51
94.0741564759484703
  0
LINE
  5
9104
  8
0
 10
3478.0227380412638922
 20
201.5678922990458091
 30
0.0
 11
3480.1242858485638862
 21
201.5678922990458091
 31
0.0
  0
LINE
  5
9105
  8
0
 10
3478.0460119449139711
 20
201.7221172467895087
 30
0.0
 11
3480.1010119449138074
 21
201.7221172467895087
 31
0.0
  0
ARC
  5
9106
  8
0
 10
3479.0967641907459438
 20
206.0023207694192138
 30
0.0
 40
1.9221758852118009
 50
260.5999472558768275
 51
269.3068854650384765
  0
ARC
  5
9107
  8
0
 10
3478.8296519363148036
 20
204.4046697767026899
 30
0.0
 40
0.3023625834190722
 50
242.9274949477357097
 51
261.0900097588944959
  0
ARC
  5
9108
  8
0
 10
3478.704184400216036
 20
204.1559186077514028
 30
0.0
 40
0.0238109799843451
 50
133.0211910898264875
 51
239.3378036709374896
  0
ARC
  5
9109
  8
0
 10
3478.85261677947301
 20
203.8505762022379031
 30
0.0
 40
0.3623351765201524
 50
104.401649899725399
 51
117.0321520371835931
  0
ARC
  5
910A
  8
0
 10
3478.998118848995091
 20
203.1694790068750933
 30
0.0
 40
1.058601461138817
 50
93.4664829576132803
 51
102.8604895964248982
  0
LINE
  5
910B
  8
0
 10
3478.0460119449139711
 20
201.5971942575457092
 30
0.0
 11
3478.0460119449139711
 21
201.7221172467895087
 31
0.0
  0
LINE
  5
910D
  8
0
  6
CONTINUOUS
 62
     7
 10
3479.011574515175198
 20
204.1605520399425018
 30
0.0
 11
3479.0103788632741271
 21
204.1894628491245101
 31
0.0
  0
LINE
  5
910E
  8
0
  6
CONTINUOUS
 62
     7
 10
3479.0115745131320182
 20
204.1908328670238006
 30
0.0
 11
3479.0099504653239819
 21
204.230028731785211
 31
0.0
  0
LINE
  5
910F
  8
0
  6
CONTINUOUS
 10
3478.9787073820612022
 20
204.1756911605768892
 30
0.0
 11
3478.9781781068459168
 21
204.1891379151593924
 31
0.0
  0
LINE
  5
9110
  8
0
  6
CONTINUOUS
 62
     7
 10
3479.0064623855291757
 20
204.1931617067764932
 30
0.0
 11
3479.0054333622051672
 21
204.2298695597270921
 31
0.0
  0
LINE
  5
9111
  8
0
  6
CONTINUOUS
 62
     7
 10
3479.0560119449642116
 20
204.1179467178947107
 30
0.0
 11
3479.0560119449642116
 21
204.1542544029836961
 31
0.0
  0
LINE
  5
9112
  8
0
  6
CONTINUOUS
 62
     7
 10
3479.0560119449642116
 20
204.1970778895872058
 30
0.0
 11
3479.0560119449642116
 21
204.2309433254457929
 31
0.0
  0
LINE
  5
9113
  8
0
  6
CONTINUOUS
 62
     7
 10
3478.9612521164640384
 20
204.1789968619106048
 30
0.0
 11
3478.9613456892529939
 21
204.1923496918516037
 31
0.0
  0
LINE
  5
9114
  8
0
  6
CONTINUOUS
 62
     7
 10
3478.9817762159941594
 20
204.1628809290033075
 30
0.0
 11
3478.9827366371769131
 21
204.1882518182075898
 31
0.0
  0
LINE
  5
9115
  8
0
  6
CONTINUOUS
 10
3479.0560119449642116
 20
204.1542544029836961
 30
0.0
 11
3479.0579182215069522
 21
204.1954765263807872
 31
0.0
  0
LINE
  5
9116
  8
0
  6
CONTINUOUS
 62
     7
 10
3479.0064623855291757
 20
204.1581705857944087
 30
0.0
 11
3478.8719120710438801
 21
204.1324971754613955
 31
0.0
  0
LINE
  5
9117
  8
0
  6
CONTINUOUS
 62
     7
 10
3478.8472259015088639
 20
204.1372075186702943
 30
0.0
 11
3478.9817762159941594
 21
204.1628809290033075
 31
0.0
  0
LINE
  5
9118
  8
0
  6
CONTINUOUS
 62
     7
 10
3478.9612521164640384
 20
204.1723354306602971
 30
0.0
 11
3478.7709692368989636
 21
204.1723354306602971
 31
0.0
  0
LINE
  5
9119
  8
0
  6
CONTINUOUS
 62
     7
 10
3478.7709692368989636
 20
204.1789968619106048
 30
0.0
 11
3478.9612521164640384
 21
204.1789968619106048
 31
0.0
  0
LINE
  5
911A
  8
0
  6
CONTINUOUS
 62
     7
 10
3478.9817762159941594
 20
204.1884513635675944
 30
0.0
 11
3478.8472259015088639
 21
204.2141247739006076
 31
0.0
  0
LINE
  5
911B
  8
0
  6
CONTINUOUS
 62
     7
 10
3478.8719120710438801
 20
204.2188351171095064
 30
0.0
 11
3479.0064623855291757
 21
204.1931617067764932
 31
0.0
  0
LINE
  5
911C
  8
0
  6
CONTINUOUS
 62
     7
 10
3478.8482631874749131
 20
204.1723353754969992
 30
0.0
 11
3478.8472259015088639
 21
204.1372075186702943
 31
0.0
  0
LINE
  5
911D
  8
0
  6
CONTINUOUS
 62
     7
 10
3479.0394393384858631
 20
204.1151087200192933
 30
0.0
 11
3479.0444011311051327
 21
204.2171457170761926
 31
0.0
  0
LINE
  5
911E
  8
0
  6
CONTINUOUS
 62
     7
 10
3479.0444011311051327
 20
204.2171457170761926
 30
0.0
 11
3479.045065784306189
 21
204.2308151395845073
 31
0.0
  0
LINE
  5
911F
  8
0
  6
CONTINUOUS
 62
     7
 10
3478.8249901453277744
 20
204.1374367658808069
 30
0.0
 11
3478.8260715674409767
 21
204.1723353447362967
 31
0.0
  0
LINE
  5
9120
  8
0
  6
CONTINUOUS
 62
     7
 10
3478.7709067068039985
 20
204.1916383363384
 30
0.0
 11
3478.7709692368989636
 21
204.1789968619106048
 31
0.0
  0
ARC
  5
9121
  8
0
 10
3479.0733326418221623
 20
201.8130587544202967
 30
0.0
 40
2.4325148718298282
 50
89.9957766710579961
 51
92.0469520697125319
  0
ARC
  5
9122
  8
0
 10
3479.0050703993861134
 20
204.1833307674116895
 30
0.0
 40
0.009928997644169
 50
49.0756128772993705
 51
81.9409262139338637
  0
ARC
  5
9123
  8
0
 10
3479.0099562489549498
 20
204.1910384216513989
 30
0.0
 40
0.0016312668849771
 50
285.0149593816944957
 51
352.7609607341191236
  0
ARC
  5
9124
  8
0
 10
3478.9940855679478773
 20
204.2452858034170902
 30
0.0
 40
0.0581521598785645
 50
257.7794769351921786
 51
286.2711770202066077
  0
ARC
  5
9125
  8
0
 10
3478.9640931191920572
 20
204.2173137011320989
 30
0.0
 40
0.0450679055553524
 50
266.3857768554033214
 51
286.224275155980024
  0
ARC
  5
9126
  8
0
 10
3478.9757514966490817
 20
204.1772486698330056
 30
0.0
 40
0.0033411216157949
 50
286.224275155980024
 51
332.2144462073027853
  0
ARC
  5
9127
  8
0
 10
3478.9741442048120916
 20
204.1710404768913918
 30
0.0
 40
0.0065154773690451
 50
45.5441365789490504
 51
79.6350674143044728
  0
ARC
  5
9128
  8
0
 10
3478.9599924702570206
 20
204.1028505277265879
 30
0.0
 40
0.076156752282572
 50
78.3919055864335235
 51
89.0522744159918744
  0
ARC
  5
9129
  8
0
 10
3478.8739446258528005
 20
204.2304666089939076
 30
0.0
 40
0.0118077467159476
 50
241.4846981966499868
 51
260.0878847324435128
  0
ARC
  5
912A
  8
0
 10
3478.8349549282620501
 20
204.1249282160175085
 30
0.0
 40
0.0900366743201865
 50
82.1668594058886441
 51
92.131774759443374
  0
ARC
  5
912B
  8
0
 10
3478.8712187075748261
 20
204.0258005784262139
 30
0.0
 40
0.1938160453837596
 50
104.4982910659617943
 51
126.6732955911922005
  0
ARC
  5
912C
  8
0
 10
3478.7677946945850636
 20
204.2116193707452965
 30
0.0
 40
0.0327766044850468
 50
247.897102463306112
 51
275.5580331912722727
  0
ARC
  5
912D
  8
0
 10
3478.7695018069862272
 20
204.1299194541728923
 30
0.0
 40
0.0424413526165696
 50
88.0185763067641176
 51
108.8494210318728932
  0
ARC
  5
912E
  8
0
 10
3478.7560416024030019
 20
204.1693470353679913
 30
0.0
 40
0.0007794843635209
 50
108.849421031899098
 51
205.0763336376278971
  0
ARC
  5
912F
  8
0
 10
3478.8475618795241644
 20
204.2798294680058007
 30
0.0
 40
0.144170610053193
 50
230.2303655676876986
 51
260.9925633395960176
  0
ARC
  5
9130
  8
0
 10
3478.8367278859768703
 20
204.1974455029709929
 30
0.0
 40
0.0611459163209416
 50
258.9326474544844814
 51
279.8859731343025032
  0
ARC
  5
9131
  8
0
 10
3479.0587789692958722
 20
204.1984364735602924
 30
0.0
 40
0.003082559660635
 50
206.1506216301503969
 51
253.7856558077143063
  0
ARC
  5
9132
  8
0
 10
3479.0740456131147766
 20
204.2657985606124953
 30
0.0
 40
0.0721476351556464
 50
257.0833600908259768
 51
269.5761854937239264
  0
ARC
  5
9133
  8
0
 10
3479.03810021281015
 20
204.172735810931897
 30
0.0
 40
0.0576426479667584
 50
271.3311871576498788
 51
288.103681100711924
  0
ARC
  5
9134
  8
0
 10
3479.0516924526768889
 20
205.3596217684226133
 30
0.0
 40
1.244573367244121
 50
261.7288152559574996
 51
269.4359006150249911
  0
ARC
  5
9135
  8
0
 10
3478.874454793618952
 20
204.1407495505534939
 30
0.0
 40
0.0128824806474082
 50
234.9536374459339925
 51
261.946368418735517
  0
ARC
  5
9136
  8
0
 10
3478.8726555401531186
 20
204.1246402622790868
 30
0.0
 40
0.0078920105847188
 50
95.4055808758660362
 51
135.1838337741374971
  0
ARC
  5
9137
  8
0
 10
3479.003986480542153
 20
204.1701631509214963
 30
0.0
 40
0.012245477688985
 50
281.6650146447041152
 51
308.2913216127053033
  0
ARC
  5
9138
  8
0
 10
3478.992931576266983
 20
204.1138144370819134
 30
0.0
 40
0.0503186117880166
 50
68.2536739997337634
 51
102.8085795713712969
  0
ARC
  5
9139
  8
0
 10
3479.0707786154180212
 20
204.1241971857023998
 30
0.0
 40
0.0333143240039729
 50
85.2937816168353322
 51
116.3116133620200969
  0
ARC
  5
913A
  8
0
 10
3478.0236117164690768
 20
201.9708540983434943
 30
0.0
 40
0.2379147080434825
 50
281.2265343618482802
 51
1.959206659170706
  0
ARC
  5
913B
  8
0
 10
3478.2863510062738897
 20
201.9776404708204893
 30
0.0
 40
0.0250000000252548
 50
90.0000000230587744
 51
176.910393029125089
  0
LINE
  5
913C
  8
0
 10
3478.2630187116651541
 20
202.0026404708457051
 30
0.0
 11
3479.8840051781639886
 21
202.0026404708457051
 31
0.0
  0
ARC
  5
913D
  8
0
 10
3478.363087268955951
 20
202.373484462778606
 30
0.0
 40
0.3841080349473864
 50
245.0389905611949928
 51
254.8989675675678086
  0
ARC
  5
913E
  8
0
 10
3478.2137565924099363
 20
202.052673991845694
 30
0.0
 40
0.0302450540949663
 50
180.2971123318287141
 51
245.0389905611706922
  0
LINE
  5
913F
  8
0
 10
3478.1835119449651756
 20
202.0525171541457041
 30
0.0
 11
3478.1835119449651756
 21
202.231772497745709
 31
0.0
  0
ARC
  5
9140
  8
0
 10
3478.2135138749617909
 20
202.2317719150240123
 30
0.0
 40
0.0300019300027661
 50
114.6605127952284988
 51
179.9988871550552005
  0
LINE
  5
9141
  8
0
 10
3478.5234621639638135
 20
206.0914432197041037
 30
0.0
 11
3478.5234621639638135
 21
204.8380202573515874
 31
0.0
  0
ARC
  5
9142
  8
0
 10
3478.2120990131288636
 20
202.1926837487181103
 30
0.0
 40
0.0285870835432411
 50
118.6030932600849042
 51
179.9405693902972132
  0
ARC
  5
9143
  8
0
 10
3478.4553425835110829
 20
201.4382148283594915
 30
0.0
 40
0.8208152217663101
 50
71.8380864233738805
 51
108.2411588506299012
  0
ARC
  5
9144
  8
0
 10
3479.0735121392499423
 20
200.6337673829968935
 30
0.0
 40
1.625269400348855
 50
77.1189237094534548
 51
102.8810896372691985
  0
ARC
  5
9145
  8
0
 10
3478.2120987290950325
 20
202.0916055500019013
 30
0.0
 40
0.0285867992633742
 50
180.0589542404233043
 51
241.3989471247066092
  0
ARC
  5
9146
  8
0
 10
3478.4553437279319041
 20
202.8459996642361034
 30
0.0
 40
0.8207445257598593
 50
251.7571852865079052
 51
288.1634818237357081
  0
ARC
  5
9147
  8
0
 10
3479.0735119449141166
 20
203.650590094067212
 30
0.0
 40
1.6253363323921679
 50
257.1194733625239905
 51
282.8805266374758958
  0
LINE
  5
9148
  8
0
 10
3478.7111939089641055
 20
202.0661520756457037
 30
0.0
 11
3478.7111934553640822
 21
202.2181365934457062
 31
0.0
  0
ARC
  5
9149
  8
0
 10
3478.3720452707138975
 20
201.8887332546626965
 30
0.0
 40
0.4079009383938037
 50
108.5211500980185946
 51
114.7929641535905034
  0
ARC
  5
914A
  8
0
 10
3478.2329123006861664
 20
202.3040483185239964
 30
0.0
 40
0.0300997301204266
 50
288.5211500980187225
 51
359.8631615155450731
  0
LINE
  5
914B
  8
0
 10
3478.2630119449640915
 20
202.3039764319458129
 30
0.0
 11
3478.263114941555159
 21
202.3471021560532108
 31
0.0
  0
ARC
  5
914C
  8
0
 10
3478.2933287172782002
 20
202.3470299968963957
 30
0.0
 40
0.0302138618916549
 50
118.5937089439162975
 51
179.8631615155435099
  0
ARC
  5
914D
  8
0
 10
3478.179375271392928
 20
202.5560900155346076
 30
0.0
 40
0.2078858634800882
 50
298.5937089439163969
 51
46.4857543733496925
  0
ARC
  5
914E
  8
0
 10
3479.07358291963601
 20
203.3286646272800908
 30
0.0
 40
0.9750700744740798
 50
136.4001248126245116
 51
180.0
  0
LINE
  5
914F
  8
0
 10
3478.3674631439639597
 20
204.001090468945705
 30
0.0
 11
3478.3674631439639597
 21
204.1365659183088894
 31
0.0
  0
ARC
  5
9150
  8
0
 10
3478.408832276135854
 20
204.131646614517706
 30
0.0
 40
0.0416605886472705
 50
137.4147776082724874
 51
173.2186633981492889
  0
ARC
  5
9151
  8
0
 10
3478.1081780402250843
 20
204.4869662213237973
 30
0.0
 40
0.4241492962396585
 50
309.5330243714333278
 51
326.6224343315009264
  0
ARC
  5
9152
  8
0
 10
3479.0732626229569178
 20
206.5978364387555075
 30
0.0
 40
2.53389317573646
 50
265.0728281744080164
 51
270.0056376077802156
  0
ARC
  5
9153
  8
0
 10
3479.0068013365439583
 20
205.6173055524421045
 30
0.0
 40
1.5513817916943831
 50
257.6612725996155859
 51
267.8367618442363209
  0
ARC
  5
9154
  8
0
 10
3478.7382705083427936
 20
204.4280221189333986
 30
0.0
 40
0.3322875645314185
 50
233.7856434846231934
 51
259.0734776187981083
  0
ARC
  5
9155
  8
0
 10
3478.8808442731328796
 20
204.5284360194926023
 30
0.0
 40
0.5006451277392348
 50
211.2908239709697966
 51
227.3973243353989062
  0
ARC
  5
9156
  8
0
 10
3478.141767006360169
 20
204.0743886510890945
 30
0.0
 40
0.3667749568413981
 50
31.9374014926067993
 51
54.0014929353646735
  0
ARC
  5
9157
  8
0
 10
3478.4572949026860442
 20
204.7018161453117102
 30
0.0
 40
0.3454694385967341
 50
234.4310801700418949
 51
253.1828368999674979
  0
ARC
  5
9158
  8
0
 10
3478.3041633528578132
 20
204.4843507177571098
 30
0.0
 40
0.079529219043021
 50
183.610927689710195
 51
233.0361991486863076
  0
LINE
  5
9159
  8
0
 10
3478.224792020420864
 20
204.4793418986535016
 30
0.0
 11
3478.224792020420864
 21
204.5404547164457085
 31
0.0
  0
ARC
  5
915A
  8
0
 10
3478.3421187027252017
 20
204.5093558365099113
 30
0.0
 40
0.1213782958927281
 50
110.8309613434778953
 51
165.1544378375351982
  0
ARC
  5
915B
  8
0
 10
3478.7116504876880754
 20
203.591997287444201
 30
0.0
 40
1.1103476297584269
 50
94.8461172459755062
 51
111.8193404661343067
  0
ARC
  5
915C
  8
0
 10
3479.0809408461232124
 20
200.5957626985463946
 30
0.0
 40
4.1286665442825878
 50
90.1030950092065979
 51
96.4401407255130749
  0
ARC
  5
915D
  8
0
 10
3478.2955203665560475
 20
204.7767598892883996
 30
0.0
 40
0.1457294852450688
 50
293.137900574483524
 51
354.9333174689758152
  0
ARC
  5
915E
  8
0
 10
3478.5294820239219007
 20
204.7419111297984955
 30
0.0
 40
0.091481061452385
 50
114.9025657238418034
 51
166.0984957749425064
  0
ARC
  5
915F
  8
0
 10
3478.8065435335911388
 20
204.0907160742810902
 30
0.0
 40
0.7991236474191669
 50
98.5201995704795195
 51
113.2603696096976051
  0
ARC
  5
9160
  8
0
 10
3479.1022039599502023
 20
201.6947808974651934
 30
0.0
 40
3.2130305118308971
 50
90.5116519157455457
 51
97.4041874879105336
  0
ARC
  5
9161
  8
0
 10
3480.1173452518310114
 20
201.2486082826818858
 30
0.0
 40
0.3061960406697382
 50
0.7545298143398415
 51
66.3106010529576366
  0
ARC
  5
9162
  8
0
 10
3479.9869654831909429
 20
200.9653000866227046
 30
0.0
 40
0.6180406598430852
 50
65.7945514494038122
 51
77.1625037406087557
  0
ARC
  5
9163
  8
0
 10
3480.1307656968938318
 20
201.5969330557317107
 30
0.0
 40
0.0297548984752531
 50
179.4970255476522141
 51
257.4216671335747151
  0
ARC
  5
9164
  8
0
 10
3480.0736003626470847
 20
201.7057650281419114
 30
0.0
 40
0.031918488326505
 50
30.8179415542139914
 51
83.7181124767975291
  0
ARC
  5
9165
  8
0
 10
3479.0546967056561698
 20
206.7852582694519015
 30
0.0
 40
2.7191099850230098
 50
270.3964688479077267
 51
274.6148453696351908
  0
ARC
  5
9166
  8
0
 10
3479.2121023157192212
 20
205.0027502344622974
 30
0.0
 40
0.9298140262814492
 50
273.7841861671391825
 51
288.320723970404913
  0
ARC
  5
9167
  8
0
 10
3479.5141162408208402
 20
204.1549336397189052
 30
0.0
 40
0.0283255609202596
 50
344.8118436750460205
 51
69.6880913650380762
  0
ARC
  5
9168
  8
0
 10
3479.4792655803130401
 20
204.1927541100953931
 30
0.0
 40
0.0769024885647542
 50
289.0580136343937738
 51
323.963774658548175
  0
ARC
  5
9169
  8
0
 10
3479.2715277160227743
 20
203.5979269373268039
 30
0.0
 40
0.6358234360079819
 50
66.6093023473382146
 51
84.7617208298440943
  0
ARC
  5
916A
  8
0
 10
3479.0825801055138982
 20
202.113082727511113
 30
0.0
 40
2.1323656380682752
 50
83.3483629583995338
 51
87.9037904133364947
  0
ARC
  5
916B
  8
0
 10
3479.075175419705829
 20
202.2923748960012063
 30
0.0
 40
1.9386678391908001
 50
85.9258435240515439
 51
90.0491626748541165
  0
ARC
  5
916C
  8
0
 10
3479.0502596990818347
 20
206.0023207694192138
 30
0.0
 40
1.9221758852118009
 50
270.6931145349615235
 51
279.4000527441231725
  0
ARC
  5
916D
  8
0
 10
3479.3173719535129749
 20
204.4046697767026899
 30
0.0
 40
0.3023625834190722
 50
278.9099902411053904
 51
297.0725050522643187
  0
ARC
  5
916E
  8
0
 10
3479.4428394896131067
 20
204.1559186077514028
 30
0.0
 40
0.0238109799843451
 50
300.6621963290625104
 51
46.9788089101734272
  0
ARC
  5
916F
  8
0
 10
3479.2944071103552233
 20
203.8505762022379031
 30
0.0
 40
0.3623351765201524
 50
62.9678479628164212
 51
75.5983501002746152
  0
ARC
  5
9170
  8
0
 10
3479.1489050408331423
 20
203.1694790068750933
 30
0.0
 40
1.058601461138817
 50
77.1395104035750876
 51
86.5335170423867055
  0
LINE
  5
9171
  8
0
 10
3480.1010119449151716
 20
201.5971942575457092
 30
0.0
 11
3480.1010119449151716
 21
201.7221172467895087
 31
0.0
  0
LINE
  5
9172
  8
0
  6
CONTINUOUS
 62
     7
 10
3479.1354493746539447
 20
204.1605520399425018
 30
0.0
 11
3479.1366450265531967
 21
204.1894628491245101
 31
0.0
  0
LINE
  5
9173
  8
0
  6
CONTINUOUS
 62
     7
 10
3479.135449376696215
 20
204.1908328670238006
 30
0.0
 11
3479.1370734245037966
 21
204.230028731785211
 31
0.0
  0
LINE
  5
9174
  8
0
  6
CONTINUOUS
 10
3479.168316507767031
 20
204.1756911605768892
 30
0.0
 11
3479.1688457829818617
 21
204.1891379151593924
 31
0.0
  0
LINE
  5
9175
  8
0
  6
CONTINUOUS
 62
     7
 10
3479.1405615042990576
 20
204.1931617067764932
 30
0.0
 11
3479.1415905276239755
 21
204.2298695597270921
 31
0.0
  0
LINE
  5
9176
  8
0
  6
CONTINUOUS
 62
     7
 10
3479.0910119448640216
 20
204.1179467178947107
 30
0.0
 11
3479.0910119448640216
 21
204.1542544029836961
 31
0.0
  0
LINE
  5
9177
  8
0
  6
CONTINUOUS
 62
     7
 10
3479.0910119448640216
 20
204.1970778895872058
 30
0.0
 11
3479.0910119448640216
 21
204.2309433254457929
 31
0.0
  0
LINE
  5
9178
  8
0
  6
CONTINUOUS
 62
     7
 10
3479.1857717733651043
 20
204.1789968619106048
 30
0.0
 11
3479.1856782005747846
 21
204.1923496918516037
 31
0.0
  0
LINE
  5
9179
  8
0
  6
CONTINUOUS
 62
     7
 10
3479.1652476738340738
 20
204.1628809290033075
 30
0.0
 11
3479.1642872526517749
 21
204.1882518182075898
 31
0.0
  0
LINE
  5
917A
  8
0
  6
CONTINUOUS
 10
3479.0910119448640216
 20
204.1542544029836961
 30
0.0
 11
3479.0891056683221905
 21
204.1954765263807872
 31
0.0
  0
LINE
  5
917B
  8
0
  6
CONTINUOUS
 62
     7
 10
3479.1405615042990576
 20
204.1581705857944087
 30
0.0
 11
3479.2751118187838983
 21
204.1324971754613955
 31
0.0
  0
LINE
  5
917C
  8
0
  6
CONTINUOUS
 62
     7
 10
3479.2997979883189146
 20
204.1372075186702943
 30
0.0
 11
3479.1652476738340738
 21
204.1628809290033075
 31
0.0
  0
LINE
  5
917D
  8
0
  6
CONTINUOUS
 62
     7
 10
3479.1857717733651043
 20
204.1723354306602971
 30
0.0
 11
3479.3760546529301791
 21
204.1723354306602971
 31
0.0
  0
LINE
  5
917E
  8
0
  6
CONTINUOUS
 62
     7
 10
3479.3760546529301791
 20
204.1789968619106048
 30
0.0
 11
3479.1857717733651043
 21
204.1789968619106048
 31
0.0
  0
LINE
  5
917F
  8
0
  6
CONTINUOUS
 62
     7
 10
3479.1652476738340738
 20
204.1884513635675944
 30
0.0
 11
3479.2997979883189146
 21
204.2141247739006076
 31
0.0
  0
LINE
  5
9180
  8
0
  6
CONTINUOUS
 62
     7
 10
3479.2751118187838983
 20
204.2188351171095064
 30
0.0
 11
3479.1405615042990576
 21
204.1931617067764932
 31
0.0
  0
LINE
  5
9181
  8
0
  6
CONTINUOUS
 62
     7
 10
3479.2987607023537748
 20
204.1723353754969992
 30
0.0
 11
3479.2997979883189146
 21
204.1372075186702943
 31
0.0
  0
LINE
  5
9182
  8
0
  6
CONTINUOUS
 62
     7
 10
3479.1075845513428249
 20
204.1151087200192933
 30
0.0
 11
3479.1026227587231006
 21
204.2171457170761926
 31
0.0
  0
LINE
  5
9183
  8
0
  6
CONTINUOUS
 62
     7
 10
3479.1026227587231006
 20
204.2171457170761926
 30
0.0
 11
3479.1019581055220442
 21
204.2308151395845073
 31
0.0
  0
LINE
  5
9184
  8
0
  6
CONTINUOUS
 62
     7
 10
3479.3220337445009136
 20
204.1374367658808069
 30
0.0
 11
3479.3209523223881661
 21
204.1723353447362967
 31
0.0
  0
LINE
  5
9185
  8
0
  6
CONTINUOUS
 62
     7
 10
3479.3761171830251442
 20
204.1916383363384
 30
0.0
 11
3479.3760546529301791
 21
204.1789968619106048
 31
0.0
  0
ARC
  5
9186
  8
0
 10
3479.073691248006071
 20
201.8130587544202967
 30
0.0
 40
2.4325148718298282
 50
87.9530479302874539
 51
90.0042233289420324
  0
ARC
  5
9187
  8
0
 10
3479.1419534904430293
 20
204.1833307674116895
 30
0.0
 40
0.009928997644169
 50
98.0590737860661221
 51
130.9243871227006082
  0
ARC
  5
9188
  8
0
 10
3479.1370676408728286
 20
204.1910384216513989
 30
0.0
 40
0.0016312668849771
 50
187.2390392658809048
 51
254.9850406183055043
  0
ARC
  5
9189
  8
0
 10
3479.1529383218799012
 20
204.2452858034170902
 30
0.0
 40
0.0581521598785645
 50
253.728822979793307
 51
282.2205230648078214
  0
ARC
  5
918A
  8
0
 10
3479.1829307706370855
 20
204.2173137011320989
 30
0.0
 40
0.0450679055553524
 50
253.7757248440200044
 51
273.6142231445966786
  0
ARC
  5
918B
  8
0
 10
3479.171272393180061
 20
204.1772486698330056
 30
0.0
 40
0.0033411216157949
 50
207.7855537926971863
 51
253.7757248440200044
  0
ARC
  5
918C
  8
0
 10
3479.1728796850161416
 20
204.1710404768913918
 30
0.0
 40
0.0065154773690451
 50
100.3649325856954988
 51
134.4558634210509069
  0
ARC
  5
918D
  8
0
 10
3479.1870314195721221
 20
204.1028505277265879
 30
0.0
 40
0.076156752282572
 50
90.947725584008154
 51
101.608094413566505
  0
ARC
  5
918E
  8
0
 10
3479.2730792639749779
 20
204.2304666089939076
 30
0.0
 40
0.0118077467159476
 50
279.9121152675564872
 51
298.5153018033499848
  0
ARC
  5
918F
  8
0
 10
3479.3120689615670926
 20
204.1249282160175085
 30
0.0
 40
0.0900366743201865
 50
87.868225240556626
 51
97.8331405941113559
  0
ARC
  5
9190
  8
0
 10
3479.2758051822529524
 20
204.0258005784262139
 30
0.0
 40
0.1938160453837596
 50
53.3267044088077071
 51
75.5017089340381915
  0
ARC
  5
9191
  8
0
 10
3479.3792291952440792
 20
204.2116193707452965
 30
0.0
 40
0.0327766044850468
 50
264.4419668087277273
 51
292.1028975366937743
  0
ARC
  5
9192
  8
0
 10
3479.3775220828420061
 20
204.1299194541728923
 30
0.0
 40
0.0424413526165696
 50
71.1505789681270926
 51
91.9814236932358966
  0
ARC
  5
9193
  8
0
 10
3479.3909822874261408
 20
204.1693470353679913
 30
0.0
 40
0.0007794843635209
 50
334.9236663623721029
 51
71.1505789681008451
  0
ARC
  5
9194
  8
0
 10
3479.2994620103049783
 20
204.2798294680058007
 30
0.0
 40
0.144170610053193
 50
279.0074366604039824
 51
309.769634432312273
  0
ARC
  5
9195
  8
0
 10
3479.3102960038509082
 20
204.1974455029709929
 30
0.0
 40
0.0611459163209416
 50
260.1140268656974968
 51
281.0673525455154049
  0
ARC
  5
9196
  8
0
 10
3479.0882449205328157
 20
204.1984364735602924
 30
0.0
 40
0.003082559660635
 50
286.2143441922856937
 51
333.8493783698496031
  0
ARC
  5
9197
  8
0
 10
3479.0729782767139113
 20
204.2657985606124953
 30
0.0
 40
0.0721476351556464
 50
270.4238145062760736
 51
282.9166399091740232
  0
ARC
  5
9198
  8
0
 10
3479.1089236770180833
 20
204.172735810931897
 30
0.0
 40
0.0576426479667584
 50
251.8963188992881044
 51
268.6688128423501212
  0
ARC
  5
9199
  8
0
 10
3479.095331437151799
 20
205.3596217684226133
 30
0.0
 40
1.244573367244121
 50
270.5640993849750089
 51
278.2711847440425004
  0
ARC
  5
919A
  8
0
 10
3479.2725690962088265
 20
204.1407495505534939
 30
0.0
 40
0.0128824806474082
 50
278.053631581264483
 51
305.0463625540659791
  0
ARC
  5
919B
  8
0
 10
3479.2743683496760241
 20
204.1246402622790868
 30
0.0
 40
0.0078920105847188
 50
44.8161662258624602
 51
84.5944191241339638
  0
ARC
  5
919C
  8
0
 10
3479.1430374092860802
 20
204.1701631509214963
 30
0.0
 40
0.012245477688985
 50
231.7086783872946967
 51
258.3349853552958848
  0
ARC
  5
919D
  8
0
 10
3479.1540923135621597
 20
204.1138144370819134
 30
0.0
 40
0.0503186117880166
 50
77.1914204286287031
 51
111.746326000266194
  0
ARC
  5
919E
  8
0
 10
3479.0762452744111215
 20
204.1241971857023998
 30
0.0
 40
0.0333143240039729
 50
63.6883866379799102
 51
94.706218383164682
  0
ARC
  5
919F
  8
0
 10
3480.1234121733591564
 20
201.9708540983434943
 30
0.0
 40
0.2379147080434825
 50
178.0407933408293104
 51
258.7734656381517198
  0
ARC
  5
91A0
  8
0
 10
3479.8606728835538888
 20
201.9776404708204893
 30
0.0
 40
0.0250000000252548
 50
3.0896069708749261
 51
89.9999999769412256
  0
ARC
  5
91A1
  8
0
 10
3479.7839366208731917
 20
202.373484462778606
 30
0.0
 40
0.3841080349473864
 50
285.1010324324321914
 51
294.9610094388049788
  0
ARC
  5
91A2
  8
0
 10
3479.9332672974178422
 20
202.052673991845694
 30
0.0
 40
0.0302450540949663
 50
294.9610094388293078
 51
359.7028876681711722
  0
LINE
  5
91A3
  8
0
 10
3479.9635119448639671
 20
202.0525171541457041
 30
0.0
 11
3479.9635119448639671
 21
202.231772497745709
 31
0.0
  0
ARC
  5
91A4
  8
0
 10
3479.9335100148668971
 20
202.2317719150240123
 30
0.0
 40
0.0300019300027661
 50
0.0011128449448223
 51
65.3394872047715154
  0
LINE
  5
91A5
  8
0
 10
3479.623561725863965
 20
206.0914432197041037
 30
0.0
 11
3479.623561725863965
 21
204.8380202573515874
 31
0.0
  0
ARC
  5
91A6
  8
0
 10
3479.9349248766998244
 20
202.1926837487181103
 30
0.0
 40
0.0285870835432411
 50
0.0594306097028254
 51
61.3969067399150603
  0
ARC
  5
91A7
  8
0
 10
3479.6916813063171503
 20
201.4382148283594915
 30
0.0
 40
0.8208152217663101
 50
71.7588411493700704
 51
108.1619135766261053
  0
ARC
  5
91A8
  8
0
 10
3479.9349251607341102
 20
202.0916055500019013
 30
0.0
 40
0.0285867992633742
 50
298.6010528752934192
 51
359.9410457595766957
  0
ARC
  5
91A9
  8
0
 10
3479.6916801618967838
 20
202.8459996642361034
 30
0.0
 40
0.8207445257598593
 50
251.8365181762642919
 51
288.2428147134921232
  0
LINE
  5
91AA
  8
0
 10
3479.4358299808641277
 20
202.0661520756457037
 30
0.0
 11
3479.435830434464151
 21
202.2181365934457062
 31
0.0
  0
ARC
  5
91AB
  8
0
 10
3479.774978619113881
 20
201.8887332546626965
 30
0.0
 40
0.4079009383938037
 50
65.2070358464094681
 51
71.4788499019813486
  0
ARC
  5
91AC
  8
0
 10
3479.9141115891420668
 20
202.3040483185239964
 30
0.0
 40
0.0300997301204266
 50
180.1368384844548984
 51
251.4788499019813059
  0
LINE
  5
91AD
  8
0
 10
3479.8840119448641417
 20
202.3039764319458129
 30
0.0
 11
3479.8839089482739837
 21
202.3471021560532108
 31
0.0
  0
ARC
  5
91AE
  8
0
 10
3479.853695172550033
 20
202.3470299968963957
 30
0.0
 40
0.0302138618916549
 50
0.1368384844565295
 51
61.4062910560836173
  0
ARC
  5
91AF
  8
0
 10
3479.9676486184348505
 20
202.5560900155346076
 30
0.0
 40
0.2078858634800882
 50
133.5142456266503075
 51
241.4062910560836031
  0
LINE
  5
91B0
  8
0
 10
3479.779560745865183
 20
204.001090468945705
 30
0.0
 11
3479.779560745865183
 21
204.1365659183088042
 31
0.0
  0
ARC
  5
91B1
  8
0
 10
3479.7377964040929328
 20
204.1314649781249102
 30
0.0
 40
0.0420746935148576
 50
6.9634034761455714
 51
42.4031555172927384
  0
ARC
  5
91B2
  8
0
 10
3480.038845849603149
 20
204.4869662213237973
 30
0.0
 40
0.4241492962396585
 50
213.377565668499102
 51
230.4669756285667006
  0
ARC
  5
91B3
  8
0
 10
3479.0737612668708607
 20
206.5978364387555075
 30
0.0
 40
2.53389317573646
 50
269.9943623922197844
 51
274.9271718255919836
  0
ARC
  5
91B4
  8
0
 10
3479.1402225532851844
 20
205.6173055524421045
 30
0.0
 40
1.5513817916943831
 50
272.1632381557636791
 51
282.3387274003843004
  0
ARC
  5
91B5
  8
0
 10
3479.4087533814849849
 20
204.4280221189333986
 30
0.0
 40
0.3322875645314185
 50
280.9265223812018917
 51
306.2143565153767781
  0
ARC
  5
91B6
  8
0
 10
3479.2661796166948989
 20
204.5284360194926023
 30
0.0
 40
0.5006451277392348
 50
312.6026756646011222
 51
328.709176029030175
  0
ARC
  5
91B7
  8
0
 10
3480.0052568834689737
 20
204.0743886510890945
 30
0.0
 40
0.3667749568413981
 50
125.9985070646353051
 51
148.0625985073932043
  0
ARC
  5
91B8
  8
0
 10
3479.6897289871430985
 20
204.7018161453117102
 30
0.0
 40
0.3454694385967341
 50
286.8171631000325874
 51
305.5689198299580767
  0
ARC
  5
91B9
  8
0
 10
3479.8428605369708748
 20
204.4843507177571098
 30
0.0
 40
0.079529219043021
 50
306.9638008513138061
 51
356.389072310289805
  0
LINE
  5
91BA
  8
0
 10
3479.9222318694069145
 20
204.4793418986535016
 30
0.0
 11
3479.9222318694069145
 21
204.5404547164457085
 31
0.0
  0
ARC
  5
91BB
  8
0
 10
3479.8049051871030315
 20
204.5093558365099113
 30
0.0
 40
0.1213782958927281
 50
14.8455621624647502
 51
69.1690386565220905
  0
ARC
  5
91BC
  8
0
 10
3479.4353734021401579
 20
203.591997287444201
 30
0.0
 40
1.1103476297584269
 50
68.1806595338657218
 51
85.1538827540244938
  0
ARC
  5
91BD
  8
0
 10
3479.0660830437050208
 20
200.5957626985463946
 30
0.0
 40
4.1286665442825878
 50
83.5598592744869535
 51
89.8969049907934163
  0
ARC
  5
91BE
  8
0
 10
3479.8515035232730952
 20
204.7767598892883996
 30
0.0
 40
0.1457294852450688
 50
185.0666825310242132
 51
246.8620994255165044
  0
ARC
  5
91BF
  8
0
 10
3479.6175418659067873
 20
204.7419111297984955
 30
0.0
 40
0.091481061452385
 50
13.9015042250575096
 51
65.0974342761582534
  0
ARC
  5
91C0
  8
0
 10
3479.3404803562370944
 20
204.0907160742810902
 30
0.0
 40
0.7991236474191669
 50
66.7396303903023238
 51
81.4798004295204663
  0
ARC
  5
91C1
  8
0
 10
3479.044819929878031
 20
201.6947808974651934
 30
0.0
 40
3.2130305118308971
 50
82.5958125120894664
 51
89.4883480842544827
  0
LINE
  5
91C2
  8
0
 10
3479.9045502684639359
 20
202.2755075599457086
 30
0.0
 11
3478.2424736213638425
 21
202.2755075599457086
 31
0.0
  0
LINE
  5
91C3
  8
0
 10
3479.8839089479788527
 20
202.3471022790457141
 30
0.0
 11
3478.2631149418489258
 21
202.3471022790457141
 31
0.0
  0
LINE
  5
91C4
  8
0
 10
3478.3674631439639597
 20
204.001090468945705
 30
0.0
 11
3479.779560745865183
 21
204.001090468945705
 31
0.0
  0
LINE
  5
91C5
  8
0
 10
3478.5786825744007729
 20
204.1365659183088042
 30
0.0
 11
3478.3674631439639597
 21
204.1365659183088042
 31
0.0
  0
LINE
  5
91C6
  8
0
 10
3479.5683413154270056
 20
204.1365659183088042
 30
0.0
 11
3479.779560745865183
 21
204.1365659183088042
 31
0.0
  0
ARC
  5
91C7
  8
0
 10
3478.3512704968388789
 20
204.4125247542243073
 30
0.0
 40
0.1430431256179278
 50
103.5424331289852944
 51
152.1530143610179948
  0
ARC
  5
91C8
  8
0
 10
3478.8548767618572128
 20
202.7728891188822899
 30
0.0
 40
1.858025380787347
 50
92.9831682611082471
 51
106.8023709963619012
  0
ARC
  5
91C9
  8
0
 10
3479.0762472693081691
 20
200.274886074888002
 30
0.0
 40
4.3651140552477141
 50
90.0359034269457936
 51
94.1785985245504094
  0
ARC
  5
91CA
  8
0
 10
3479.7957533929898091
 20
204.4125247542243073
 30
0.0
 40
0.1430431256179278
 50
27.8469856389819412
 51
76.4575668710146346
  0
ARC
  5
91CB
  8
0
 10
3479.2921471279710204
 20
202.7728891188822899
 30
0.0
 40
1.858025380787347
 50
73.1976290036380419
 51
87.0168317388917671
  0
ARC
  5
91CC
  8
0
 10
3479.0707766205209737
 20
200.274886074888002
 30
0.0
 40
4.3651140552477141
 50
85.8214014754495764
 51
89.964096573054178
  0
ARC
  5
91CD
  8
0
 10
3479.0735119449141166
 20
205.9184274693886039
 30
0.0
 40
0.5766187747380415
 50
17.4607403186179511
 51
162.5392596813819921
  0
ARC
  5
91CE
  8
0
 10
3479.2432898211691281
 20
203.3897988648772923
 30
0.0
 40
1.146408182019663
 50
183.0568484482874112
 51
216.5646653540042053
  0
ARC
  5
91CF
  8
0
 10
3479.0734409701931327
 20
203.3286646272800908
 30
0.0
 40
0.9750700744740798
 50
0.0
 51
43.5998751873754813
  0
ARC
  5
91D0
  8
0
 10
3478.9037340686600146
 20
203.3897988648772923
 30
0.0
 40
1.146408182019663
 50
323.4353346459957947
 51
356.9431515517126172
  0
ENDSEC
  0
EOF
