  0
SECTION
  2
HEADER
  9
$ACADVER
  1
AC1009
  9
$INSBASE
 10
525.9617999736484535
 20
76.2364965539549502
 30
0.0
  9
$EXTMIN
 10
518.8536501173291526
 20
76.1308347387568745
 30
-0.0000000000112498
  9
$EXTMAX
 10
533.0776392097353664
 20
77.835220862843812
 30
0.0000000000002956
  9
$LIMMIN
 10
0.0
 20
0.0
  9
$LIMMAX
 10
11.6929133858000007
 20
8.2677165353999982
  9
$ORTHOMODE
 70
     0
  9
$REGENMODE
 70
     1
  9
$FILLMODE
 70
     1
  9
$QTEXTMODE
 70
     0
  9
$MIRRTEXT
 70
     0
  9
$DRAGMODE
 70
     2
  9
$LTSCALE
 40
0.6431102362
  9
$OSMODE
 70
  4095
  9
$ATTMODE
 70
     1
  9
$TEXTSIZE
 40
0.2
  9
$TRACEWID
 40
0.05
  9
$TEXTSTYLE
  7
STANDARD
  9
$CLAYER
  8
0
  9
$CELTYPE
  6
BYLAYER
  9
$CECOLOR
 62
   256
  9
$DIMSCALE
 40
1.0
  9
$DIMASZ
 40
0.1875
  9
$DIMEXO
 40
0.0625
  9
$DIMDLI
 40
0.4443307087
  9
$DIMRND
 40
0.0
  9
$DIMDLE
 40
0.0
  9
$DIMEXE
 40
0.125
  9
$DIMTP
 40
0.01
  9
$DIMTM
 40
0.01
  9
$DIMTXT
 40
1.0
  9
$DIMCEN
 40
0.1052362205
  9
$DIMTSZ
 40
0.0
  9
$DIMTOL
 70
     1
  9
$DIMLIM
 70
     0
  9
$DIMTIH
 70
     0
  9
$DIMTOH
 70
     1
  9
$DIMSE1
 70
     0
  9
$DIMSE2
 70
     0
  9
$DIMTAD
 70
     0
  9
$DIMZIN
 70
     0
  9
$DIMBLK
  1

  9
$DIMASO
 70
     1
  9
$DIMSHO
 70
     1
  9
$DIMPOST
  1
\X
  9
$DIMAPOST
  1

  9
$DIMALT
 70
     1
  9
$DIMALTD
 70
     2
  9
$DIMALTF
 40
25.3999999999999986
  9
$DIMLFAC
 40
1.0
  9
$DIMTOFL
 70
     0
  9
$DIMTVP
 40
0.0
  9
$DIMTIX
 70
     0
  9
$DIMSOXD
 70
     0
  9
$DIMSAH
 70
     0
  9
$DIMBLK1
  1

  9
$DIMBLK2
  1

  9
$DIMSTYLE
  2
STANDARD
  9
$DIMCLRD
 70
     0
  9
$DIMCLRE
 70
     0
  9
$DIMCLRT
 70
     0
  9
$DIMTFAC
 40
1.0
  9
$DIMGAP
 40
0.09
  9
$LUNITS
 70
     2
  9
$LUPREC
 70
     4
  9
$SKETCHINC
 40
0.1
  9
$FILLETRAD
 40
0.0
  9
$AUNITS
 70
     0
  9
$AUPREC
 70
     0
  9
$MENU
  1
.
  9
$ELEVATION
 40
0.0
  9
$PELEVATION
 40
0.0
  9
$THICKNESS
 40
0.0
  9
$LIMCHECK
 70
     0
  9
$BLIPMODE
 70
     0
  9
$CHAMFERA
 40
0.0
  9
$CHAMFERB
 40
0.0
  9
$SKPOLY
 70
     0
  9
$TDCREATE
 40
2458171.8957638889551163
  9
$TDUPDATE
 40
2459047.8318865741603076
  9
$TDINDWG
 40
0.3137854398
  9
$TDUSRTIMER
 40
0.3137854398
  9
$USRTIMER
 70
     1
  9
$ANGBASE
 50
0.0
  9
$ANGDIR
 70
     0
  9
$PDMODE
 70
     0
  9
$PDSIZE
 40
0.3125
  9
$PLINEWID
 40
0.0
  9
$COORDS
 70
     1
  9
$SPLFRAME
 70
     0
  9
$SPLINETYPE
 70
     6
  9
$SPLINESEGS
 70
     8
  9
$ATTDIA
 70
     1
  9
$ATTREQ
 70
     1
  9
$HANDLING
 70
     1
  9
$HANDSEED
  5
8C15
  9
$SURFTAB1
 70
     6
  9
$SURFTAB2
 70
     6
  9
$SURFTYPE
 70
     6
  9
$SURFU
 70
     6
  9
$SURFV
 70
     6
  9
$UCSNAME
  2

  9
$UCSORG
 10
0.0
 20
0.0
 30
0.0
  9
$UCSXDIR
 10
1.0
 20
0.0
 30
0.0
  9
$UCSYDIR
 10
0.0
 20
1.0
 30
0.0
  9
$PUCSNAME
  2

  9
$PUCSORG
 10
0.0
 20
0.0
 30
0.0
  9
$PUCSXDIR
 10
1.0
 20
0.0
 30
0.0
  9
$PUCSYDIR
 10
0.0
 20
1.0
 30
0.0
  9
$USERI1
 70
     0
  9
$USERI2
 70
     0
  9
$USERI3
 70
     0
  9
$USERI4
 70
     0
  9
$USERI5
 70
     0
  9
$USERR1
 40
0.0
  9
$USERR2
 40
0.0
  9
$USERR3
 40
0.0
  9
$USERR4
 40
0.0
  9
$USERR5
 40
0.0
  9
$WORLDVIEW
 70
     1
  9
$SHADEDGE
 70
     3
  9
$SHADEDIF
 70
    70
  9
$TILEMODE
 70
     1
  9
$MAXACTVP
 70
    64
  9
$PLIMCHECK
 70
     0
  9
$PEXTMIN
 10
1.0000000000000000E+20
 20
1.0000000000000000E+20
 30
1.0000000000000000E+20
  9
$PEXTMAX
 10
-1.0000000000000000E+20
 20
-1.0000000000000000E+20
 30
-1.0000000000000000E+20
  9
$PLIMMIN
 10
0.0
 20
0.0
  9
$PLIMMAX
 10
12.0
 20
9.0
  9
$UNITMODE
 70
     0
  9
$VISRETAIN
 70
     1
  9
$PLINEGEN
 70
     0
  9
$PSLTSCALE
 70
     1
  0
ENDSEC
  0
SECTION
  2
TABLES
  0
TABLE
  2
VPORT
 70
     1
  0
VPORT
  2
*ACTIVE
 70
     0
 10
0.0
 20
0.0
 11
1.0
 21
1.0
 12
59.2234429557022395
 22
-12.1501193191294394
 13
0.0
 23
0.0
 14
1.0
 24
1.0
 15
0.0
 25
0.0
 16
0.0
 26
0.0
 36
24.1179433675886514
 17
466.74220170783002
 27
89.133147119929788
 37
0.0
 40
5.5273025824309707
 41
2.5847619047619039
 42
50.0
 43
0.0
 44
0.0
 50
0.0
 51
0.0
 71
     0
 72
   100
 73
     1
 74
     1
 75
     0
 76
     0
 77
     0
 78
     0
  0
ENDTAB
  0
TABLE
  2
LTYPE
 70
     2
  0
LTYPE
  2
CONTINUOUS
 70
     0
  3
Solid line
 72
    65
 73
     0
 40
0.0
  0
LTYPE
  2
PHANTOM2
 70
     0
  3
___ _ _ ___ _ _ ___ _ _ ___ _ _
 72
    65
 73
     6
 40
1.25
 49
0.625
 49
-0.125
 49
0.125
 49
-0.125
 49
0.125
 49
-0.125
  0
ENDTAB
  0
TABLE
  2
LAYER
 70
     2
  0
LAYER
  2
0
 70
     0
 62
   255
  6
CONTINUOUS
  0
LAYER
  2
DEFPOINTS
 70
     0
 62
     7
  6
CONTINUOUS
  0
ENDTAB
  0
TABLE
  2
STYLE
 70
     1
  0
STYLE
  2
STANDARD
 70
     0
 40
0.0
 41
0.8
 50
0.0
 71
     0
 42
0.2
  3
txt
  4

  0
ENDTAB
  0
TABLE
  2
VIEW
 70
     0
  0
ENDTAB
  0
TABLE
  2
UCS
 70
     0
  0
ENDTAB
  0
TABLE
  2
APPID
 70
    10
  0
APPID
  2
ACAD
 70
     0
  0
APPID
  2
ACAD_MLEADERVER
 70
     0
  0
APPID
  2
ACAD_EXEMPT_FROM_CAD_STANDARDS
 70
     0
  0
APPID
  2
ACAD_DSTYLE_DIMJAG
 70
     0
  0
APPID
  2
ACAD_DSTYLE_DIMTALN
 70
     0
  0
APPID
  2
ACAD_NAV_VCDISPLAY
 70
     0
  0
APPID
  2
ACAECLAYERSTANDARD
 70
     0
  0
APPID
  2
ACCMTRANSPARENCY
 70
     0
  0
APPID
  2
DCO15
 70
     0
  0
APPID
  2
ACDBATTR
 70
     0
  0
ENDTAB
  0
TABLE
  2
DIMSTYLE
 70
     1
  0
DIMSTYLE
  2
STANDARD
 70
     0
  3

  4

  5

  6

  7

 40
1.0
 41
0.1875
 42
0.0625
 43
0.38
 44
0.125
 45
0.0
 46
0.0
 47
0.01
 48
0.01
140
0.15625
141
0.09
142
0.0
143
25.3999999999999986
144
1.0
145
0.0
146
1.0
147
0.09
 71
     1
 72
     0
 73
     1
 74
     1
 75
     0
 76
     0
 77
     0
 78
     4
170
     0
171
     2
172
     0
173
     0
174
     0
175
     0
176
     0
177
     0
178
     0
  0
ENDTAB
  0
ENDSEC
  0
SECTION
  2
BLOCKS
  0
BLOCK
  8
0
  2
$MODEL_SPACE
 70
     0
 10
0.0
 20
0.0
 30
0.0
  3
$MODEL_SPACE
  1

  0
ENDBLK
  5
21
  8
0
  0
BLOCK
 67
     1
  8
0
  2
$PAPER_SPACE
 70
     0
 10
0.0
 20
0.0
 30
0.0
  3
$PAPER_SPACE
  1

  0
ENDBLK
  5
1D
 67
     1
  8
0
  0
ENDSEC
  0
SECTION
  2
ENTITIES
  0
ATTDEF
  5
829
  8
DEFPOINTS
 10
525.9583719896728553
 20
76.240667245964687
 30
0.0
 40
0.001
  1
K-77168IN-UF
  3

  2
MODELNUMBER
 70
     0
1001
ACDBATTR
1070
     0
1070
     1
  0
ATTDEF
  5
82A
  8
DEFPOINTS
 10
525.9583719896728553
 20
76.2390005792980219
 30
0.0
 40
0.001
  1
MODERN LIFE
  3

  2
TRADENAME
 70
     0
1001
ACDBATTR
1070
     0
1070
     1
  0
ATTDEF
  5
82B
  8
DEFPOINTS
 10
525.9583719896728553
 20
76.2373339126313567
 30
0.0
 40
0.001
  1
TOILET SEAT
  3

  2
PRODUCT
 70
     0
1001
ACDBATTR
1070
     0
1070
     1
  0
LINE
  5
89D3
  8
0
 10
518.8801216433845411
 20
77.7569799566511506
 30
0.0
 11
518.8744360084234586
 21
77.4312498062314916
 31
0.0
  0
ARC
  5
89D4
  8
0
 10
518.9591123143973164
 20
77.7557325727867408
 30
0.0
 40
0.0790005194512242
 50
93.3013482652824848
 51
179.0952869501581972
  0
ARC
  5
89D5
  8
0
 10
518.9494942377600637
 20
77.4297221056948644
 30
0.0
 40
0.0750737747824828
 50
178.833989159354104
 51
208.4846756623610986
  0
ARC
  5
89D6
  8
0
 10
518.9453818747355172
 20
77.427697351025472
 30
0.0
 40
0.0704938156149094
 50
208.6323054416006073
 51
273.7371646830449095
  0
ARC
  5
89D7
  8
0
 10
518.9788029345327232
 20
78.9537516693073655
 30
0.0
 40
1.596658470612589
 50
268.9655175443111261
 51
274.9216873554149174
  0
ARC
  5
89D8
  8
0
 10
519.1325971514487492
 20
70.9436081194959911
 30
0.0
 40
6.4193941402611721
 50
89.84995978331429
 51
90.1500402166857242
  0
ARC
  5
89D9
  8
0
 10
519.369836878449405
 20
78.7056681334263857
 30
0.0
 40
1.360661542666147
 50
260.6769063801166908
 51
263.4577701883392251
  0
ARC
  5
89DA
  8
0
 10
518.3836969851234926
 20
66.9165512017222284
 30
0.0
 40
10.4703538126456195
 50
83.6695386534104273
 51
85.447205135532144
  0
ARC
  5
89DB
  8
0
 10
519.946628008282687
 20
80.0551887824921522
 30
0.0
 40
2.7624884106318368
 50
260.1015273474238825
 51
261.4974964136653739
  0
ARC
  5
89DC
  8
0
 10
519.5179791220787138
 20
77.1630007009715939
 30
0.0
 40
0.1769676406899391
 50
92.123885679708394
 51
105.1435482275560958
  0
ARC
  5
89DD
  8
0
 10
519.6799391261920391
 20
68.6154420994378285
 30
0.0
 40
8.7260320501132203
 50
86.8233484163114611
 51
91.106573741118325
  0
ARC
  5
89DE
  8
0
 10
520.073799811050435
 20
76.3312908203631082
 30
0.0
 40
1.0008021100798179
 50
79.8938162441407371
 51
84.8584112031701068
  0
ARC
  5
89DF
  8
0
 10
519.4896798427718068
 20
77.2736870080440355
 30
0.0
 40
0.0692155731994499
 50
38.8277972334330101
 51
72.7701722471615113
  0
LINE
  5
89E0
  8
0
 10
519.5436011189268584
 20
77.3170839152049751
 30
0.0
 11
519.6197418092424414
 21
77.2364238154549554
 31
0.0
  0
ARC
  5
89E1
  8
0
 10
519.6583310576348822
 20
77.2726721215634313
 30
0.0
 40
0.0529440250380005
 50
223.2083541623277085
 51
238.9753060150219994
  0
ARC
  5
89E2
  8
0
 10
520.5219492849367953
 20
36.2317784363395603
 30
0.0
 40
41.0052029013539965
 50
89.8625489959086963
 51
92.1605448125152265
  0
ARC
  5
89E3
  8
0
 10
526.3378195334764769
 20
-1768.7800676634910815
 30
0.0
 40
1846.0257851319049678
 50
90.0116706571012486
 51
90.1774564282403901
  0
LINE
  5
89E4
  8
0
 10
520.2053433018706983
 20
77.235759043503748
 30
0.0
 11
520.248187621668535
 21
77.2698390930740118
 31
0.0
  0
ARC
  5
89E5
  8
0
 10
518.9922305050807836
 20
77.094166098465621
 30
0.0
 40
0.1148088500877344
 50
98.0938157222454521
 51
176.5270407846350054
  0
LINE
  5
89E6
  8
0
 10
518.8776325015425073
 20
77.1011209272546836
 30
0.0
 11
518.8722722747271519
 21
76.7940421405973268
 31
0.0
  0
ARC
  5
89E7
  8
0
 10
518.9442147550363416
 20
76.7900388148524797
 30
0.0
 40
0.0720537791516733
 50
176.8149922651057011
 51
231.544614915978002
  0
ARC
  5
89E8
  8
0
 10
518.9434698724339796
 20
76.7892689579357892
 30
0.0
 40
0.07098774056857
 50
231.6289868117212905
 51
279.4568803189213781
  0
LINE
  5
89E9
  8
0
 10
518.9551335344424388
 20
76.719245973854953
 30
0.0
 11
519.0281628998975521
 21
76.7312777879243697
 31
0.0
  0
ARC
  5
89EA
  8
0
 10
518.7701384664541138
 20
75.1402258773019156
 30
0.0
 40
1.6118383264301519
 50
71.0202682452230363
 51
84.0787304719871145
  0
ARC
  5
89EB
  8
0
 10
519.2612258281914137
 20
76.6112466093626239
 30
0.0
 40
0.0626657241371663
 50
22.048811975629949
 51
65.7368803557660044
  0
ARC
  5
89EC
  8
0
 10
519.8785297921972415
 20
76.4038443031646608
 30
0.0
 40
0.0157688064027929
 50
269.0141896816522831
 51
320.4289834136050104
  0
ARC
  5
89ED
  8
0
 10
519.8771275895513782
 20
76.3223556393111551
 30
0.0
 40
0.0657319206423685
 50
89.0141896816523968
 51
137.8527573497115952
  0
ARC
  5
89EE
  8
0
 10
519.7547353407800301
 20
76.3456759098834112
 30
0.0
 40
0.0394512932321237
 50
240.8289979659475932
 51
319.1745682032257037
  0
ARC
  5
89EF
  8
0
 10
519.4163029805000633
 20
76.5567955637765181
 30
0.0
 40
0.060034449818911
 50
201.2460285083068925
 51
241.9681258353392934
  0
LINE
  5
89F0
  8
0
 10
519.7355060781427483
 20
76.3112282685110443
 30
0.0
 11
519.3880890294559549
 21
76.5038039782978245
 31
0.0
  0
LINE
  5
89F1
  8
0
 10
519.8283924452024394
 20
76.3664642676804135
 30
0.0
 11
519.7845883295818794
 21
76.3198843686871982
 31
0.0
  0
LINE
  5
89F2
  8
0
 10
519.3603488927529952
 20
76.5350406739939473
 30
0.0
 11
519.3193084557195789
 21
76.6347710936512954
 31
0.0
  0
ARC
  5
89F3
  8
0
 10
520.3337618964742433
 20
76.399096130308763
 30
0.0
 40
0.1191264375124157
 50
259.7785607213237995
 51
310.2284455609399174
  0
ARC
  5
89F4
  8
0
 10
520.4022611885995957
 20
76.9881882121669889
 30
0.0
 40
0.7119931057044631
 50
247.6375586253325025
 51
262.7673725362424761
  0
ARC
  5
89F5
  8
0
 10
521.1293554000709491
 20
78.8789103462942336
 30
0.0
 40
2.7375604621324712
 50
241.607875023627912
 51
248.6200082599928862
  0
ARC
  5
89F6
  8
0
 10
519.8660919771549516
 20
76.5314388749396954
 30
0.0
 40
0.0719396027157588
 50
213.0836982979012078
 51
237.6863191524822128
  0
ARC
  5
89F7
  8
0
 10
515.5813927635585969
 20
73.6079256297469726
 30
0.0
 40
5.1151356169872706
 50
34.3234860551649419
 51
35.7619763362738396
  0
ARC
  5
89F8
  8
0
 10
518.8038752364429911
 20
76.7814566702132169
 30
0.0
 40
0.137880940504874
 50
333.5914692900370255
 51
344.0055559068633215
  0
ARC
  5
89F9
  8
0
 10
519.1052292780930202
 20
76.6786702319993765
 30
0.0
 40
0.1808185039595895
 50
149.3639754264779071
 51
159.0018340892439994
  0
ARC
  5
89FA
  8
0
 10
519.1317226600199319
 20
75.2920141487211936
 30
0.0
 40
1.4899645614875381
 50
91.6873912088995269
 51
97.0190838204552648
  0
ARC
  5
89FB
  8
0
 10
519.1931306708789862
 20
76.4323931872008018
 30
0.0
 40
0.3644763393351226
 50
103.8725457962765972
 51
106.7896003242452991
  0
ARC
  5
89FC
  8
0
 10
523.5760676324407541
 20
-99.3600849805280717
 30
0.0
 40
176.203039151937304
 50
90.9425543077368985
 51
91.4537673877031096
  0
ARC
  5
89FD
  8
0
 10
522.1127479022461557
 20
117.641235903464306
 30
0.0
 40
40.8473451129771021
 50
267.9864461970105936
 51
269.6856856973280969
  0
ARC
  5
89FE
  8
0
 10
517.7968055653708461
 20
71.4087037559314695
 30
0.0
 40
5.5345455360535256
 50
69.4953365498270159
 51
76.3197577099073214
  0
ARC
  5
89FF
  8
0
 10
519.7437622808007518
 20
76.6296285199555598
 30
0.0
 40
0.0343658844371117
 50
197.0320770102532038
 51
250.1250665673869094
  0
ARC
  5
8A00
  8
0
 10
519.7829123566417593
 20
76.5545208726055648
 30
0.0
 40
0.0970343656740171
 50
99.5396454313363108
 51
137.9101727940318085
  0
ARC
  5
8A01
  8
0
 10
519.7796198044328548
 20
76.4538505982859817
 30
0.0
 40
0.1968712188580313
 50
94.3022279826681284
 51
119.1771062913446997
  0
ARC
  5
8A02
  8
0
 10
519.8370912226181417
 20
73.6027318247722775
 30
0.0
 40
3.0482913677356009
 50
82.6180597873099458
 51
91.3579562818981117
  0
ARC
  5
8A03
  8
0
 10
519.856687615826786
 20
72.5997767073703386
 30
0.0
 40
4.0431364723822512
 50
82.6114506264901252
 51
84.720061422942706
  0
ARC
  5
8A04
  8
0
 10
520.3346853572154487
 20
76.3677673414276939
 30
0.0
 40
0.2451872720689639
 50
56.8689193986473782
 51
80.1512788083359453
  0
ARC
  5
8A05
  8
0
 10
520.4551630909603546
 20
76.552360851748162
 30
0.0
 40
0.0247566744180653
 50
31.6252299914301993
 51
56.8689193986473782
  0
ARC
  5
8A06
  8
0
 10
619.6799879466038874
 20
126.2514369489610999
 30
0.0
 40
110.950849272755093
 50
206.6039524979682085
 51
206.6835341546251072
  0
ARC
  5
8A07
  8
0
 10
520.4876317041381526
 20
76.3920965120110509
 30
0.0
 40
0.0677644802816541
 50
350.4570764999645007
 51
31.5959165494526886
  0
ARC
  5
8A08
  8
0
 10
520.5133762660750563
 20
76.3984799003616217
 30
0.0
 40
0.0447004745477812
 50
271.8498314820529913
 51
336.7882433645559104
  0
ARC
  5
8A09
  8
0
 10
520.4895808676837987
 20
76.5761539649204366
 30
0.0
 40
0.2237790184921882
 50
261.9280208429090067
 51
276.4757329122566034
  0
LINE
  5
8A0A
  8
0
 10
520.4106981347423471
 20
76.3081460156549554
 30
0.0
 11
520.4622800098425159
 21
76.358625493354964
 31
0.0
  0
ARC
  5
8A0B
  8
0
 10
520.4582392140210914
 20
76.4737169818359632
 30
0.0
 40
0.115162401640496
 50
272.0107958602815756
 51
295.5789151491022722
  0
ARC
  5
8A0C
  8
0
 10
520.4864453409117004
 20
76.414790613889835
 30
0.0
 40
0.049833216481811
 50
295.5789151491022722
 51
359.0915304663071197
  0
ARC
  5
8A0D
  8
0
 10
520.4686490880385463
 20
76.4150728110897006
 30
0.0
 40
0.0676317066308356
 50
359.0915304663063239
 51
28.6920641968507617
  0
ARC
  5
8A0E
  8
0
 10
523.0937317482218987
 20
77.6420440770806692
 30
0.0
 40
2.830182520623552
 50
204.4563213834971123
 51
204.9645853883272082
  0
ARC
  5
8A0F
  8
0
 10
518.0028263560533333
 20
75.2982435402789605
 30
0.0
 40
2.7744050395135602
 50
24.9907117155764915
 51
27.3401252341910492
  0
ARC
  5
8A10
  8
0
 10
520.4053209153582884
 20
76.5004622170508526
 30
0.0
 40
0.0950046681214082
 50
49.2638493188338487
 51
57.9789527517877019
  0
ARC
  5
8A11
  8
0
 10
519.9840086600461291
 20
76.4216587220750938
 30
0.0
 40
0.0725799738750787
 50
237.9183232007133029
 51
314.3157949431163729
  0
LINE
  5
8A12
  8
0
 10
519.9454594296215646
 20
76.3601623039567983
 30
0.0
 11
519.8882391070708309
 21
76.3914191488374996
 31
0.0
  0
ARC
  5
8A13
  8
0
 10
519.6558762716342699
 20
75.9618698514295261
 30
0.0
 40
0.4927949599877094
 50
53.5568195372236673
 51
60.7848343664313688
  0
ARC
  5
8A14
  8
0
 10
514.6380353694274845
 20
66.9890784748369441
 30
0.0
 40
10.7733451596469791
 50
60.7848343664313688
 51
63.0706429938718216
  0
ARC
  5
8A15
  8
0
 10
518.9953663842949254
 20
75.4611861391558278
 30
0.0
 40
1.247426891482682
 50
65.2712938712894726
 51
73.7772696795016714
  0
ARC
  5
8A16
  8
0
 10
519.1635955011848864
 20
76.0894446456491664
 30
0.0
 40
0.5973490645281831
 50
72.4355459643817881
 51
80.3252201157583983
  0
ARC
  5
8A17
  8
0
 10
519.3053026095807354
 20
76.7424562789429672
 30
0.0
 40
0.0763123807523724
 50
237.2176123112647019
 51
256.1051582758917107
  0
ARC
  5
8A18
  8
0
 10
519.2937430798575633
 20
76.6850132798956565
 30
0.0
 40
0.0179596443856899
 50
211.4043466665308983
 51
247.8679022058555859
  0
ARC
  5
8A19
  8
0
 10
519.1557698871689581
 20
75.3964822925673133
 30
0.0
 40
1.131701813711697
 50
74.3074870006174422
 51
78.1973329166546307
  0
ARC
  5
8A1A
  8
0
 10
519.3550324340391171
 20
76.251116198169953
 30
0.0
 40
0.2580407020944648
 50
56.6276835525912716
 51
65.5423618944269037
  0
ARC
  5
8A1B
  8
0
 10
512.9018706825781919
 20
66.0539897038679271
 30
0.0
 40
12.3255040312225006
 50
56.3136731612021535
 51
57.6508094555720376
  0
ARC
  5
8A1C
  8
0
 10
520.5452811785080485
 20
76.8050251759929097
 30
0.0
 40
0.4714190209980743
 50
257.9972685772676755
 51
269.8927968589007946
  0
ARC
  5
8A1D
  8
0
 10
520.5446700847395505
 20
76.478420445876452
 30
0.0
 40
0.1448137191886346
 50
269.8927968589007946
 51
333.1853878395241964
  0
ARC
  5
8A1E
  8
0
 10
521.6220394579644335
 20
76.1057265063162447
 30
0.0
 40
0.9967047720423517
 50
134.9300151346535017
 51
162.0381351194768058
  0
ARC
  5
8A1F
  8
0
 10
519.7211322486025438
 20
76.6638937418820916
 30
0.0
 40
0.0534890753583586
 50
225.5018362324767054
 51
245.0538521825982912
  0
ARC
  5
8A20
  8
0
 10
519.7964716393108802
 20
76.7338698991438406
 30
0.0
 40
0.1536898882488738
 50
230.4320925631949137
 51
246.5259394836897968
  0
ARC
  5
8A21
  8
0
 10
519.77049164995708
 20
76.5724826368581546
 30
0.0
 40
0.0781748490063275
 50
100.7134171689151998
 51
149.7289751353937959
  0
ARC
  5
8A22
  8
0
 10
520.920743530004529
 20
76.1088347022709257
 30
0.0
 40
0.7750443618484523
 50
33.6081012359971112
 51
63.5359479216158078
  0
ARC
  5
8A23
  8
0
 10
521.0985804261323437
 20
76.2270255015166072
 30
0.0
 40
0.5615144420463614
 50
1.8502583682436651
 51
33.6081012359971112
  0
ARC
  5
8A24
  8
0
 10
521.7587886876794983
 20
76.2547353157379177
 30
0.0
 40
0.0994235962762853
 50
185.4563202569495957
 51
218.8491124834237951
  0
ARC
  5
8A25
  8
0
 10
521.7626774582178086
 20
76.2578674595113029
 30
0.0
 40
0.1044168778543606
 50
218.8491124834237951
 51
267.4246038396073004
  0
ARC
  5
8A26
  8
0
 10
522.4589815786127929
 20
93.9360921776195852
 30
0.0
 40
17.7963475637048312
 50
267.7425421176179157
 51
270.4846960479862901
  0
ARC
  5
8A27
  8
0
 10
522.6710453160818588
 20
-242.8107247009565128
 30
0.0
 40
318.9511120310398837
 50
89.718338474235324
 51
90.0110507240273705
  0
ARC
  5
8A28
  8
0
 10
521.9043482187239533
 20
76.4202695525511047
 30
0.0
 40
0.271854360773903
 50
256.2862329850485139
 51
269.8167243550095122
  0
ARC
  5
8A29
  8
0
 10
522.2329412590229367
 20
72.5520730367444315
 30
0.0
 40
3.6254602570274201
 50
89.8872887176024733
 51
96.223759943619811
  0
ARC
  5
8A2A
  8
0
 10
526.2100788121358619
 20
-713.045038152965617
 30
0.0
 40
789.2325494763341567
 50
90.0180242563882445
 51
90.2882110294885081
  0
ARC
  5
8A2B
  8
0
 10
520.2826348054843493
 20
77.4218268206044939
 30
0.0
 40
0.1657446289708461
 50
279.1949312906737077
 51
307.97506521052469
  0
ARC
  5
8A2C
  8
0
 10
521.0127266994511501
 20
76.6904615826276768
 30
0.0
 40
0.8691217447309751
 50
130.0039769186516025
 51
136.2770748499044089
  0
LINE
  5
8A2D
  8
0
 10
519.6133870825499343
 20
77.2431557335237642
 30
0.0
 11
520.0690642084699675
 21
77.2431557335237642
 31
0.0
  0
LINE
  5
8A2E
  8
0
 10
520.0690642084699675
 20
77.2431557335237642
 30
0.0
 11
520.0756535772804909
 21
77.2345525513008226
 31
0.0
  0
LINE
  5
8A2F
  8
0
 10
518.9545628704354385
 20
77.8346019878549527
 30
0.0
 11
532.9599381889383949
 21
77.8346019878549527
 31
0.0
  0
ARC
  5
8A30
  8
0
 10
522.2695243176964368
 20
83.5109853989036708
 30
0.0
 40
7.0119077416241229
 50
257.830869358895427
 51
264.2632497360108914
  0
LINE
  5
8A31
  8
0
 10
520.7080717272458514
 20
77.3562086871492198
 30
0.0
 11
520.3349693805301968
 21
77.2645615215475914
 31
0.0
  0
LINE
  5
8A32
  8
0
 10
520.3091197794223035
 20
77.2582119429551852
 30
0.0
 11
520.2181054575514736
 21
77.2358555983702928
 31
0.0
  0
ARC
  5
8A33
  8
0
 10
522.1255882270753546
 20
68.8548674597919046
 30
0.0
 40
8.5166085301574181
 50
93.6188818067739277
 51
100.2002245994886067
  0
LINE
  5
8A34
  8
0
 10
522.2216423598423489
 20
77.3562086871492198
 30
0.0
 11
522.2216423598423489
 21
77.2411284383682357
 31
0.0
  0
LINE
  5
8A35
  8
0
 10
522.2040446518717545
 20
77.3562086871492198
 30
0.0
 11
522.2040446518717545
 21
77.2410891158920947
 31
0.0
  0
LINE
  5
8A36
  8
0
 10
521.6880836469078986
 20
77.3562086871492198
 30
0.0
 11
521.6880836469078986
 21
77.2398616243941234
 31
0.0
  0
LINE
  5
8A37
  8
0
 10
521.6683765488202198
 20
77.3562086871492198
 30
0.0
 11
521.6683765488202198
 21
77.2398118811678103
 31
0.0
  0
ARC
  5
8A38
  8
0
 10
521.5939432475516924
 20
77.2663122209085742
 30
0.0
 40
0.0883798803130227
 50
32.6271127074366873
 51
93.8396946256019646
  0
LINE
  5
8A39
  8
0
 10
533.0434783039122522
 20
77.7569799566511506
 30
0.0
 11
533.0491639388733347
 21
77.4312498062314916
 31
0.0
  0
ARC
  5
8A3A
  8
0
 10
532.9644876328994769
 20
77.7557325727867408
 30
0.0
 40
0.0790005194512242
 50
0.9047130498418169
 51
93.3013482648518249
  0
ARC
  5
8A3B
  8
0
 10
532.9741057095366159
 20
77.4297221056948644
 30
0.0
 40
0.0750737747824828
 50
331.5153243376387877
 51
1.1660108406459051
  0
ARC
  5
8A3C
  8
0
 10
532.9782180725612761
 20
77.427697351025472
 30
0.0
 40
0.0704938156149094
 50
266.2628353169550905
 51
331.3676945583994211
  0
ARC
  5
8A3D
  8
0
 10
532.9447970127639564
 20
78.9537516693073655
 30
0.0
 40
1.596658470612589
 50
265.0783126445850826
 51
271.034482455688817
  0
ARC
  5
8A3E
  8
0
 10
532.7910027958479304
 20
70.9436081194959911
 30
0.0
 40
6.4193941402611721
 50
89.84995978331429
 51
90.1500402166857242
  0
ARC
  5
8A3F
  8
0
 10
532.5537630688472746
 20
78.7056681334263857
 30
0.0
 40
1.360661542666147
 50
276.542229811660718
 51
279.3230936198831955
  0
ARC
  5
8A40
  8
0
 10
533.5399029621734144
 20
66.9165512017222284
 30
0.0
 40
10.4703538126456195
 50
94.5527948644678702
 51
96.3304613465895727
  0
ARC
  5
8A41
  8
0
 10
531.9769719390141063
 20
80.0551887824921522
 30
0.0
 40
2.7624884106318368
 50
278.5025035863346261
 51
279.8984726525761175
  0
ARC
  5
8A42
  8
0
 10
532.4056208252179658
 20
77.1630007009715939
 30
0.0
 40
0.1769676406899391
 50
74.8564517724439185
 51
87.8761143202916202
  0
ARC
  5
8A43
  8
0
 10
532.2436608211047542
 20
68.6154420994378285
 30
0.0
 40
8.7260320501132203
 50
88.893426258881675
 51
93.1766515836885674
  0
ARC
  5
8A44
  8
0
 10
531.8498001362463583
 20
76.3312908203631082
 30
0.0
 40
1.0008021100798179
 50
95.1415887968299074
 51
100.106183755859206
  0
ARC
  5
8A45
  8
0
 10
531.7259341185481389
 20
77.0347641099611167
 30
0.0
 40
0.286512506577427
 50
100.4054321830298022
 51
123.619499424343104
  0
ARC
  5
8A46
  8
0
 10
532.4339201045249865
 20
77.2736870080440355
 30
0.0
 40
0.0692155731994499
 50
107.2298277528385029
 51
141.1722027665670112
  0
LINE
  5
8A47
  8
0
 10
532.3799988283699349
 20
77.3170839152049751
 30
0.0
 11
532.3038581380543519
 21
77.2364238154549554
 31
0.0
  0
ARC
  5
8A48
  8
0
 10
532.2652688896619111
 20
77.2726721215634313
 30
0.0
 40
0.0529440250380005
 50
301.0246939849780006
 51
316.7916458376723199
  0
ARC
  5
8A49
  8
0
 10
531.4016506623601117
 20
36.2317784363395603
 30
0.0
 40
41.0052029013539965
 50
87.8394551874847593
 51
90.1374510040913037
  0
ARC
  5
8A4A
  8
0
 10
520.9412027704080401
 20
-4582.9137964443007149
 30
0.0
 40
4660.1621800723605702
 50
89.8726001839805662
 51
89.9382727306664691
  0
LINE
  5
8A4B
  8
0
 10
531.718256645426095
 20
77.235759043503748
 30
0.0
 11
531.6754123256281446
 21
77.2698390930740118
 31
0.0
  0
ARC
  5
8A4C
  8
0
 10
532.9313694422160097
 20
77.094166098465621
 30
0.0
 40
0.1148088500877344
 50
3.4729592153649862
 51
81.9061842777545337
  0
LINE
  5
8A4D
  8
0
 10
533.0459674457543997
 20
77.1011209272546836
 30
0.0
 11
533.0513276725695277
 21
76.7940421405973268
 31
0.0
  0
ARC
  5
8A4E
  8
0
 10
532.9793851922604517
 20
76.7900388148524797
 30
0.0
 40
0.0720537791516733
 50
308.455385084021998
 51
3.1850077348942851
  0
ARC
  5
8A4F
  8
0
 10
532.9801300748628137
 20
76.7892689579357892
 30
0.0
 40
0.07098774056857
 50
260.5431196810786219
 51
308.3710131882788232
  0
LINE
  5
8A50
  8
0
 10
532.9684664128543545
 20
76.719245973854953
 30
0.0
 11
532.8954370473992412
 21
76.7312777879243697
 31
0.0
  0
ARC
  5
8A51
  8
0
 10
533.1534614808425658
 20
75.1402258773019156
 30
0.0
 40
1.6118383264301519
 50
95.921269528012914
 51
108.9797317547769069
  0
ARC
  5
8A52
  8
0
 10
532.6623741191052659
 20
76.6112466093626239
 30
0.0
 40
0.0626657241371663
 50
114.263119644234294
 51
157.9511880243699977
  0
ARC
  5
8A53
  8
0
 10
532.0450701550995518
 20
76.4038443031646608
 30
0.0
 40
0.0157688064027929
 50
219.5710165863949896
 51
270.9858103183476032
  0
ARC
  5
8A54
  8
0
 10
532.0464723577454151
 20
76.3223556393111551
 30
0.0
 40
0.0657319206423685
 50
42.1472426502884119
 51
90.9858103183476032
  0
ARC
  5
8A55
  8
0
 10
532.1688646065166495
 20
76.3456759098834112
 30
0.0
 40
0.0394512932321237
 50
220.8254317967742963
 51
299.1710020340523783
  0
ARC
  5
8A56
  8
0
 10
532.50729696679673
 20
76.5567955637765181
 30
0.0
 40
0.060034449818911
 50
298.0318741646606213
 51
338.7539714916931075
  0
LINE
  5
8A57
  8
0
 10
532.1880938691539313
 20
76.3112282685110443
 30
0.0
 11
532.5355109178407247
 21
76.5038039782978245
 31
0.0
  0
LINE
  5
8A58
  8
0
 10
532.0952075020943539
 20
76.3664642676804135
 30
0.0
 11
532.1390116177146865
 21
76.3198843686871982
 31
0.0
  0
LINE
  5
8A59
  8
0
 10
532.5632510545437981
 20
76.5350406739939473
 30
0.0
 11
532.604291491576987
 21
76.6347710936512954
 31
0.0
  0
ARC
  5
8A5A
  8
0
 10
531.58983805082255
 20
76.399096130308763
 30
0.0
 40
0.1191264375124157
 50
229.771554439060111
 51
280.2214392786762005
  0
ARC
  5
8A5B
  8
0
 10
531.5213387586973113
 20
76.9881882121669889
 30
0.0
 40
0.7119931057044631
 50
277.2326274637575239
 51
292.3624413746675259
  0
ARC
  5
8A5C
  8
0
 10
530.7942445472257305
 20
78.8789103462942336
 30
0.0
 40
2.7375604621324712
 50
291.3799917400069717
 51
298.392124976372088
  0
ARC
  5
8A5D
  8
0
 10
532.057507970141728
 20
76.5314388749396954
 30
0.0
 40
0.0719396027157588
 50
302.3136808475177872
 51
326.9163017020987922
  0
ARC
  5
8A5E
  8
0
 10
536.3422071837383101
 20
73.6079256297469726
 30
0.0
 40
5.1151356169872706
 50
144.2380236637260964
 51
145.6765139448349942
  0
ARC
  5
8A5F
  8
0
 10
533.1197247108535748
 20
76.7814566702132169
 30
0.0
 40
0.137880940504874
 50
195.9944440931365932
 51
206.4085307099630029
  0
ARC
  5
8A60
  8
0
 10
532.8183706692036594
 20
76.6786702319993765
 30
0.0
 40
0.1808185039595895
 50
20.9981659107559686
 51
30.6360245735221213
  0
ARC
  5
8A61
  8
0
 10
532.7918772872767477
 20
75.2920141487211936
 30
0.0
 40
1.4899645614875381
 50
82.9809161795447352
 51
88.3126087911004731
  0
ARC
  5
8A62
  8
0
 10
532.8992586784298737
 20
77.0480712582593981
 30
0.0
 40
0.2741946531764854
 50
252.7300024354931054
 51
256.6078514439795981
  0
ARC
  5
8A63
  8
0
 10
528.3475323148561529
 20
-99.3600849805280717
 30
0.0
 40
176.203039151937304
 50
88.5462326122968761
 51
89.0574456922631015
  0
ARC
  5
8A64
  8
0
 10
529.8108520450499554
 20
117.6412359034961952
 30
0.0
 40
40.8473451130090126
 50
270.3143143026719031
 51
272.0135538029894064
  0
ARC
  5
8A65
  8
0
 10
534.1267943819259472
 20
71.4087037559314695
 30
0.0
 40
5.5345455360535256
 50
103.680242290092707
 51
110.5046634501729983
  0
ARC
  5
8A66
  8
0
 10
532.1798376664959278
 20
76.6296285199555598
 30
0.0
 40
0.0343658844371117
 50
289.8749334326130906
 51
342.9679229897469099
  0
ARC
  5
8A67
  8
0
 10
532.140687590655034
 20
76.5545208726055648
 30
0.0
 40
0.0970343656740171
 50
42.0898272059682128
 51
80.460354568663675
  0
ARC
  5
8A68
  8
0
 10
532.1439801428639385
 20
76.4538505982859817
 30
0.0
 40
0.1968712188580313
 50
60.8228937086553003
 51
85.6977720173318573
  0
ARC
  5
8A69
  8
0
 10
532.0865087246786516
 20
73.6027318247722775
 30
0.0
 40
3.0482913677356009
 50
88.6420437181019167
 51
97.38194021269004
  0
ARC
  5
8A6A
  8
0
 10
532.0669123314700073
 20
72.5997767073703386
 30
0.0
 40
4.0431364723822512
 50
95.279938577057294
 51
97.3885493735034089
  0
ARC
  5
8A6B
  8
0
 10
531.5889145900813446
 20
76.3677673414276939
 30
0.0
 40
0.2451872720689639
 50
99.8487211916640547
 51
123.1310806013525934
  0
ARC
  5
8A6C
  8
0
 10
531.4684368563364387
 20
76.552360851748162
 30
0.0
 40
0.0247566744180653
 50
123.1310806013525934
 51
148.3747700085698114
  0
ARC
  5
8A6D
  8
0
 10
432.2436120006929059
 20
126.2514369489610999
 30
0.0
 40
110.950849272755093
 50
333.3164658453749212
 51
333.3960475020318199
  0
ARC
  5
8A6E
  8
0
 10
531.4359682431586407
 20
76.3920965120110509
 30
0.0
 40
0.0677644802816541
 50
148.4040834505472901
 51
189.5429235000354993
  0
ARC
  5
8A6F
  8
0
 10
531.4102236812218507
 20
76.3984799003616217
 30
0.0
 40
0.0447004745477812
 50
203.2117566354440896
 51
268.1501685179470087
  0
ARC
  5
8A70
  8
0
 10
531.4340190796127672
 20
76.5761539649204366
 30
0.0
 40
0.2237790184921882
 50
263.5242670877432829
 51
278.0719791570908797
  0
LINE
  5
8A71
  8
0
 10
531.5129018125543325
 20
76.3081460156549554
 30
0.0
 11
531.461319937454391
 21
76.358625493354964
 31
0.0
  0
ARC
  5
8A72
  8
0
 10
531.4653607332758156
 20
76.4737169818359632
 30
0.0
 40
0.115162401640496
 50
244.4210848508976994
 51
267.9892041397184244
  0
ARC
  5
8A73
  8
0
 10
531.4371546063848655
 20
76.414790613889835
 30
0.0
 40
0.049833216481811
 50
180.9084695336929087
 51
244.4210848508976994
  0
ARC
  5
8A74
  8
0
 10
531.4549508592581333
 20
76.4150728110897006
 30
0.0
 40
0.0676317066308356
 50
151.3079358031492063
 51
180.9084695336937045
  0
ARC
  5
8A75
  8
0
 10
528.8298681990750083
 20
77.6420440770806692
 30
0.0
 40
2.830182520623552
 50
335.0354146116727065
 51
335.5436786165029162
  0
ARC
  5
8A76
  8
0
 10
533.92077359124346
 20
75.2982435402789605
 30
0.0
 40
2.7744050395135602
 50
152.6598747658088939
 51
155.0092882844234907
  0
ARC
  5
8A77
  8
0
 10
531.5182790319386186
 20
76.5004622170508526
 30
0.0
 40
0.0950046681214082
 50
122.0210472482122981
 51
130.7361506811660945
  0
ARC
  5
8A78
  8
0
 10
531.9395912872506642
 20
76.4216587220750938
 30
0.0
 40
0.0725799738750787
 50
225.6842050568835987
 51
302.0816767992866971
  0
LINE
  5
8A79
  8
0
 10
531.9781405176753424
 20
76.3601623039567983
 30
0.0
 11
532.0353608402259624
 21
76.3914191488374996
 31
0.0
  0
ARC
  5
8A7A
  8
0
 10
532.2677236756624097
 20
75.9618698514295261
 30
0.0
 40
0.4927949599877094
 50
119.2151656335686027
 51
126.4431804627762972
  0
ARC
  5
8A7B
  8
0
 10
537.2855645778693088
 20
66.9890784748369441
 30
0.0
 40
10.7733451596469791
 50
116.9293570061281997
 51
119.2151656335686027
  0
ARC
  5
8A7C
  8
0
 10
532.9282335630018679
 20
75.4611861391558278
 30
0.0
 40
1.247426891482682
 50
106.2227303204983002
 51
114.728706128710499
  0
ARC
  5
8A7D
  8
0
 10
532.7600044461116795
 20
76.0894446456491664
 30
0.0
 40
0.5973490645281831
 50
99.6747798842416159
 51
107.5644540356181977
  0
ARC
  5
8A7E
  8
0
 10
532.6182973377161716
 20
76.7424562789429672
 30
0.0
 40
0.0763123807523724
 50
283.8948417241082893
 51
302.7823876887352981
  0
ARC
  5
8A7F
  8
0
 10
532.6298568674391163
 20
76.6850132798956565
 30
0.0
 40
0.0179596443856899
 50
292.1320977941443857
 51
328.5956533334691017
  0
ARC
  5
8A80
  8
0
 10
532.7678300601276078
 20
75.3964822925673133
 30
0.0
 40
1.131701813711697
 50
101.8026670833452982
 51
105.692512999382501
  0
ARC
  5
8A81
  8
0
 10
532.5685675132575625
 20
76.251116198169953
 30
0.0
 40
0.2580407020944648
 50
114.4576381055730963
 51
123.3723164474087071
  0
ARC
  5
8A82
  8
0
 10
539.0217292647186014
 20
66.0539897038679271
 30
0.0
 40
12.3255040312225006
 50
122.3491905444278984
 51
123.6863268387977968
  0
ARC
  5
8A83
  8
0
 10
531.3783187687887448
 20
76.8050251759929097
 30
0.0
 40
0.4714190209980743
 50
270.1072031410992054
 51
282.0027314227323245
  0
ARC
  5
8A84
  8
0
 10
531.3789298625573565
 20
76.478420445876452
 30
0.0
 40
0.1448137191886346
 50
206.8146121604758889
 51
270.1072031410992054
  0
ARC
  5
8A85
  8
0
 10
530.3015604893323598
 20
76.1057265063162447
 30
0.0
 40
0.9967047720423517
 50
17.9618648805231693
 51
45.0699848653465125
  0
ARC
  5
8A86
  8
0
 10
532.2024676986942495
 20
76.6638937418820916
 30
0.0
 40
0.0534890753583586
 50
294.9461478174017088
 51
314.4981637675232946
  0
ARC
  5
8A87
  8
0
 10
532.1271283079857994
 20
76.7338698991438406
 30
0.0
 40
0.1536898882488738
 50
293.4740605163102032
 51
309.5679074368046031
  0
ARC
  5
8A88
  8
0
 10
532.1531082973397133
 20
76.5724826368581546
 30
0.0
 40
0.0781748490063275
 50
30.2710248646061899
 51
79.2865828310847434
  0
ARC
  5
8A89
  8
0
 10
531.0028564172921506
 20
76.1088347022709257
 30
0.0
 40
0.7750443618484523
 50
116.4640520783783018
 51
146.3918987640028888
  0
ARC
  5
8A8A
  8
0
 10
530.8250195211644495
 20
76.2270255015166072
 30
0.0
 40
0.5615144420463614
 50
146.3918987640028888
 51
178.1497416317563136
  0
ARC
  5
8A8B
  8
0
 10
530.164811259617295
 20
76.2547353157379177
 30
0.0
 40
0.0994235962762853
 50
321.1508875165761765
 51
354.5436797430502907
  0
ARC
  5
8A8C
  8
0
 10
530.1609224890787573
 20
76.2578674595113029
 30
0.0
 40
0.1044168778543606
 50
272.5753961603928133
 51
321.1508875165761765
  0
ARC
  5
8A8D
  8
0
 10
529.4646183686841141
 20
93.9360921776195852
 30
0.0
 40
17.7963475637048312
 50
269.5153039520135962
 51
272.257457882382198
  0
ARC
  5
8A8E
  8
0
 10
529.2525546312147071
 20
-242.8107247009565128
 30
0.0
 40
318.9511120310398837
 50
89.9889492759726437
 51
90.2816615257646902
  0
ARC
  5
8A8F
  8
0
 10
526.8617006927482862
 20
-10.3501623646847296
 30
0.0
 40
86.490610737637013
 50
89.4548465307285738
 51
90.5961507622450171
  0
ARC
  5
8A90
  8
0
 10
530.0192517285727263
 20
76.4202695525511047
 30
0.0
 40
0.271854360773903
 50
270.1832756449904878
 51
283.7137670149515998
  0
ARC
  5
8A91
  8
0
 10
529.6906586882738566
 20
72.5520730367444315
 30
0.0
 40
3.6254602570274201
 50
83.7762400563802174
 51
90.1127112823975267
  0
ARC
  5
8A92
  8
0
 10
524.8394880645523699
 20
-1040.1026255351080181
 30
0.0
 40
1116.2906619893319657
 50
89.7513695555064146
 51
89.9423951586175434
  0
ARC
  5
8A93
  8
0
 10
531.640965141812444
 20
77.4218268206044939
 30
0.0
 40
0.1657446289708461
 50
232.0249347894751963
 51
260.8050687093262923
  0
ARC
  5
8A94
  8
0
 10
530.9108732478456432
 20
76.6904615826276768
 30
0.0
 40
0.8691217447309751
 50
43.7229251500956124
 51
49.996023081348369
  0
LINE
  5
8A95
  8
0
 10
532.3102128647469726
 20
77.2431557335237642
 30
0.0
 11
531.8545357388268258
 21
77.2431557335237642
 31
0.0
  0
LINE
  5
8A96
  8
0
 10
531.8545357388268258
 20
77.2431557335237642
 30
0.0
 11
531.8479463700163024
 21
77.2345525513008226
 31
0.0
  0
ARC
  5
8A97
  8
0
 10
529.6540756296003565
 20
83.5109853989036708
 30
0.0
 40
7.0119077416241229
 50
275.7367502639889949
 51
282.169130641104573
  0
LINE
  5
8A98
  8
0
 10
531.2155282200508282
 20
77.3562086871492198
 30
0.0
 11
531.5886305667665965
 21
77.2645615215475914
 31
0.0
  0
LINE
  5
8A99
  8
0
 10
531.6144801678746035
 20
77.2582119429551852
 30
0.0
 11
531.7054944897454334
 21
77.2358555983702928
 31
0.0
  0
ARC
  5
8A9A
  8
0
 10
529.7980117202214387
 20
68.8548674597919046
 30
0.0
 40
8.5166085301574181
 50
79.7997754005113649
 51
86.3811181932260865
  0
LINE
  5
8A9B
  8
0
 10
529.7019575874543307
 20
77.3562086871492198
 30
0.0
 11
529.7019575874543307
 21
77.2401488403184828
 31
0.0
  0
LINE
  5
8A9C
  8
0
 10
529.7195552954251525
 20
77.3562086871492198
 30
0.0
 11
529.7195552954251525
 21
77.2401157246650598
 31
0.0
  0
LINE
  5
8A9D
  8
0
 10
530.235516300388781
 20
77.3562086871492198
 30
0.0
 11
530.235516300388781
 21
77.2391152435530728
 31
0.0
  0
LINE
  5
8A9E
  8
0
 10
530.2552233984765735
 20
77.3562086871492198
 30
0.0
 11
530.2552233984765735
 21
77.2390758976044651
 31
0.0
  0
ARC
  5
8A9F
  8
0
 10
530.3296566997452146
 20
77.2663122209085742
 30
0.0
 40
0.0883798803130227
 50
86.1603053743980354
 51
147.3728872925632913
  0
ARC
  5
8AA0
  8
0
 10
525.0618992545488481
 20
-10.3501623648613705
 30
0.0
 40
86.4906107378136397
 50
89.4038492377549829
 51
90.5451534692649034
  0
ARC
  5
8AA1
  8
0
 10
531.5541631650844465
 20
76.9216670088827215
 30
0.0
 40
0.6386253137756569
 50
276.55104170243402
 51
287.3054562498734867
  0
ARC
  5
8AA2
  8
0
 10
531.6134888603269246
 20
76.4050641572125357
 30
0.0
 40
0.1186271940965893
 50
247.4567364525399
 51
276.55104170243402
  0
ARC
  5
8AA3
  8
0
 10
531.6081281682694453
 20
76.3422331246742942
 30
0.0
 40
0.0615904298426988
 50
141.0011716634400898
 51
229.3543464162046064
  0
ARC
  5
8AA4
  8
0
 10
531.9273981852309134
 20
76.2158090563159476
 30
0.0
 40
0.4025841681409207
 50
146.1111869263982896
 51
155.7758627719042011
  0
ARC
  5
8AA5
  8
0
 10
531.6421677202033607
 20
76.4061951710085765
 30
0.0
 40
0.0596605692795102
 50
102.4455962066279966
 51
145.1545006007278005
  0
ARC
  5
8AA6
  8
0
 10
531.9813414507049174
 20
74.2511621598916207
 30
0.0
 40
2.241112638530947
 50
89.2298201488726335
 51
99.0373809544114749
  0
ARC
  5
8AA7
  8
0
 10
532.0061078918062094
 20
76.2397481468186555
 30
0.0
 40
0.2523810617473773
 50
68.0255568218526747
 51
88.7835127835711262
  0
ARC
  5
8AA8
  8
0
 10
519.9190235151645538
 20
76.2770583980647672
 30
0.0
 40
0.216837511597502
 50
85.1499140529472385
 51
115.7120958370322938
  0
ARC
  5
8AA9
  8
0
 10
519.9245916867574806
 20
74.1286535815341523
 30
0.0
 40
2.3645003625585308
 50
81.0802269142395176
 51
89.690676364342977
  0
ARC
  5
8AAA
  8
0
 10
520.2881008998324432
 20
76.423949939356902
 30
0.0
 40
0.0407276123557869
 50
27.234080939726109
 51
85.6209892256373024
  0
ARC
  5
8AAB
  8
0
 10
520.0941311181001083
 20
76.2622505874697794
 30
0.0
 40
0.2924133466848903
 50
23.9893771575800514
 51
38.0770657237808123
  0
ARC
  5
8AAC
  8
0
 10
520.2963503509488419
 20
76.3359503797110506
 30
0.0
 40
0.0791101168003336
 50
347.3199690094170933
 51
34.8323619416386876
  0
ARC
  5
8AAD
  8
0
 10
520.334564675722504
 20
76.3273524036451505
 30
0.0
 40
0.0399404881278923
 50
263.6436337103015717
 51
347.3199690094161838
  0
ARC
  5
8AAE
  8
0
 10
520.3219393798718784
 20
76.7105108286727955
 30
0.0
 40
0.4229329457580432
 50
254.0568648296915057
 51
271.1114048303462027
  0
ARC
  5
8AAF
  8
0
 10
519.9872218110157291
 20
74.9445713232625934
 30
0.0
 40
1.698690464532244
 50
76.3384125394483704
 51
81.6648896557326935
  0
ARC
  5
8AB0
  8
0
 10
520.3531216759081417
 20
76.4499382527025375
 30
0.0
 40
0.1494931551556535
 50
51.0287184188947975
 51
76.3384125394483704
  0
ARC
  5
8AB1
  8
0
 10
520.6678412191209873
 20
76.6773029988754615
 30
0.0
 40
0.2471030675402517
 50
206.7289431282630972
 51
212.7384972414529045
  0
ARC
  5
8AB2
  8
0
 10
522.4546452683687221
 20
77.3857144939622259
 30
0.0
 40
2.1651067465869631
 50
202.8871115257331041
 51
206.1057303433049981
  0
ARC
  5
8AB3
  8
0
 10
520.474123191770218
 20
76.405630764524318
 30
0.0
 40
0.0454580061912203
 50
290.2091162900105132
 51
37.0263604212226269
  0
ARC
  5
8AB4
  8
0
 10
531.4447903448320858
 20
76.4041346564224142
 30
0.0
 40
0.0428415385687225
 50
143.4673083032442946
 51
261.1547985453046863
  0
ARC
  5
8AB5
  8
0
 10
524.9762647431568894
 20
79.4008038238089995
 30
0.0
 40
7.0869947248354572
 50
335.2132540192271222
 51
336.2166637509109819
  0
ARC
  5
8AB6
  8
0
 10
531.6536630998856481
 20
76.4610213435936288
 30
0.0
 40
0.2089097692252681
 50
150.5666240024777096
 51
156.9649732581040098
  0
ARC
  5
8AB7
  8
0
 10
531.5754502119129938
 20
76.4334631449423512
 30
0.0
 40
0.1664852798287521
 50
103.9385257807063994
 51
128.5408612722467865
  0
ARC
  5
8AB8
  8
0
 10
531.9052706783013491
 20
75.0992400290478201
 30
0.0
 40
1.5408697551750381
 50
97.3333791688496319
 51
103.890938258113195
  0
ARC
  5
8AB9
  8
0
 10
531.5073971108147362
 20
76.3919993527404841
 30
0.0
 40
0.0568939398808647
 50
146.964418609949405
 51
215.9159469123034114
  0
ARC
  5
8ABA
  8
0
 10
528.5846157213181868
 20
77.4303694933205975
 30
0.0
 40
3.0464532929796668
 50
340.6908891161355086
 51
343.0083033397522172
  0
ARC
  5
8ABB
  8
0
 10
532.1388814012591411
 20
73.5743867321977945
 30
0.0
 40
3.054839871970457
 50
92.4273861643826251
 51
101.1218105031392014
  0
ARC
  5
8ABC
  8
0
 10
532.025397537835488
 20
76.2514456535443657
 30
0.0
 40
0.3753766690847025
 50
64.5695527018760913
 51
92.4273861643826251
  0
ARC
  5
8ABD
  8
0
 10
520.42084621595302
 20
76.3901157822274826
 30
0.0
 40
0.0520422671291351
 50
322.7646351626381147
 51
33.6741926796613811
  0
ARC
  5
8ABE
  8
0
 10
522.7731298082693456
 20
77.2905138171172723
 30
0.0
 40
2.467984163600474
 50
197.6785059752529889
 51
200.6794488453033978
  0
ARC
  5
8ABF
  8
0
 10
519.7665422273136073
 20
73.1551439435866229
 30
0.0
 40
3.4713456496594528
 50
79.9750400232317844
 51
88.4312705270829724
  0
ARC
  5
8AC0
  8
0
 10
519.8560713526376276
 20
76.4242602953626147
 30
0.0
 40
0.2010035902212652
 50
88.4312705270829724
 51
125.6178291032694005
  0
LINE
  5
8AC2
  8
0
 10
519.1955984310736767
 20
77.3562086871492198
 30
0.0
 11
532.7280015162232303
 21
77.3562086871492198
 31
0.0
  0
LINE
  5
8AC3
  8
0
 10
530.0349320821527499
 20
76.7945054233435656
 30
0.0
 11
521.8886678651422244
 21
76.7945054233435656
 31
0.0
  0
ARC
  5
8AC4
  8
0
 10
531.7859165706532849
 20
77.1998122542225076
 30
0.0
 40
0.1308241045376368
 50
101.3764264327418942
 51
147.637454319083588
  0
ARC
  5
8AC5
  8
0
 10
520.1976658287486543
 20
77.0347641099611167
 30
0.0
 40
0.286512506577427
 50
56.3805005756568676
 51
79.5945678169701267
  0
ARC
  5
8AC6
  8
0
 10
520.1376833766436221
 20
77.1998122542225076
 30
0.0
 40
0.1308241045376368
 50
32.3625456809163765
 51
78.6235735672580631
  0
ARC
  5
8AC7
  8
0
 10
531.549878271114153
 20
76.5137398895895871
 30
0.0
 40
0.0581152926070037
 50
90.2580336490728143
 51
153.0317714948106982
  0
ARC
  5
8AC8
  8
0
 10
520.364953387998753
 20
76.5081782823187382
 30
0.0
 40
0.0655741897134834
 50
30.0824921543904509
 51
84.8634028849805446
  0
ENDSEC
  0
EOF
